  0
SECTION
  2
HEADER
  9
$ACADVER
  1
AC1018
  9
$ACADMAINTVER
 70
     0
  9
$DWGCODEPAGE
  3
ANSI_1252
  9
$INSBASE
 10
0.0
 20
0.0
 30
0.0
  9
$EXTMIN
 10
1.000000000000000E+20
 20
1.000000000000000E+20
 30
1.000000000000000E+20
  9
$EXTMAX
 10
-1.000000000000000E+20
 20
-1.000000000000000E+20
 30
-1.000000000000000E+20
  9
$LIMMIN
 10
0.0
 20
0.0
  9
$LIMMAX
 10
12.0
 20
9.0
  9
$ORTHOMODE
 70
     0
  9
$REGENMODE
 70
     1
  9
$FILLMODE
 70
     1
  9
$QTEXTMODE
 70
     0
  9
$MIRRTEXT
 70
     1
  9
$LTSCALE
 40
1.0
  9
$ATTMODE
 70
     1
  9
$TEXTSIZE
 40
0.2
  9
$TRACEWID
 40
0.05
  9
$TEXTSTYLE
  7
Standard
  9
$CLAYER
  8
0
  9
$CELTYPE
  6
ByLayer
  9
$CECOLOR
 62
   256
  9
$CELTSCALE
 40
1.0
  9
$DISPSILH
 70
     0
  9
$DIMSCALE
 40
1.0
  9
$DIMASZ
 40
0.18
  9
$DIMEXO
 40
0.0625
  9
$DIMDLI
 40
0.38
  9
$DIMRND
 40
0.0
  9
$DIMDLE
 40
0.0
  9
$DIMEXE
 40
0.18
  9
$DIMTP
 40
0.0
  9
$DIMTM
 40
0.0
  9
$DIMTXT
 40
0.18
  9
$DIMCEN
 40
0.09
  9
$DIMTSZ
 40
0.0
  9
$DIMTOL
 70
     0
  9
$DIMLIM
 70
     0
  9
$DIMTIH
 70
     1
  9
$DIMTOH
 70
     1
  9
$DIMSE1
 70
     0
  9
$DIMSE2
 70
     0
  9
$DIMTAD
 70
     0
  9
$DIMZIN
 70
     0
  9
$DIMBLK
  1

  9
$DIMASO
 70
     1
  9
$DIMSHO
 70
     1
  9
$DIMPOST
  1

  9
$DIMAPOST
  1

  9
$DIMALT
 70
     0
  9
$DIMALTD
 70
     2
  9
$DIMALTF
 40
25.4
  9
$DIMLFAC
 40
1.0
  9
$DIMTOFL
 70
     0
  9
$DIMTVP
 40
0.0
  9
$DIMTIX
 70
     0
  9
$DIMSOXD
 70
     0
  9
$DIMSAH
 70
     0
  9
$DIMBLK1
  1

  9
$DIMBLK2
  1

  9
$DIMSTYLE
  2
Standard
  9
$DIMCLRD
 70
     0
  9
$DIMCLRE
 70
     0
  9
$DIMCLRT
 70
     0
  9
$DIMTFAC
 40
1.0
  9
$DIMGAP
 40
0.09
  9
$DIMJUST
 70
     0
  9
$DIMSD1
 70
     0
  9
$DIMSD2
 70
     0
  9
$DIMTOLJ
 70
     1
  9
$DIMTZIN
 70
     0
  9
$DIMALTZ
 70
     0
  9
$DIMALTTZ
 70
     0
  9
$DIMUPT
 70
     0
  9
$DIMDEC
 70
     4
  9
$DIMTDEC
 70
     4
  9
$DIMALTU
 70
     2
  9
$DIMALTTD
 70
     2
  9
$DIMTXSTY
  7
Standard
  9
$DIMAUNIT
 70
     0
  9
$DIMADEC
 70
     0
  9
$DIMALTRND
 40
0.0
  9
$DIMAZIN
 70
     0
  9
$DIMDSEP
 70
    46
  9
$DIMATFIT
 70
     3
  9
$DIMFRAC
 70
     0
  9
$DIMLDRBLK
  1

  9
$DIMLUNIT
 70
     2
  9
$DIMLWD
 70
    -2
  9
$DIMLWE
 70
    -2
  9
$DIMTMOVE
 70
     0
  9
$LUNITS
 70
     2
  9
$LUPREC
 70
     4
  9
$SKETCHINC
 40
0.1
  9
$FILLETRAD
 40
0.5
  9
$AUNITS
 70
     0
  9
$AUPREC
 70
     0
  9
$MENU
  1
.
  9
$ELEVATION
 40
0.0
  9
$PELEVATION
 40
0.0
  9
$THICKNESS
 40
0.0
  9
$LIMCHECK
 70
     0
  9
$CHAMFERA
 40
0.5
  9
$CHAMFERB
 40
0.5
  9
$CHAMFERC
 40
1.0
  9
$CHAMFERD
 40
0.0
  9
$SKPOLY
 70
     0
  9
$TDCREATE
 40
2457700.93856963
  9
$TDUCREATE
 40
2457701.146902963
  9
$TDUPDATE
 40
2457700.938569641
  9
$TDUUPDATE
 40
2457701.146902975
  9
$TDINDWG
 40
0.0000000116
  9
$TDUSRTIMER
 40
0.0000000116
  9
$USRTIMER
 70
     1
  9
$ANGBASE
 50
0.0
  9
$ANGDIR
 70
     0
  9
$PDMODE
 70
     0
  9
$PDSIZE
 40
0.0
  9
$PLINEWID
 40
0.0
  9
$SPLFRAME
 70
     0
  9
$SPLINETYPE
 70
     6
  9
$SPLINESEGS
 70
     8
  9
$HANDSEED
  5
64
  9
$SURFTAB1
 70
     6
  9
$SURFTAB2
 70
     6
  9
$SURFTYPE
 70
     6
  9
$SURFU
 70
     6
  9
$SURFV
 70
     6
  9
$UCSBASE
  2

  9
$UCSNAME
  2

  9
$UCSORG
 10
0.0
 20
0.0
 30
0.0
  9
$UCSXDIR
 10
1.0
 20
0.0
 30
0.0
  9
$UCSYDIR
 10
0.0
 20
1.0
 30
0.0
  9
$UCSORTHOREF
  2

  9
$UCSORTHOVIEW
 70
     0
  9
$UCSORGTOP
 10
0.0
 20
0.0
 30
0.0
  9
$UCSORGBOTTOM
 10
0.0
 20
0.0
 30
0.0
  9
$UCSORGLEFT
 10
0.0
 20
0.0
 30
0.0
  9
$UCSORGRIGHT
 10
0.0
 20
0.0
 30
0.0
  9
$UCSORGFRONT
 10
0.0
 20
0.0
 30
0.0
  9
$UCSORGBACK
 10
0.0
 20
0.0
 30
0.0
  9
$PUCSBASE
  2

  9
$PUCSNAME
  2

  9
$PUCSORG
 10
0.0
 20
0.0
 30
0.0
  9
$PUCSXDIR
 10
1.0
 20
0.0
 30
0.0
  9
$PUCSYDIR
 10
0.0
 20
1.0
 30
0.0
  9
$PUCSORTHOREF
  2

  9
$PUCSORTHOVIEW
 70
     0
  9
$PUCSORGTOP
 10
0.0
 20
0.0
 30
0.0
  9
$PUCSORGBOTTOM
 10
0.0
 20
0.0
 30
0.0
  9
$PUCSORGLEFT
 10
0.0
 20
0.0
 30
0.0
  9
$PUCSORGRIGHT
 10
0.0
 20
0.0
 30
0.0
  9
$PUCSORGFRONT
 10
0.0
 20
0.0
 30
0.0
  9
$PUCSORGBACK
 10
0.0
 20
0.0
 30
0.0
  9
$USERI1
 70
     0
  9
$USERI2
 70
     0
  9
$USERI3
 70
     0
  9
$USERI4
 70
     0
  9
$USERI5
 70
     0
  9
$USERR1
 40
0.0
  9
$USERR2
 40
0.0
  9
$USERR3
 40
0.0
  9
$USERR4
 40
0.0
  9
$USERR5
 40
0.0
  9
$WORLDVIEW
 70
     1
  9
$SHADEDGE
 70
     3
  9
$SHADEDIF
 70
    70
  9
$TILEMODE
 70
     1
  9
$MAXACTVP
 70
    64
  9
$PINSBASE
 10
0.0
 20
0.0
 30
0.0
  9
$PLIMCHECK
 70
     0
  9
$PEXTMIN
 10
1.000000000000000E+20
 20
1.000000000000000E+20
 30
1.000000000000000E+20
  9
$PEXTMAX
 10
-1.000000000000000E+20
 20
-1.000000000000000E+20
 30
-1.000000000000000E+20
  9
$PLIMMIN
 10
0.0
 20
0.0
  9
$PLIMMAX
 10
12.0
 20
9.0
  9
$UNITMODE
 70
     0
  9
$VISRETAIN
 70
     1
  9
$PLINEGEN
 70
     0
  9
$PSLTSCALE
 70
     1
  9
$TREEDEPTH
 70
  3020
  9
$CMLSTYLE
  2
Standard
  9
$CMLJUST
 70
     0
  9
$CMLSCALE
 40
1.0
  9
$PROXYGRAPHICS
 70
     1
  9
$MEASUREMENT
 70
     0
  9
$CELWEIGHT
370
    -1
  9
$ENDCAPS
280
     0
  9
$JOINSTYLE
280
     0
  9
$LWDISPLAY
290
     1
  9
$INSUNITS
 70
     1
  9
$HYPERLINKBASE
  1

  9
$STYLESHEET
  1

  9
$XEDIT
290
     1
  9
$CEPSNTYPE
380
     0
  9
$PSTYLEMODE
290
     1
  9
$FINGERPRINTGUID
  2
{49571693-B8D1-4DD6-9691-477DFC519A45}
  9
$VERSIONGUID
  2
{FAEB1C32-E019-11D5-929B-00C0DF256EC4}
  9
$EXTNAMES
290
     1
  9
$PSVPSCALE
 40
0.0
  9
$OLESTARTUP
290
     0
  9
$SORTENTS
280
   127
  9
$INDEXCTL
280
     0
  9
$HIDETEXT
280
     1
  9
$XCLIPFRAME
290
     0
  9
$HALOGAP
280
     0
  9
$OBSCOLOR
 70
   257
  9
$OBSLTYPE
280
     0
  9
$INTERSECTIONDISPLAY
280
     0
  9
$INTERSECTIONCOLOR
 70
   257
  9
$DIMASSOC
280
     2
  9
$PROJECTNAME
  1

  0
ENDSEC
  0
SECTION
  2
CLASSES
  0
CLASS
  1
ACDBDICTIONARYWDFLT
  2
AcDbDictionaryWithDefault
  3
ObjectDBX Classes
 90
        0
 91
        3
280
     0
281
     0
  0
CLASS
  1
VISUALSTYLE
  2
AcDbVisualStyle
  3
ObjectDBX Classes
 90
     4095
 91
        3
280
     0
281
     0
  0
ENDSEC
  0
SECTION
  2
TABLES
  0
TABLE
  2
VPORT
  5
8
330
0
100
AcDbSymbolTable
 70
     1
  0
VPORT
  5
29
330
8
100
AcDbSymbolTableRecord
100
AcDbViewportTableRecord
  2
*Active
 70
     0
 10
0.0
 20
0.0
 11
1.0
 21
1.0
 12
0.0
 22
0.0
 13
0.0
 23
0.0
 14
0.5
 24
0.5
 15
0.5
 25
0.5
 16
0.0
 26
0.0
 36
1.0
 17
5.5
 27
4.25
 37
0.0
 40
8.5
 41
1.294117647058824
 42
50.0
 43
0.0
 44
0.0
 50
0.0
 51
0.0
 71
     0
 72
   100
 73
     1
 74
     3
 75
     0
 76
     0
 77
     0
 78
     0
281
     0
 65
     1
110
0.0
120
0.0
130
0.0
111
1.0
121
0.0
131
0.0
112
0.0
122
1.0
132
0.0
 79
     0
146
0.0
  0
ENDTAB
  0
TABLE
  2
LTYPE
  5
5
330
0
100
AcDbSymbolTable
 70
     1
  0
LTYPE
  5
14
330
5
100
AcDbSymbolTableRecord
100
AcDbLinetypeTableRecord
  2
ByBlock
 70
     0
  3

 72
    65
 73
     0
 40
0.0
  0
LTYPE
  5
15
330
5
100
AcDbSymbolTableRecord
100
AcDbLinetypeTableRecord
  2
ByLayer
 70
     0
  3

 72
    65
 73
     0
 40
0.0
  0
LTYPE
  5
16
330
5
100
AcDbSymbolTableRecord
100
AcDbLinetypeTableRecord
  2
Continuous
 70
     0
  3
Solid line
 72
    65
 73
     0
 40
0.0
  0
ENDTAB
  0
TABLE
  2
LAYER
  5
2
330
0
100
AcDbSymbolTable
 70
     2
  0
LAYER
  5
10
330
2
100
AcDbSymbolTableRecord
100
AcDbLayerTableRecord
  2
0
 70
     0
 62
     7
  6
Continuous
370
    -3
390
F
  0
LAYER
  5
3B
330
2
100
AcDbSymbolTableRecord
100
AcDbLayerTableRecord
  2
Layer 1
 70
     0
 62
     7
  6
Continuous
370
    -3
390
F
  0
ENDTAB
  0
TABLE
  2
STYLE
  5
3
330
0
100
AcDbSymbolTable
 70
     1
  0
STYLE
  5
11
330
3
100
AcDbSymbolTableRecord
100
AcDbTextStyleTableRecord
  2
Standard
 70
     0
 40
0.0
 41
1.0
 50
0.0
 71
     0
 42
0.2
  3
txt
  4

  0
ENDTAB
  0
TABLE
  2
VIEW
  5
6
330
0
100
AcDbSymbolTable
 70
     0
  0
ENDTAB
  0
TABLE
  2
UCS
  5
7
330
0
100
AcDbSymbolTable
 70
     0
  0
ENDTAB
  0
TABLE
  2
APPID
  5
9
330
0
100
AcDbSymbolTable
 70
     1
  0
APPID
  5
12
330
9
100
AcDbSymbolTableRecord
100
AcDbRegAppTableRecord
  2
ACAD
 70
     0
  0
ENDTAB
  0
TABLE
  2
DIMSTYLE
  5
A
330
0
100
AcDbSymbolTable
 70
     1
100
AcDbDimStyleTable
  0
DIMSTYLE
105
27
330
A
100
AcDbSymbolTableRecord
100
AcDbDimStyleTableRecord
  2
Standard
 70
     0
340
11
  0
ENDTAB
  0
TABLE
  2
BLOCK_RECORD
  5
1
330
0
100
AcDbSymbolTable
 70
     1
  0
BLOCK_RECORD
  5
1F
330
1
100
AcDbSymbolTableRecord
100
AcDbBlockTableRecord
  2
*Model_Space
340
22
  0
BLOCK_RECORD
  5
1B
330
1
100
AcDbSymbolTableRecord
100
AcDbBlockTableRecord
  2
*Paper_Space
340
1E
  0
BLOCK_RECORD
  5
23
330
1
100
AcDbSymbolTableRecord
100
AcDbBlockTableRecord
  2
*Paper_Space0
340
26
  0
ENDTAB
  0
ENDSEC
  0
SECTION
  2
BLOCKS
  0
BLOCK
  5
20
330
1F
100
AcDbEntity
  8
0
100
AcDbBlockBegin
  2
*Model_Space
 70
     0
 71
     0
 10
0.0
 20
0.0
 30
0.0
  3
*Model_Space
  1

  0
ENDBLK
  5
21
330
1F
100
AcDbEntity
  8
0
100
AcDbBlockEnd
  0
BLOCK
  5
1C
330
1B
100
AcDbEntity
 67
     1
  8
0
100
AcDbBlockBegin
  2
*Paper_Space
 70
     0
 71
     0
 10
0.0
 20
0.0
 30
0.0
  3
*Paper_Space
  1

  0
ENDBLK
  5
1D
330
1B
100
AcDbEntity
 67
     1
  8
0
100
AcDbBlockEnd
  0
BLOCK
  5
24
330
23
100
AcDbEntity
  8
0
100
AcDbBlockBegin
  2
*Paper_Space0
 70
     0
 71
     0
 10
0.0
 20
0.0
 30
0.0
  3
*Paper_Space0
  1

  0
ENDBLK
  5
25
330
23
100
AcDbEntity
  8
0
100
AcDbBlockEnd
  0
ENDSEC
  0
SECTION
  2
ENTITIES
  0
SPLINE
  5
3C
330
1F
100
AcDbEntity
  8
Layer 1
370
     0
100
AcDbSpline
210
0.0
220
0.0
230
1.0
 70
    11
 71
     3
 72
   491
 73
   487
 74
     0
 42
0.0000000001
 43
0.0000000001
 40
0.0
 40
0.0
 40
0.0
 40
0.0
 40
1.0
 40
1.0
 40
1.0
 40
2.0
 40
2.0
 40
2.0
 40
3.0
 40
3.0
 40
3.0
 40
4.0
 40
4.0
 40
4.0
 40
5.0
 40
5.0
 40
5.0
 40
6.0
 40
6.0
 40
6.0
 40
7.0
 40
7.0
 40
7.0
 40
8.0
 40
8.0
 40
8.0
 40
9.0
 40
9.0
 40
9.0
 40
10.0
 40
10.0
 40
10.0
 40
11.0
 40
11.0
 40
11.0
 40
12.0
 40
12.0
 40
12.0
 40
13.0
 40
13.0
 40
13.0
 40
14.0
 40
14.0
 40
14.0
 40
15.0
 40
15.0
 40
15.0
 40
16.0
 40
16.0
 40
16.0
 40
17.0
 40
17.0
 40
17.0
 40
18.0
 40
18.0
 40
18.0
 40
19.0
 40
19.0
 40
19.0
 40
20.0
 40
20.0
 40
20.0
 40
21.0
 40
21.0
 40
21.0
 40
22.0
 40
22.0
 40
22.0
 40
23.0
 40
23.0
 40
23.0
 40
24.0
 40
24.0
 40
24.0
 40
25.0
 40
25.0
 40
25.0
 40
26.0
 40
26.0
 40
26.0
 40
27.0
 40
27.0
 40
27.0
 40
28.0
 40
28.0
 40
28.0
 40
29.0
 40
29.0
 40
29.0
 40
30.0
 40
30.0
 40
30.0
 40
31.0
 40
31.0
 40
31.0
 40
32.0
 40
32.0
 40
32.0
 40
33.0
 40
33.0
 40
33.0
 40
34.0
 40
34.0
 40
34.0
 40
35.0
 40
35.0
 40
35.0
 40
36.0
 40
36.0
 40
36.0
 40
37.0
 40
37.0
 40
37.0
 40
38.0
 40
38.0
 40
38.0
 40
39.0
 40
39.0
 40
39.0
 40
40.0
 40
40.0
 40
40.0
 40
41.0
 40
41.0
 40
41.0
 40
42.0
 40
42.0
 40
42.0
 40
43.0
 40
43.0
 40
43.0
 40
44.0
 40
44.0
 40
44.0
 40
45.0
 40
45.0
 40
45.0
 40
46.0
 40
46.0
 40
46.0
 40
47.0
 40
47.0
 40
47.0
 40
48.0
 40
48.0
 40
48.0
 40
49.0
 40
49.0
 40
49.0
 40
50.0
 40
50.0
 40
50.0
 40
51.0
 40
51.0
 40
51.0
 40
52.0
 40
52.0
 40
52.0
 40
53.0
 40
53.0
 40
53.0
 40
54.0
 40
54.0
 40
54.0
 40
55.0
 40
55.0
 40
55.0
 40
56.0
 40
56.0
 40
56.0
 40
57.0
 40
57.0
 40
57.0
 40
58.0
 40
58.0
 40
58.0
 40
59.0
 40
59.0
 40
59.0
 40
60.0
 40
60.0
 40
60.0
 40
61.0
 40
61.0
 40
61.0
 40
62.0
 40
62.0
 40
62.0
 40
63.0
 40
63.0
 40
63.0
 40
64.0
 40
64.0
 40
64.0
 40
65.0
 40
65.0
 40
65.0
 40
66.0
 40
66.0
 40
66.0
 40
67.0
 40
67.0
 40
67.0
 40
68.0
 40
68.0
 40
68.0
 40
69.0
 40
69.0
 40
69.0
 40
70.0
 40
70.0
 40
70.0
 40
71.0
 40
71.0
 40
71.0
 40
72.0
 40
72.0
 40
72.0
 40
73.0
 40
73.0
 40
73.0
 40
74.0
 40
74.0
 40
74.0
 40
75.0
 40
75.0
 40
75.0
 40
76.0
 40
76.0
 40
76.0
 40
77.0
 40
77.0
 40
77.0
 40
78.0
 40
78.0
 40
78.0
 40
79.0
 40
79.0
 40
79.0
 40
80.0
 40
80.0
 40
80.0
 40
81.0
 40
81.0
 40
81.0
 40
82.0
 40
82.0
 40
82.0
 40
83.0
 40
83.0
 40
83.0
 40
84.0
 40
84.0
 40
84.0
 40
85.0
 40
85.0
 40
85.0
 40
86.0
 40
86.0
 40
86.0
 40
87.0
 40
87.0
 40
87.0
 40
88.0
 40
88.0
 40
88.0
 40
89.0
 40
89.0
 40
89.0
 40
90.0
 40
90.0
 40
90.0
 40
91.0
 40
91.0
 40
91.0
 40
92.0
 40
92.0
 40
92.0
 40
93.0
 40
93.0
 40
93.0
 40
94.0
 40
94.0
 40
94.0
 40
95.0
 40
95.0
 40
95.0
 40
96.0
 40
96.0
 40
96.0
 40
97.0
 40
97.0
 40
97.0
 40
98.0
 40
98.0
 40
98.0
 40
99.0
 40
99.0
 40
99.0
 40
100.0
 40
100.0
 40
100.0
 40
101.0
 40
101.0
 40
101.0
 40
102.0
 40
102.0
 40
102.0
 40
103.0
 40
103.0
 40
103.0
 40
104.0
 40
104.0
 40
104.0
 40
105.0
 40
105.0
 40
105.0
 40
106.0
 40
106.0
 40
106.0
 40
107.0
 40
107.0
 40
107.0
 40
108.0
 40
108.0
 40
108.0
 40
109.0
 40
109.0
 40
109.0
 40
110.0
 40
110.0
 40
110.0
 40
111.0
 40
111.0
 40
111.0
 40
112.0
 40
112.0
 40
112.0
 40
113.0
 40
113.0
 40
113.0
 40
114.0
 40
114.0
 40
114.0
 40
115.0
 40
115.0
 40
115.0
 40
116.0
 40
116.0
 40
116.0
 40
117.0
 40
117.0
 40
117.0
 40
118.0
 40
118.0
 40
118.0
 40
119.0
 40
119.0
 40
119.0
 40
120.0
 40
120.0
 40
120.0
 40
121.0
 40
121.0
 40
121.0
 40
122.0
 40
122.0
 40
122.0
 40
123.0
 40
123.0
 40
123.0
 40
124.0
 40
124.0
 40
124.0
 40
125.0
 40
125.0
 40
125.0
 40
126.0
 40
126.0
 40
126.0
 40
127.0
 40
127.0
 40
127.0
 40
128.0
 40
128.0
 40
128.0
 40
129.0
 40
129.0
 40
129.0
 40
130.0
 40
130.0
 40
130.0
 40
131.0
 40
131.0
 40
131.0
 40
132.0
 40
132.0
 40
132.0
 40
133.0
 40
133.0
 40
133.0
 40
134.0
 40
134.0
 40
134.0
 40
135.0
 40
135.0
 40
135.0
 40
136.0
 40
136.0
 40
136.0
 40
137.0
 40
137.0
 40
137.0
 40
138.0
 40
138.0
 40
138.0
 40
139.0
 40
139.0
 40
139.0
 40
140.0
 40
140.0
 40
140.0
 40
141.0
 40
141.0
 40
141.0
 40
142.0
 40
142.0
 40
142.0
 40
143.0
 40
143.0
 40
143.0
 40
144.0
 40
144.0
 40
144.0
 40
145.0
 40
145.0
 40
145.0
 40
146.0
 40
146.0
 40
146.0
 40
147.0
 40
147.0
 40
147.0
 40
148.0
 40
148.0
 40
148.0
 40
149.0
 40
149.0
 40
149.0
 40
150.0
 40
150.0
 40
150.0
 40
151.0
 40
151.0
 40
151.0
 40
152.0
 40
152.0
 40
152.0
 40
153.0
 40
153.0
 40
153.0
 40
154.0
 40
154.0
 40
154.0
 40
155.0
 40
155.0
 40
155.0
 40
156.0
 40
156.0
 40
156.0
 40
157.0
 40
157.0
 40
157.0
 40
158.0
 40
158.0
 40
158.0
 40
159.0
 40
159.0
 40
159.0
 40
160.0
 40
160.0
 40
160.0
 40
161.0
 40
161.0
 40
161.0
 40
162.0
 40
162.0
 40
162.0
 40
162.0
 10
4.598354763454861
 20
3.386895073784722
 30
0.0
 10
4.6026611328125
 20
3.426744249131944
 30
0.0
 10
4.637532552083333
 20
3.445014105902778
 30
0.0
 10
4.65997314453125
 20
3.471354166666667
 30
0.0
 10
4.737806532118055
 20
3.562703450520833
 30
0.0
 10
4.8243408203125
 20
3.646742078993055
 30
0.0
 10
4.873562282986111
 20
3.759996202256944
 30
0.0
 10
4.891065809461805
 20
3.800279405381944
 30
0.0
 10
4.891282823350694
 20
3.829549153645833
 30
0.0
 10
4.866556803385416
 20
3.867892795138889
 30
0.0
 10
4.738145616319444
 20
4.067070855034722
 30
0.0
 10
4.628160264756944
 20
4.275377061631945
 30
0.0
 10
4.588039822048611
 20
4.512491861979166
 30
0.0
 10
4.560275607638888
 20
4.676608615451388
 30
0.0
 10
4.536838107638888
 20
4.841498480902778
 30
0.0
 10
4.513963487413194
 20
5.006388346354166
 30
0.0
 10
4.506842719184028
 20
5.057766384548611
 30
0.0
 10
4.486090766059028
 20
5.097154405381944
 30
0.0
 10
4.445271809895833
 20
5.129014756944444
 30
0.0
 10
4.2109375
 20
5.311903211805555
 30
0.0
 10
3.943718804253472
 20
5.377916124131944
 30
0.0
 10
3.651055230034722
 20
5.354736328125
 30
0.0
 10
3.647203233506944
 20
5.354424370659722
 30
0.0
 10
3.643690321180555
 20
5.349880642361111
 30
0.0
 10
3.634609646267361
 20
5.343519422743055
 30
0.0
 10
3.769056532118055
 20
5.193277994791666
 30
0.0
 10
3.946797688802083
 20
5.122517903645833
 30
0.0
 10
4.142293294270833
 20
5.060574001736111
 30
0.0
 10
3.686991373697917
 20
5.048800998263888
 30
0.0
 10
3.269287109375
 20
5.186143663194444
 30
0.0
 10
3.076199001736111
 20
5.556572808159722
 30
0.0
 10
3.213873969184028
 20
5.536973741319444
 30
0.0
 10
3.346245659722222
 20
5.505425347222222
 30
0.0
 10
3.481574164496528
 20
5.495361328125
 30
0.0
 10
3.506917317708333
 20
5.493476019965278
 30
0.0
 10
3.532843695746528
 20
5.488267686631944
 30
0.0
 10
3.557610405815972
 20
5.491468641493055
 30
0.0
 10
3.829867892795139
 20
5.526665581597222
 30
0.0
 10
4.079630533854166
 20
5.441582573784722
 30
0.0
 10
4.324713812934028
 20
5.342597113715278
 30
0.0
 10
4.434210883246528
 20
5.298366970486111
 30
0.0
 10
4.520033094618055
 20
5.211588541666666
 30
0.0
 10
4.615837944878472
 20
5.143012152777778
 30
0.0
 10
4.668477376302083
 20
5.105333116319444
 30
0.0
 10
4.7205810546875
 20
5.06689453125
 30
0.0
 10
4.774020724826388
 20
5.030381944444444
 30
0.0
 10
4.786349826388888
 20
5.021959092881944
 30
0.0
 10
4.803765190972222
 20
5.009914822048611
 30
0.0
 10
4.818474663628472
 20
5.022298177083333
 30
0.0
 10
4.832004123263888
 20
5.033704969618055
 30
0.0
 10
4.826633029513888
 20
5.052218967013888
 30
0.0
 10
4.823079427083333
 20
5.068183051215278
 30
0.0
 10
4.811123318142361
 20
5.121961805555555
 30
0.0
 10
4.778896755642361
 20
5.164699978298611
 30
0.0
 10
4.745123969184028
 20
5.205661349826388
 30
0.0
 10
4.628146701388888
 20
5.3475341796875
 30
0.0
 10
4.49176025390625
 20
5.469129774305555
 30
0.0
 10
4.343770345052083
 20
5.5772705078125
 30
0.0
 10
4.239244249131945
 20
5.653645833333333
 30
0.0
 10
4.129265679253472
 20
5.722561306423611
 30
0.0
 10
4.024705674913195
 20
5.798882378472222
 30
0.0
 10
3.93475341796875
 20
5.864556206597222
 30
0.0
 10
3.835415310329861
 20
5.890530056423611
 30
0.0
 10
3.725938585069444
 20
5.892523871527778
 30
0.0
 10
3.5567626953125
 20
5.895602756076388
 30
0.0
 10
3.391587999131944
 20
5.866658528645833
 30
0.0
 10
3.22418212890625
 20
5.834160698784722
 30
0.0
 10
3.29888916015625
 20
5.795084635416666
 30
0.0
 10
3.356486002604167
 20
5.710951063368055
 30
0.0
 10
3.4595947265625
 20
5.756103515625
 30
0.0
 10
3.480156792534722
 20
5.765109592013888
 30
0.0
 10
3.507683648003472
 20
5.760823567708333
 30
0.0
 10
3.517096625434028
 20
5.744154188368055
 30
0.0
 10
3.548109266493055
 20
5.689208984375
 30
0.0
 10
3.604248046875
 20
5.688001844618055
 30
0.0
 10
3.653591579861111
 20
5.673489040798611
 30
0.0
 10
3.792568630642361
 20
5.632581922743055
 30
0.0
 10
3.932183159722222
 20
5.593844943576388
 30
0.0
 10
4.070061577690972
 20
5.548068576388888
 30
0.0
 10
3.746860080295139
 20
5.557996961805555
 30
0.0
 10
3.426133897569444
 20
5.579983181423611
 30
0.0
 10
3.135403103298611
 20
5.7437744140625
 30
0.0
 10
3.045030381944444
 20
5.794691297743055
 30
0.0
 10
2.983927408854167
 20
5.872205946180555
 30
0.0
 10
2.954237196180555
 20
5.971706814236111
 30
0.0
 10
2.933193630642361
 20
6.042222764756944
 30
0.0
 10
2.917188856336805
 20
6.1142578125
 30
0.0
 10
2.896294487847222
 20
6.195949978298611
 30
0.0
 10
2.937479654947917
 20
6.178561740451388
 30
0.0
 10
2.952012803819444
 20
6.149169921875
 30
0.0
 10
2.97174072265625
 20
6.126898871527778
 30
0.0
 10
3.057752821180555
 20
6.029758029513888
 30
0.0
 10
3.162495930989583
 20
5.983723958333333
 30
0.0
 10
3.293023003472222
 20
6.002916124131944
 30
0.0
 10
3.415086534288194
 20
6.020860460069444
 30
0.0
 10
3.537333170572917
 20
6.018839518229166
 30
0.0
 10
3.659654405381944
 20
6.005628797743055
 30
0.0
 10
3.667005750868055
 20
6.005832248263888
 30
0.0
 10
3.674363878038194
 20
6.006022135416666
 30
0.0
 10
3.681722005208333
 20
6.0062255859375
 30
0.0
 10
3.678229437934028
 20
6.010335286458333
 30
0.0
 10
3.674736870659722
 20
6.014431423611111
 30
0.0
 10
3.671244303385417
 20
6.018541124131944
 30
0.0
 10
3.551161024305555
 20
6.139838324652778
 30
0.0
 10
3.475118001302083
 20
6.283827039930555
 30
0.0
 10
3.453477647569444
 20
6.456339518229166
 30
0.0
 10
3.480055067274305
 20
6.409152560763888
 30
0.0
 10
3.506679958767361
 20
6.361992730034721
 30
0.0
 10
3.533209906684028
 20
6.314778645833333
 30
0.0
 10
3.6007080078125
 20
6.194688585069444
 30
0.0
 10
3.692165798611111
 20
6.100762261284722
 30
0.0
 10
3.819797092013889
 20
6.043280707465278
 30
0.0
 10
4.052056206597222
 20
5.938680013020833
 30
0.0
 10
4.274346245659722
 20
5.817220052083333
 30
0.0
 10
4.471483018663194
 20
5.6533203125
 30
0.0
 10
4.495415581597222
 20
5.6334228515625
 30
0.0
 10
4.523050944010416
 20
5.595865885416666
 30
0.0
 10
4.561069064670138
 20
5.625922309027778
 30
0.0
 10
4.597215440538194
 20
5.654500325520833
 30
0.0
 10
4.613505045572916
 20
5.695963541666666
 30
0.0
 10
4.605841742621528
 20
5.743109809027778
 30
0.0
 10
4.600531684027778
 20
5.775770399305555
 30
0.0
 10
4.584038628472222
 20
5.8037109375
 30
0.0
 10
4.561869303385416
 20
5.828179253472222
 30
0.0
 10
4.459445529513888
 20
5.941202799479166
 30
0.0
 10
4.357048882378472
 20
6.054253472222222
 30
0.0
 10
4.254564073350695
 20
6.167222764756944
 30
0.0
 10
4.173258463541666
 20
6.256849500868055
 30
0.0
 10
4.056857638888888
 20
6.258449978298611
 30
0.0
 10
3.951531304253472
 20
6.287814670138888
 30
0.0
 10
3.94549560546875
 20
6.288058810763888
 30
0.0
 10
3.939459906684028
 20
6.288302951388888
 30
0.0
 10
3.933424207899305
 20
6.288533528645833
 30
0.0
 10
3.935479058159722
 20
6.2833251953125
 30
0.0
 10
3.937533908420139
 20
6.278103298611111
 30
0.0
 10
3.939595540364583
 20
6.272894965277778
 30
0.0
 10
4.014431423611111
 20
6.113905164930555
 30
0.0
 10
4.154195149739583
 20
6.010796440972222
 30
0.0
 10
4.277438693576388
 20
5.886555989583333
 30
0.0
 10
3.970201280381944
 20
5.947645399305555
 30
0.0
 10
3.629876030815972
 20
6.490492078993055
 30
0.0
 10
3.700771755642361
 20
6.802490234375
 30
0.0
 10
3.747633192274305
 20
6.712605794270833
 30
0.0
 10
3.78656005859375
 20
6.621880425347221
 30
0.0
 10
3.839565700954861
 20
6.538547092013888
 30
0.0
 10
3.923021104600694
 20
6.407335069444444
 30
0.0
 10
4.041727701822916
 20
6.332207573784721
 30
0.0
 10
4.195556640625
 20
6.314005533854166
 30
0.0
 10
4.260660807291666
 20
6.306301540798611
 30
0.0
 10
4.307766384548611
 20
6.265557183159721
 30
0.0
 10
4.34674072265625
 20
6.222819010416666
 30
0.0
 10
4.530463324652778
 20
6.021348741319444
 30
0.0
 10
4.70947265625
 20
5.815578884548611
 30
0.0
 10
4.892550998263888
 20
5.608642578125
 30
0.0
 10
4.856682671440972
 20
5.584933810763888
 30
0.0
 10
4.821051703559028
 20
5.588283962673611
 30
0.0
 10
4.789476182725694
 20
5.578097873263888
 30
0.0
 10
4.7210693359375
 20
5.5560302734375
 30
0.0
 10
4.711052788628472
 20
5.528089735243055
 30
0.0
 10
4.750372992621528
 20
5.4686279296875
 30
0.0
 10
4.862596299913194
 20
5.298895941840278
 30
0.0
 10
4.974738226996528
 20
5.129109700520833
 30
0.0
 10
5.086981879340278
 20
4.959404839409722
 30
0.0
 10
5.167772081163194
 20
4.837253146701388
 30
0.0
 10
5.22711181640625
 20
4.704522026909722
 30
0.0
 10
5.279764811197916
 20
4.568508572048611
 30
0.0
 10
5.287896050347222
 20
4.547498914930555
 30
0.0
 10
5.300164116753472
 20
4.526719835069444
 30
0.0
 10
5.287957085503472
 20
4.492119683159722
 30
0.0
 10
5.218953450520833
 20
4.583672417534722
 30
0.0
 10
5.164218478732638
 20
4.681247287326388
 30
0.0
 10
5.06951904296875
 20
4.740871853298611
 30
0.0
 10
5.022569444444444
 20
4.772569444444444
 30
0.0
 10
5.022569444444444
 20
4.772569444444444
 30
0.0
 10
5.052205403645833
 20
4.728827582465278
 30
0.0
 10
5.204460991753472
 20
4.5018310546875
 30
0.0
 10
5.356716579861111
 20
4.274848090277778
 30
0.0
 10
5.515936957465278
 20
4.037462022569445
 30
0.0
 10
5.648966471354166
 20
4.293307834201388
 30
0.0
 10
5.814181857638888
 20
4.516696506076388
 30
0.0
 10
5.961073133680555
 20
4.752983940972222
 30
0.0
 10
5.848225911458333
 20
4.696438259548611
 30
0.0
 10
5.786227756076388
 20
4.588663736979166
 30
0.0
 10
5.706624348958333
 20
4.497789171006944
 30
0.0
 10
5.761433919270833
 20
4.688096788194444
 30
0.0
 10
5.840087890625
 20
4.865424262152778
 30
0.0
 10
5.948310004340278
 20
5.028171115451388
 30
0.0
 10
6.043036566840278
 20
5.170627170138888
 30
0.0
 10
6.142713758680555
 20
5.309800889756944
 30
0.0
 10
6.240587022569444
 20
5.450154622395833
 30
0.0
 10
6.293674045138888
 20
5.526258680555555
 30
0.0
 10
6.280598958333333
 20
5.5601806640625
 30
0.0
 10
6.188042534722222
 20
5.582804361979166
 30
0.0
 10
6.163764105902778
 20
5.588731553819444
 30
0.0
 10
6.139322916666666
 20
5.593939887152778
 30
0.0
 10
6.104302300347222
 20
5.601888020833333
 30
0.0
 10
6.301106770833333
 20
5.820949978298611
 30
0.0
 10
6.464111328125
 20
6.058498806423611
 30
0.0
 10
6.681179470486111
 20
6.248562282986111
 30
0.0
 10
6.725070529513888
 20
6.2869873046875
 30
0.0
 10
6.774197048611111
 20
6.307793511284721
 30
0.0
 10
6.834933810763888
 20
6.318603515625
 30
0.0
 10
6.985215928819444
 20
6.345350477430555
 30
0.0
 10
7.104709201388888
 20
6.426798502604166
 30
0.0
 10
7.1783447265625
 20
6.56396484375
 30
0.0
 10
7.222873263888888
 20
6.646931966145833
 30
0.0
 10
7.260647243923611
 20
6.733534071180555
 30
0.0
 10
7.301784939236111
 20
6.819173177083333
 30
0.0
 10
7.38232421875
 20
6.527547200520833
 30
0.0
 10
7.053141276041666
 20
5.978556315104166
 30
0.0
 10
6.753336588541666
 20
5.906751844618055
 30
0.0
 10
6.864827473958333
 20
6.019802517361111
 30
0.0
 10
6.993055555555555
 20
6.117445203993055
 30
0.0
 10
7.051947699652778
 20
6.286227756076388
 30
0.0
 10
6.929985894097221
 20
6.259738498263888
 30
0.0
 10
6.820610894097221
 20
6.248128255208333
 30
0.0
 10
6.735148111979166
 20
6.157741970486111
 30
0.0
 10
6.628621419270833
 20
6.045057508680555
 30
0.0
 10
6.521809895833333
 20
5.933037651909722
 30
0.0
 10
6.425428602430555
 20
5.811469184027778
 30
0.0
 10
6.398573133680555
 20
5.777601453993055
 30
0.0
 10
6.382500542534721
 20
5.741780598958333
 30
0.0
 10
6.396959092881944
 20
5.696031358506944
 30
0.0
 10
6.422770182291666
 20
5.614393446180555
 30
0.0
 10
6.4542236328125
 20
5.601060655381944
 30
0.0
 10
6.521077473958333
 20
5.652574327256944
 30
0.0
 10
6.710503472222221
 20
5.798583984375
 30
0.0
 10
6.911566840277778
 20
5.924831814236111
 30
0.0
 10
7.132188585069444
 20
6.018513997395833
 30
0.0
 10
7.304090711805555
 20
6.091512044270833
 30
0.0
 10
7.429117838541666
 20
6.211263020833333
 30
0.0
 10
7.501844618055555
 20
6.384507921006944
 30
0.0
 10
7.514105902777778
 20
6.413709852430555
 30
0.0
 10
7.530544704861111
 20
6.441148546006944
 30
0.0
 10
7.550455729166666
 20
6.4666748046875
 30
0.0
 10
7.524712456597221
 20
6.289320203993055
 30
0.0
 10
7.451307508680555
 20
6.135647243923611
 30
0.0
 10
7.3197021484375
 20
6.005805121527778
 30
0.0
 10
7.491156684027778
 20
6.032484266493055
 30
0.0
 10
7.659532335069444
 20
5.981703016493055
 30
0.0
 10
7.828043619791666
 20
6.003634982638888
 30
0.0
 10
7.936998155381944
 20
6.017822265625
 30
0.0
 10
8.003797743055555
 20
6.0989990234375
 30
0.0
 10
8.072035047743055
 20
6.175944010416666
 30
0.0
 10
8.107706705729166
 20
6.061442057291666
 30
0.0
 10
8.02524142795139
 20
5.860595703125
 30
0.0
 10
7.906060112847221
 20
5.771525065104166
 30
0.0
 10
7.806016710069444
 20
5.69677734375
 30
0.0
 10
7.690511067708333
 20
5.656344943576388
 30
0.0
 10
7.571302625868055
 20
5.625528971354166
 30
0.0
 10
7.418551974826388
 20
5.586046006944444
 30
0.0
 10
7.262776692708333
 20
5.564208984375
 30
0.0
 10
7.105536566840278
 20
5.555026584201388
 30
0.0
 10
7.058349609375
 20
5.552273220486111
 30
0.0
 10
7.008368598090278
 20
5.516276041666666
 30
0.0
 10
6.959214952256944
 20
5.562459309895833
 30
0.0
 10
7.102077907986111
 20
5.602634006076388
 30
0.0
 10
7.241509331597221
 20
5.643608940972222
 30
0.0
 10
7.381971571180555
 20
5.680650499131944
 30
0.0
 10
7.4609375
 20
5.701470269097222
 30
0.0
 10
7.518500434027778
 20
5.775200737847222
 30
0.0
 10
7.619493272569444
 20
5.751329210069444
 30
0.0
 10
7.670179578993055
 20
5.739352756076388
 30
0.0
 10
7.731296115451388
 20
5.794881184895833
 30
0.0
 10
7.797146267361111
 20
5.838785807291666
 30
0.0
 10
7.473212348090278
 20
5.886555989583333
 30
0.0
 10
7.165771484375
 20
5.965521918402778
 30
0.0
 10
6.880072699652778
 20
5.747463650173611
 30
0.0
 10
6.6904296875
 20
5.602701822916666
 30
0.0
 10
6.498562282986111
 20
5.461669921875
 30
0.0
 10
6.330593532986111
 20
5.291368272569444
 30
0.0
 10
6.271945529513888
 20
5.231920030381944
 30
0.0
 10
6.216986762152778
 20
5.168863932291666
 30
0.0
 10
6.184678819444444
 20
5.090508355034722
 30
0.0
 10
6.176486545138888
 20
5.070610894097222
 30
0.0
 10
6.159586588541666
 20
5.0438232421875
 30
0.0
 10
6.177992078993055
 20
5.025607638888888
 30
0.0
 10
6.197916666666666
 20
5.005872938368055
 30
0.0
 10
6.220472547743055
 20
5.028523763020833
 30
0.0
 10
6.239800347222221
 20
5.038180881076388
 30
0.0
 10
6.302178276909721
 20
5.069363064236111
 30
0.0
 10
6.363362630208333
 20
5.105536566840278
 30
0.0
 10
6.411159939236111
 20
5.155164930555555
 30
0.0
 10
6.579915364583333
 20
5.330362955729166
 30
0.0
 10
6.799886067708333
 20
5.398139105902778
 30
0.0
 10
7.024441189236111
 20
5.458387586805555
 30
0.0
 10
7.157402886284721
 20
5.494059244791666
 30
0.0
 10
7.291802300347221
 20
5.508382161458333
 30
0.0
 10
7.429782443576388
 20
5.497409396701388
 30
0.0
 10
7.581461588541666
 20
5.485337999131944
 30
0.0
 10
7.728678385416666
 20
5.522203233506944
 30
0.0
 10
7.876627604166666
 20
5.548190646701388
 30
0.0
 10
7.891872829861111
 20
5.550862630208333
 30
0.0
 10
7.907294379340278
 20
5.552476671006944
 30
0.0
 10
7.92724609375
 20
5.555230034722222
 30
0.0
 10
7.823350694444444
 20
5.370863172743055
 30
0.0
 10
7.678195529513888
 20
5.242078993055555
 30
0.0
 10
7.487494574652778
 20
5.163384331597222
 30
0.0
 10
7.300360785590278
 20
5.086154513888888
 30
0.0
 10
7.103624131944444
 20
5.070081922743055
 30
0.0
 10
6.901611328125
 20
5.067640516493055
 30
0.0
 10
7.079047309027778
 20
5.121188693576388
 30
0.0
 10
7.239095052083333
 20
5.199327256944444
 30
0.0
 10
7.369384765625
 20
5.348822699652778
 30
0.0
 10
7.254570855034721
 20
5.365085177951388
 30
0.0
 10
7.147379557291666
 20
5.360012478298611
 30
0.0
 10
7.042073567708333
 20
5.343858506944444
 30
0.0
 10
6.857977973090278
 20
5.315633138020833
 30
0.0
 10
6.692966037326388
 20
5.2403564453125
 30
0.0
 10
6.547810872395833
 20
5.122517903645833
 30
0.0
 10
6.508327907986111
 20
5.090467664930555
 30
0.0
 10
6.484347873263888
 20
5.053575303819444
 30
0.0
 10
6.480143229166666
 20
5.0001220703125
 30
0.0
 10
6.462443033854166
 20
4.774142795138888
 30
0.0
 10
6.441012912326388
 20
4.549031575520833
 30
0.0
 10
6.364149305555555
 20
4.332587348090278
 30
0.0
 10
6.303412543402778
 20
4.161580403645833
 30
0.0
 10
6.229546440972221
 20
3.998141818576389
 30
0.0
 10
6.121988932291666
 20
3.851616753472222
 30
0.0
 10
6.1033935546875
 20
3.826266818576389
 30
0.0
 10
6.104966905381944
 20
3.808742947048611
 30
0.0
 10
6.117228190104166
 20
3.783528645833333
 30
0.0
 10
6.154812282986111
 20
3.706258138020833
 30
0.0
 10
6.196682400173611
 20
3.632188585069444
 30
0.0
 10
6.254611545138888
 20
3.567857530381944
 30
0.0
 10
6.305338541666666
 20
3.511501736111111
 30
0.0
 10
6.354654947916666
 20
3.453884548611111
 30
0.0
 10
6.417724609375
 20
3.381795247395833
 30
0.0
 10
6.247856987847221
 20
3.447157118055555
 30
0.0
 10
6.141167534722222
 20
3.552910698784722
 30
0.0
 10
6.069539388020833
 20
3.695448133680555
 30
0.0
 10
5.993435329861111
 20
3.846883138020833
 30
0.0
 10
5.991129557291666
 20
3.849948459201389
 30
0.0
 10
6.082370334201388
 20
3.990980360243055
 30
0.0
 10
6.253160264756944
 20
4.254977756076388
 30
0.0
 10
6.318549262152778
 20
4.5504150390625
 30
0.0
 10
6.352186414930555
 20
4.856377495659722
 30
0.0
 10
6.3538818359375
 20
4.871731228298611
 30
0.0
 10
6.362413194444444
 20
4.891140407986111
 30
0.0
 10
6.346571180555555
 20
4.901448567708333
 30
0.0
 10
6.329237196180555
 20
4.912746853298611
 30
0.0
 10
6.317952473958333
 20
4.892754448784722
 30
0.0
 10
6.305067274305555
 20
4.884955512152778
 30
0.0
 10
6.247748480902778
 20
4.850328233506944
 30
0.0
 10
6.215616861979166
 20
4.807454427083333
 30
0.0
 10
6.225653754340278
 20
4.732109917534722
 30
0.0
 10
6.237982855902778
 20
4.6395263671875
 30
0.0
 10
6.209771050347222
 20
4.548597547743055
 30
0.0
 10
6.188218858506944
 20
4.458631727430555
 30
0.0
 10
6.128662109375
 20
4.210055881076388
 30
0.0
 10
6.0240478515625
 20
3.982747395833333
 30
0.0
 10
5.861653645833333
 20
3.784315321180555
 30
0.0
 10
5.831976996527778
 20
3.748060438368055
 30
0.0
 10
5.831868489583333
 20
3.720513237847222
 30
0.0
 10
5.850789388020833
 20
3.679267035590278
 30
0.0
 10
5.994235568576388
 20
3.366414388020833
 30
0.0
 10
6.135199652777778
 20
3.052408854166667
 30
0.0
 10
6.276082356770833
 20
2.738389756944444
 30
0.0
 10
6.301120334201388
 20
2.682562934027778
 30
0.0
 10
6.310194227430555
 20
2.624064127604167
 30
0.0
 10
6.297661675347221
 20
2.562418619791667
 30
0.0
 10
6.291097005208333
 20
2.530069986979167
 30
0.0
 10
6.276841905381944
 20
2.520751953125
 30
0.0
 10
6.245008680555555
 20
2.527262369791667
 30
0.0
 10
6.162027994791666
 20
2.544230143229167
 30
0.0
 10
6.0721435546875
 20
2.656195746527778
 30
0.0
 10
6.072998046875
 20
2.744099934895833
 30
0.0
 10
6.104912651909722
 20
2.738308376736111
 30
0.0
 10
6.129733615451388
 20
2.686726888020833
 30
0.0
 10
6.163519965277778
 20
2.717312282986111
 30
0.0
 10
6.189900716145833
 20
2.741183810763889
 30
0.0
 10
6.162190755208333
 20
2.777845594618055
 30
0.0
 10
6.153862847222222
 20
2.807549370659722
 30
0.0
 10
6.071017795138888
 20
3.102593315972222
 30
0.0
 10
5.931532118055555
 20
3.374850802951389
 30
0.0
 10
5.809611002604166
 20
3.654052734375
 30
0.0
 10
5.788764105902778
 20
3.7017822265625
 30
0.0
 10
5.790866427951388
 20
3.736952039930555
 30
0.0
 10
5.814900716145833
 20
3.782335069444444
 30
0.0
 10
5.909966362847222
 20
3.961805555555555
 30
0.0
 10
6.012491861979166
 20
4.138848198784722
 30
0.0
 10
6.047268337673611
 20
4.343343098958333
 30
0.0
 10
6.062255859375
 20
4.431410047743055
 30
0.0
 10
6.070827907986111
 20
4.52001953125
 30
0.0
 10
6.062554253472222
 20
4.630574544270833
 30
0.0
 10
6.026136610243055
 20
4.584581163194444
 30
0.0
 10
5.999267578125
 20
4.554551866319444
 30
0.0
 10
5.976765950520833
 20
4.521565755208333
 30
0.0
 10
5.839518229166666
 20
4.3204345703125
 30
0.0
 10
5.724745008680555
 20
4.107137044270833
 30
0.0
 10
5.631022135416666
 20
3.882283528645833
 30
0.0
 10
5.613308376736111
 20
3.839789496527778
 30
0.0
 10
5.624891493055555
 20
3.800428602430555
 30
0.0
 10
5.631998697916666
 20
3.760050455729167
 30
0.0
 10
5.695814344618055
 20
3.397664388020833
 30
0.0
 10
5.760457356770833
 20
3.035536024305555
 30
0.0
 10
5.748874240451388
 20
2.664984809027778
 30
0.0
 10
5.737942165798611
 20
2.315158420138889
 30
0.0
 10
5.651502821180555
 20
1.985649956597222
 30
0.0
 10
5.484110514322916
 20
1.664930555555555
 30
0.0
 10
5.468336317274305
 20
1.694037543402778
 30
0.0
 10
5.455030653211805
 20
1.716701931423611
 30
0.0
 10
5.443447536892361
 20
1.740234375
 30
0.0
 10
5.257120768229166
 20
2.118747287326389
 30
0.0
 10
5.207987467447916
 20
2.520412868923611
 30
0.0
 10
5.242689344618055
 20
2.936021592881944
 30
0.0
 10
5.266018337673611
 20
3.215359157986111
 30
0.0
 10
5.315205891927083
 20
3.490804036458333
 30
0.0
 10
5.370958116319444
 20
3.765109592013889
 30
0.0
 10
5.382419162326388
 20
3.821506076388889
 30
0.0
 10
5.377773708767361
 20
3.871297200520833
 30
0.0
 10
5.353203667534722
 20
3.925021701388889
 30
0.0
 10
5.265577528211805
 20
4.116563585069445
 30
0.0
 10
5.174072265625
 20
4.305704752604166
 30
0.0
 10
5.053609212239583
 20
4.479248046875
 30
0.0
 10
5.022623697916666
 20
4.523885091145833
 30
0.0
 10
4.987826877170138
 20
4.565877278645833
 30
0.0
 10
4.944512261284722
 20
4.622504340277778
 30
0.0
 10
4.936659071180555
 20
4.447713216145833
 30
0.0
 10
4.946906195746528
 20
4.293877495659722
 30
0.0
 10
5.008924696180555
 20
4.146063910590278
 30
0.0
 10
5.061774359809028
 20
4.020114474826388
 30
0.0
 10
5.12530517578125
 20
3.899468315972222
 30
0.0
 10
5.189310709635416
 20
3.7791748046875
 30
0.0
 10
5.209703233506944
 20
3.7408447265625
 30
0.0
 10
5.212368435329861
 20
3.711263020833333
 30
0.0
 10
5.193135579427083
 20
3.670477973090278
 30
0.0
 10
5.070929633246528
 20
3.411336263020833
 30
0.0
 10
4.956956651475694
 20
3.1485595703125
 30
0.0
 10
4.862318250868055
 20
2.877848307291667
 30
0.0
 10
4.850145128038194
 20
2.843031141493055
 30
0.0
 10
4.841267903645833
 20
2.807020399305555
 30
0.0
 10
4.831861707899305
 20
2.771294487847222
 30
0.0
 10
4.826646592881944
 20
2.751491970486111
 30
0.0
 10
4.816786024305555
 20
2.727810329861111
 30
0.0
 10
4.837361653645833
 20
2.71337890625
 30
0.0
 10
4.857584635416666
 20
2.699205186631944
 30
0.0
 10
4.876607259114583
 20
2.716362847222222
 30
0.0
 10
4.894273546006944
 20
2.726806640625
 30
0.0
 10
4.905205620659722
 20
2.7332763671875
 30
0.0
 10
4.915669759114583
 20
2.740532769097222
 30
0.0
 10
4.9371337890625
 20
2.754421657986111
 30
0.0
 10
4.911058213975694
 20
2.662150065104167
 30
0.0
 10
4.875840928819444
 20
2.592597113715278
 30
0.0
 10
4.802347819010416
 20
2.548027886284722
 30
0.0
 10
4.778557671440972
 20
2.533610026041667
 30
0.0
 10
4.751959906684028
 20
2.514689127604167
 30
0.0
 10
4.725111219618055
 20
2.527777777777778
 30
0.0
 10
4.693929036458333
 20
2.542955186631944
 30
0.0
 10
4.698038736979166
 20
2.579386393229167
 30
0.0
 10
4.698459201388888
 20
2.607842339409722
 30
0.0
 10
4.699625651041666
 20
2.687717013888889
 30
0.0
 10
4.724087185329861
 20
2.762858072916667
 30
0.0
 10
4.756781684027778
 20
2.834689670138889
 30
0.0
 10
4.885036892361111
 20
3.116414388020833
 30
0.0
 10
5.013068305121528
 20
3.398261176215278
 30
0.0
 10
5.145236545138888
 20
3.678141276041667
 30
0.0
 10
5.166422526041666
 20
3.722995334201389
 30
0.0
 10
5.162428114149305
 20
3.752468532986111
 30
0.0
 10
5.135986328125
 20
3.790215386284722
 30
0.0
 10
4.996222601996528
 20
3.989759657118055
 30
0.0
 10
4.868821885850694
 20
4.195692274305555
 30
0.0
 10
4.814500596788194
 20
4.437920464409722
 30
0.0
 10
4.794704861111111
 20
4.526217990451388
 30
0.0
 10
4.774217393663194
 20
4.615871853298611
 30
0.0
 10
4.779798719618055
 20
4.705471462673611
 30
0.0
 10
4.786044650607638
 20
4.805799696180555
 30
0.0
 10
4.74029541015625
 20
4.864162868923611
 30
0.0
 10
4.652818467881944
 20
4.909098307291666
 30
0.0
 10
4.640679253472222
 20
4.797580295138888
 30
0.0
 10
4.665147569444444
 20
4.692491319444444
 30
0.0
 10
4.686475965711805
 20
4.587687174479166
 30
0.0
 10
4.737270779079861
 20
4.338107638888888
 30
0.0
 10
4.829372829861111
 20
4.105224609375
 30
0.0
 10
4.973782009548611
 20
3.894178602430555
 30
0.0
 10
4.986287434895833
 20
3.875908745659722
 30
0.0
 10
5.002027723524305
 20
3.860880533854167
 30
0.0
 10
4.991488986545138
 20
3.832234700520833
 30
0.0
 10
4.922281901041666
 20
3.644097222222222
 30
0.0
 10
4.82183837890625
 20
3.482774522569444
 30
0.0
 10
4.630167643229166
 20
3.396809895833333
 30
0.0
 10
4.620049370659722
 20
3.392266167534722
 30
0.0
 10
4.608317057291666
 20
3.391357421875
 30
0.0
 10
4.597330729166666
 20
3.388753255208333
 30
0.0
 10
4.597330729166666
 20
3.388753255208333
 30
0.0
 10
4.598354763454861
 20
3.386895073784722
 30
0.0
 10
4.598354763454861
 20
3.386895073784722
 30
0.0
  0
SPLINE
  5
3D
330
1F
100
AcDbEntity
  8
Layer 1
370
     0
100
AcDbSpline
210
0.0
220
0.0
230
1.0
 70
    11
 71
     3
 72
    11
 73
     7
 74
     0
 42
0.0000000001
 43
0.0000000001
 40
0.0
 40
0.0
 40
0.0
 40
0.0
 40
1.0
 40
1.0
 40
1.0
 40
2.0
 40
2.0
 40
2.0
 40
2.0
 10
5.490566677517361
 20
2.266357421875
 30
0.0
 10
5.657036675347222
 20
2.725640190972222
 30
0.0
 10
5.612928602430555
 20
3.187472873263889
 30
0.0
 10
5.525702582465278
 20
3.650187174479167
 30
0.0
 10
5.432969835069444
 20
3.191758897569444
 30
0.0
 10
5.316019694010416
 20
2.733927408854167
 30
0.0
 10
5.490566677517361
 20
2.266357421875
 30
0.0
  0
HATCH
  5
3E
330
1F
100
AcDbEntity
  8
Layer 1
 62
    53
420
 16238398
100
AcDbHatch
 10
0.0
 20
0.0
 30
0.0
210
0.0
220
0.0
230
1.0
  2
SOLID
 70
     1
 71
     0
 91
        2
 92
        1
 93
        1
 72
     4
 94
        3
 73
     0
 74
     1
 95
      491
 96
      487
 40
0.0
 40
0.0
 40
0.0
 40
0.0
 40
1.0
 40
1.0
 40
1.0
 40
2.0
 40
2.0
 40
2.0
 40
3.0
 40
3.0
 40
3.0
 40
4.0
 40
4.0
 40
4.0
 40
5.0
 40
5.0
 40
5.0
 40
6.0
 40
6.0
 40
6.0
 40
7.0
 40
7.0
 40
7.0
 40
8.0
 40
8.0
 40
8.0
 40
9.0
 40
9.0
 40
9.0
 40
10.0
 40
10.0
 40
10.0
 40
11.0
 40
11.0
 40
11.0
 40
12.0
 40
12.0
 40
12.0
 40
13.0
 40
13.0
 40
13.0
 40
14.0
 40
14.0
 40
14.0
 40
15.0
 40
15.0
 40
15.0
 40
16.0
 40
16.0
 40
16.0
 40
17.0
 40
17.0
 40
17.0
 40
18.0
 40
18.0
 40
18.0
 40
19.0
 40
19.0
 40
19.0
 40
20.0
 40
20.0
 40
20.0
 40
21.0
 40
21.0
 40
21.0
 40
22.0
 40
22.0
 40
22.0
 40
23.0
 40
23.0
 40
23.0
 40
24.0
 40
24.0
 40
24.0
 40
25.0
 40
25.0
 40
25.0
 40
26.0
 40
26.0
 40
26.0
 40
27.0
 40
27.0
 40
27.0
 40
28.0
 40
28.0
 40
28.0
 40
29.0
 40
29.0
 40
29.0
 40
30.0
 40
30.0
 40
30.0
 40
31.0
 40
31.0
 40
31.0
 40
32.0
 40
32.0
 40
32.0
 40
33.0
 40
33.0
 40
33.0
 40
34.0
 40
34.0
 40
34.0
 40
35.0
 40
35.0
 40
35.0
 40
36.0
 40
36.0
 40
36.0
 40
37.0
 40
37.0
 40
37.0
 40
38.0
 40
38.0
 40
38.0
 40
39.0
 40
39.0
 40
39.0
 40
40.0
 40
40.0
 40
40.0
 40
41.0
 40
41.0
 40
41.0
 40
42.0
 40
42.0
 40
42.0
 40
43.0
 40
43.0
 40
43.0
 40
44.0
 40
44.0
 40
44.0
 40
45.0
 40
45.0
 40
45.0
 40
46.0
 40
46.0
 40
46.0
 40
47.0
 40
47.0
 40
47.0
 40
48.0
 40
48.0
 40
48.0
 40
49.0
 40
49.0
 40
49.0
 40
50.0
 40
50.0
 40
50.0
 40
51.0
 40
51.0
 40
51.0
 40
52.0
 40
52.0
 40
52.0
 40
53.0
 40
53.0
 40
53.0
 40
54.0
 40
54.0
 40
54.0
 40
55.0
 40
55.0
 40
55.0
 40
56.0
 40
56.0
 40
56.0
 40
57.0
 40
57.0
 40
57.0
 40
58.0
 40
58.0
 40
58.0
 40
59.0
 40
59.0
 40
59.0
 40
60.0
 40
60.0
 40
60.0
 40
61.0
 40
61.0
 40
61.0
 40
62.0
 40
62.0
 40
62.0
 40
63.0
 40
63.0
 40
63.0
 40
64.0
 40
64.0
 40
64.0
 40
65.0
 40
65.0
 40
65.0
 40
66.0
 40
66.0
 40
66.0
 40
67.0
 40
67.0
 40
67.0
 40
68.0
 40
68.0
 40
68.0
 40
69.0
 40
69.0
 40
69.0
 40
70.0
 40
70.0
 40
70.0
 40
71.0
 40
71.0
 40
71.0
 40
72.0
 40
72.0
 40
72.0
 40
73.0
 40
73.0
 40
73.0
 40
74.0
 40
74.0
 40
74.0
 40
75.0
 40
75.0
 40
75.0
 40
76.0
 40
76.0
 40
76.0
 40
77.0
 40
77.0
 40
77.0
 40
78.0
 40
78.0
 40
78.0
 40
79.0
 40
79.0
 40
79.0
 40
80.0
 40
80.0
 40
80.0
 40
81.0
 40
81.0
 40
81.0
 40
82.0
 40
82.0
 40
82.0
 40
83.0
 40
83.0
 40
83.0
 40
84.0
 40
84.0
 40
84.0
 40
85.0
 40
85.0
 40
85.0
 40
86.0
 40
86.0
 40
86.0
 40
87.0
 40
87.0
 40
87.0
 40
88.0
 40
88.0
 40
88.0
 40
89.0
 40
89.0
 40
89.0
 40
90.0
 40
90.0
 40
90.0
 40
91.0
 40
91.0
 40
91.0
 40
92.0
 40
92.0
 40
92.0
 40
93.0
 40
93.0
 40
93.0
 40
94.0
 40
94.0
 40
94.0
 40
95.0
 40
95.0
 40
95.0
 40
96.0
 40
96.0
 40
96.0
 40
97.0
 40
97.0
 40
97.0
 40
98.0
 40
98.0
 40
98.0
 40
99.0
 40
99.0
 40
99.0
 40
100.0
 40
100.0
 40
100.0
 40
101.0
 40
101.0
 40
101.0
 40
102.0
 40
102.0
 40
102.0
 40
103.0
 40
103.0
 40
103.0
 40
104.0
 40
104.0
 40
104.0
 40
105.0
 40
105.0
 40
105.0
 40
106.0
 40
106.0
 40
106.0
 40
107.0
 40
107.0
 40
107.0
 40
108.0
 40
108.0
 40
108.0
 40
109.0
 40
109.0
 40
109.0
 40
110.0
 40
110.0
 40
110.0
 40
111.0
 40
111.0
 40
111.0
 40
112.0
 40
112.0
 40
112.0
 40
113.0
 40
113.0
 40
113.0
 40
114.0
 40
114.0
 40
114.0
 40
115.0
 40
115.0
 40
115.0
 40
116.0
 40
116.0
 40
116.0
 40
117.0
 40
117.0
 40
117.0
 40
118.0
 40
118.0
 40
118.0
 40
119.0
 40
119.0
 40
119.0
 40
120.0
 40
120.0
 40
120.0
 40
121.0
 40
121.0
 40
121.0
 40
122.0
 40
122.0
 40
122.0
 40
123.0
 40
123.0
 40
123.0
 40
124.0
 40
124.0
 40
124.0
 40
125.0
 40
125.0
 40
125.0
 40
126.0
 40
126.0
 40
126.0
 40
127.0
 40
127.0
 40
127.0
 40
128.0
 40
128.0
 40
128.0
 40
129.0
 40
129.0
 40
129.0
 40
130.0
 40
130.0
 40
130.0
 40
131.0
 40
131.0
 40
131.0
 40
132.0
 40
132.0
 40
132.0
 40
133.0
 40
133.0
 40
133.0
 40
134.0
 40
134.0
 40
134.0
 40
135.0
 40
135.0
 40
135.0
 40
136.0
 40
136.0
 40
136.0
 40
137.0
 40
137.0
 40
137.0
 40
138.0
 40
138.0
 40
138.0
 40
139.0
 40
139.0
 40
139.0
 40
140.0
 40
140.0
 40
140.0
 40
141.0
 40
141.0
 40
141.0
 40
142.0
 40
142.0
 40
142.0
 40
143.0
 40
143.0
 40
143.0
 40
144.0
 40
144.0
 40
144.0
 40
145.0
 40
145.0
 40
145.0
 40
146.0
 40
146.0
 40
146.0
 40
147.0
 40
147.0
 40
147.0
 40
148.0
 40
148.0
 40
148.0
 40
149.0
 40
149.0
 40
149.0
 40
150.0
 40
150.0
 40
150.0
 40
151.0
 40
151.0
 40
151.0
 40
152.0
 40
152.0
 40
152.0
 40
153.0
 40
153.0
 40
153.0
 40
154.0
 40
154.0
 40
154.0
 40
155.0
 40
155.0
 40
155.0
 40
156.0
 40
156.0
 40
156.0
 40
157.0
 40
157.0
 40
157.0
 40
158.0
 40
158.0
 40
158.0
 40
159.0
 40
159.0
 40
159.0
 40
160.0
 40
160.0
 40
160.0
 40
161.0
 40
161.0
 40
161.0
 40
162.0
 40
162.0
 40
162.0
 40
162.0
 10
4.598354763454861
 20
3.386895073784722
 10
4.6026611328125
 20
3.426744249131944
 10
4.637532552083333
 20
3.445014105902778
 10
4.65997314453125
 20
3.471354166666667
 10
4.737806532118055
 20
3.562703450520833
 10
4.8243408203125
 20
3.646742078993055
 10
4.873562282986111
 20
3.759996202256944
 10
4.891065809461805
 20
3.800279405381944
 10
4.891282823350694
 20
3.829549153645833
 10
4.866556803385416
 20
3.867892795138889
 10
4.738145616319444
 20
4.067070855034722
 10
4.628160264756944
 20
4.275377061631945
 10
4.588039822048611
 20
4.512491861979166
 10
4.560275607638888
 20
4.676608615451388
 10
4.536838107638888
 20
4.841498480902778
 10
4.513963487413194
 20
5.006388346354166
 10
4.506842719184028
 20
5.057766384548611
 10
4.486090766059028
 20
5.097154405381944
 10
4.445271809895833
 20
5.129014756944444
 10
4.2109375
 20
5.311903211805555
 10
3.943718804253472
 20
5.377916124131944
 10
3.651055230034722
 20
5.354736328125
 10
3.647203233506944
 20
5.354424370659722
 10
3.643690321180555
 20
5.349880642361111
 10
3.634609646267361
 20
5.343519422743055
 10
3.769056532118055
 20
5.193277994791666
 10
3.946797688802083
 20
5.122517903645833
 10
4.142293294270833
 20
5.060574001736111
 10
3.686991373697917
 20
5.048800998263888
 10
3.269287109375
 20
5.186143663194444
 10
3.076199001736111
 20
5.556572808159722
 10
3.213873969184028
 20
5.536973741319444
 10
3.346245659722222
 20
5.505425347222222
 10
3.481574164496528
 20
5.495361328125
 10
3.506917317708333
 20
5.493476019965278
 10
3.532843695746528
 20
5.488267686631944
 10
3.557610405815972
 20
5.491468641493055
 10
3.829867892795139
 20
5.526665581597222
 10
4.079630533854166
 20
5.441582573784722
 10
4.324713812934028
 20
5.342597113715278
 10
4.434210883246528
 20
5.298366970486111
 10
4.520033094618055
 20
5.211588541666666
 10
4.615837944878472
 20
5.143012152777778
 10
4.668477376302083
 20
5.105333116319444
 10
4.7205810546875
 20
5.06689453125
 10
4.774020724826388
 20
5.030381944444444
 10
4.786349826388888
 20
5.021959092881944
 10
4.803765190972222
 20
5.009914822048611
 10
4.818474663628472
 20
5.022298177083333
 10
4.832004123263888
 20
5.033704969618055
 10
4.826633029513888
 20
5.052218967013888
 10
4.823079427083333
 20
5.068183051215278
 10
4.811123318142361
 20
5.121961805555555
 10
4.778896755642361
 20
5.164699978298611
 10
4.745123969184028
 20
5.205661349826388
 10
4.628146701388888
 20
5.3475341796875
 10
4.49176025390625
 20
5.469129774305555
 10
4.343770345052083
 20
5.5772705078125
 10
4.239244249131945
 20
5.653645833333333
 10
4.129265679253472
 20
5.722561306423611
 10
4.024705674913195
 20
5.798882378472222
 10
3.93475341796875
 20
5.864556206597222
 10
3.835415310329861
 20
5.890530056423611
 10
3.725938585069444
 20
5.892523871527778
 10
3.5567626953125
 20
5.895602756076388
 10
3.391587999131944
 20
5.866658528645833
 10
3.22418212890625
 20
5.834160698784722
 10
3.29888916015625
 20
5.795084635416666
 10
3.356486002604167
 20
5.710951063368055
 10
3.4595947265625
 20
5.756103515625
 10
3.480156792534722
 20
5.765109592013888
 10
3.507683648003472
 20
5.760823567708333
 10
3.517096625434028
 20
5.744154188368055
 10
3.548109266493055
 20
5.689208984375
 10
3.604248046875
 20
5.688001844618055
 10
3.653591579861111
 20
5.673489040798611
 10
3.792568630642361
 20
5.632581922743055
 10
3.932183159722222
 20
5.593844943576388
 10
4.070061577690972
 20
5.548068576388888
 10
3.746860080295139
 20
5.557996961805555
 10
3.426133897569444
 20
5.579983181423611
 10
3.135403103298611
 20
5.7437744140625
 10
3.045030381944444
 20
5.794691297743055
 10
2.983927408854167
 20
5.872205946180555
 10
2.954237196180555
 20
5.971706814236111
 10
2.933193630642361
 20
6.042222764756944
 10
2.917188856336805
 20
6.1142578125
 10
2.896294487847222
 20
6.195949978298611
 10
2.937479654947917
 20
6.178561740451388
 10
2.952012803819444
 20
6.149169921875
 10
2.97174072265625
 20
6.126898871527778
 10
3.057752821180555
 20
6.029758029513888
 10
3.162495930989583
 20
5.983723958333333
 10
3.293023003472222
 20
6.002916124131944
 10
3.415086534288194
 20
6.020860460069444
 10
3.537333170572917
 20
6.018839518229166
 10
3.659654405381944
 20
6.005628797743055
 10
3.667005750868055
 20
6.005832248263888
 10
3.674363878038194
 20
6.006022135416666
 10
3.681722005208333
 20
6.0062255859375
 10
3.678229437934028
 20
6.010335286458333
 10
3.674736870659722
 20
6.014431423611111
 10
3.671244303385417
 20
6.018541124131944
 10
3.551161024305555
 20
6.139838324652778
 10
3.475118001302083
 20
6.283827039930555
 10
3.453477647569444
 20
6.456339518229166
 10
3.480055067274305
 20
6.409152560763888
 10
3.506679958767361
 20
6.361992730034721
 10
3.533209906684028
 20
6.314778645833333
 10
3.6007080078125
 20
6.194688585069444
 10
3.692165798611111
 20
6.100762261284722
 10
3.819797092013889
 20
6.043280707465278
 10
4.052056206597222
 20
5.938680013020833
 10
4.274346245659722
 20
5.817220052083333
 10
4.471483018663194
 20
5.6533203125
 10
4.495415581597222
 20
5.6334228515625
 10
4.523050944010416
 20
5.595865885416666
 10
4.561069064670138
 20
5.625922309027778
 10
4.597215440538194
 20
5.654500325520833
 10
4.613505045572916
 20
5.695963541666666
 10
4.605841742621528
 20
5.743109809027778
 10
4.600531684027778
 20
5.775770399305555
 10
4.584038628472222
 20
5.8037109375
 10
4.561869303385416
 20
5.828179253472222
 10
4.459445529513888
 20
5.941202799479166
 10
4.357048882378472
 20
6.054253472222222
 10
4.254564073350695
 20
6.167222764756944
 10
4.173258463541666
 20
6.256849500868055
 10
4.056857638888888
 20
6.258449978298611
 10
3.951531304253472
 20
6.287814670138888
 10
3.94549560546875
 20
6.288058810763888
 10
3.939459906684028
 20
6.288302951388888
 10
3.933424207899305
 20
6.288533528645833
 10
3.935479058159722
 20
6.2833251953125
 10
3.937533908420139
 20
6.278103298611111
 10
3.939595540364583
 20
6.272894965277778
 10
4.014431423611111
 20
6.113905164930555
 10
4.154195149739583
 20
6.010796440972222
 10
4.277438693576388
 20
5.886555989583333
 10
3.970201280381944
 20
5.947645399305555
 10
3.629876030815972
 20
6.490492078993055
 10
3.700771755642361
 20
6.802490234375
 10
3.747633192274305
 20
6.712605794270833
 10
3.78656005859375
 20
6.621880425347221
 10
3.839565700954861
 20
6.538547092013888
 10
3.923021104600694
 20
6.407335069444444
 10
4.041727701822916
 20
6.332207573784721
 10
4.195556640625
 20
6.314005533854166
 10
4.260660807291666
 20
6.306301540798611
 10
4.307766384548611
 20
6.265557183159721
 10
4.34674072265625
 20
6.222819010416666
 10
4.530463324652778
 20
6.021348741319444
 10
4.70947265625
 20
5.815578884548611
 10
4.892550998263888
 20
5.608642578125
 10
4.856682671440972
 20
5.584933810763888
 10
4.821051703559028
 20
5.588283962673611
 10
4.789476182725694
 20
5.578097873263888
 10
4.7210693359375
 20
5.5560302734375
 10
4.711052788628472
 20
5.528089735243055
 10
4.750372992621528
 20
5.4686279296875
 10
4.862596299913194
 20
5.298895941840278
 10
4.974738226996528
 20
5.129109700520833
 10
5.086981879340278
 20
4.959404839409722
 10
5.167772081163194
 20
4.837253146701388
 10
5.22711181640625
 20
4.704522026909722
 10
5.279764811197916
 20
4.568508572048611
 10
5.287896050347222
 20
4.547498914930555
 10
5.300164116753472
 20
4.526719835069444
 10
5.287957085503472
 20
4.492119683159722
 10
5.218953450520833
 20
4.583672417534722
 10
5.164218478732638
 20
4.681247287326388
 10
5.06951904296875
 20
4.740871853298611
 10
5.022569444444444
 20
4.772569444444444
 10
5.022569444444444
 20
4.772569444444444
 10
5.052205403645833
 20
4.728827582465278
 10
5.204460991753472
 20
4.5018310546875
 10
5.356716579861111
 20
4.274848090277778
 10
5.515936957465278
 20
4.037462022569445
 10
5.648966471354166
 20
4.293307834201388
 10
5.814181857638888
 20
4.516696506076388
 10
5.961073133680555
 20
4.752983940972222
 10
5.848225911458333
 20
4.696438259548611
 10
5.786227756076388
 20
4.588663736979166
 10
5.706624348958333
 20
4.497789171006944
 10
5.761433919270833
 20
4.688096788194444
 10
5.840087890625
 20
4.865424262152778
 10
5.948310004340278
 20
5.028171115451388
 10
6.043036566840278
 20
5.170627170138888
 10
6.142713758680555
 20
5.309800889756944
 10
6.240587022569444
 20
5.450154622395833
 10
6.293674045138888
 20
5.526258680555555
 10
6.280598958333333
 20
5.5601806640625
 10
6.188042534722222
 20
5.582804361979166
 10
6.163764105902778
 20
5.588731553819444
 10
6.139322916666666
 20
5.593939887152778
 10
6.104302300347222
 20
5.601888020833333
 10
6.301106770833333
 20
5.820949978298611
 10
6.464111328125
 20
6.058498806423611
 10
6.681179470486111
 20
6.248562282986111
 10
6.725070529513888
 20
6.2869873046875
 10
6.774197048611111
 20
6.307793511284721
 10
6.834933810763888
 20
6.318603515625
 10
6.985215928819444
 20
6.345350477430555
 10
7.104709201388888
 20
6.426798502604166
 10
7.1783447265625
 20
6.56396484375
 10
7.222873263888888
 20
6.646931966145833
 10
7.260647243923611
 20
6.733534071180555
 10
7.301784939236111
 20
6.819173177083333
 10
7.38232421875
 20
6.527547200520833
 10
7.053141276041666
 20
5.978556315104166
 10
6.753336588541666
 20
5.906751844618055
 10
6.864827473958333
 20
6.019802517361111
 10
6.993055555555555
 20
6.117445203993055
 10
7.051947699652778
 20
6.286227756076388
 10
6.929985894097221
 20
6.259738498263888
 10
6.820610894097221
 20
6.248128255208333
 10
6.735148111979166
 20
6.157741970486111
 10
6.628621419270833
 20
6.045057508680555
 10
6.521809895833333
 20
5.933037651909722
 10
6.425428602430555
 20
5.811469184027778
 10
6.398573133680555
 20
5.777601453993055
 10
6.382500542534721
 20
5.741780598958333
 10
6.396959092881944
 20
5.696031358506944
 10
6.422770182291666
 20
5.614393446180555
 10
6.4542236328125
 20
5.601060655381944
 10
6.521077473958333
 20
5.652574327256944
 10
6.710503472222221
 20
5.798583984375
 10
6.911566840277778
 20
5.924831814236111
 10
7.132188585069444
 20
6.018513997395833
 10
7.304090711805555
 20
6.091512044270833
 10
7.429117838541666
 20
6.211263020833333
 10
7.501844618055555
 20
6.384507921006944
 10
7.514105902777778
 20
6.413709852430555
 10
7.530544704861111
 20
6.441148546006944
 10
7.550455729166666
 20
6.4666748046875
 10
7.524712456597221
 20
6.289320203993055
 10
7.451307508680555
 20
6.135647243923611
 10
7.3197021484375
 20
6.005805121527778
 10
7.491156684027778
 20
6.032484266493055
 10
7.659532335069444
 20
5.981703016493055
 10
7.828043619791666
 20
6.003634982638888
 10
7.936998155381944
 20
6.017822265625
 10
8.003797743055555
 20
6.0989990234375
 10
8.072035047743055
 20
6.175944010416666
 10
8.107706705729166
 20
6.061442057291666
 10
8.02524142795139
 20
5.860595703125
 10
7.906060112847221
 20
5.771525065104166
 10
7.806016710069444
 20
5.69677734375
 10
7.690511067708333
 20
5.656344943576388
 10
7.571302625868055
 20
5.625528971354166
 10
7.418551974826388
 20
5.586046006944444
 10
7.262776692708333
 20
5.564208984375
 10
7.105536566840278
 20
5.555026584201388
 10
7.058349609375
 20
5.552273220486111
 10
7.008368598090278
 20
5.516276041666666
 10
6.959214952256944
 20
5.562459309895833
 10
7.102077907986111
 20
5.602634006076388
 10
7.241509331597221
 20
5.643608940972222
 10
7.381971571180555
 20
5.680650499131944
 10
7.4609375
 20
5.701470269097222
 10
7.518500434027778
 20
5.775200737847222
 10
7.619493272569444
 20
5.751329210069444
 10
7.670179578993055
 20
5.739352756076388
 10
7.731296115451388
 20
5.794881184895833
 10
7.797146267361111
 20
5.838785807291666
 10
7.473212348090278
 20
5.886555989583333
 10
7.165771484375
 20
5.965521918402778
 10
6.880072699652778
 20
5.747463650173611
 10
6.6904296875
 20
5.602701822916666
 10
6.498562282986111
 20
5.461669921875
 10
6.330593532986111
 20
5.291368272569444
 10
6.271945529513888
 20
5.231920030381944
 10
6.216986762152778
 20
5.168863932291666
 10
6.184678819444444
 20
5.090508355034722
 10
6.176486545138888
 20
5.070610894097222
 10
6.159586588541666
 20
5.0438232421875
 10
6.177992078993055
 20
5.025607638888888
 10
6.197916666666666
 20
5.005872938368055
 10
6.220472547743055
 20
5.028523763020833
 10
6.239800347222221
 20
5.038180881076388
 10
6.302178276909721
 20
5.069363064236111
 10
6.363362630208333
 20
5.105536566840278
 10
6.411159939236111
 20
5.155164930555555
 10
6.579915364583333
 20
5.330362955729166
 10
6.799886067708333
 20
5.398139105902778
 10
7.024441189236111
 20
5.458387586805555
 10
7.157402886284721
 20
5.494059244791666
 10
7.291802300347221
 20
5.508382161458333
 10
7.429782443576388
 20
5.497409396701388
 10
7.581461588541666
 20
5.485337999131944
 10
7.728678385416666
 20
5.522203233506944
 10
7.876627604166666
 20
5.548190646701388
 10
7.891872829861111
 20
5.550862630208333
 10
7.907294379340278
 20
5.552476671006944
 10
7.92724609375
 20
5.555230034722222
 10
7.823350694444444
 20
5.370863172743055
 10
7.678195529513888
 20
5.242078993055555
 10
7.487494574652778
 20
5.163384331597222
 10
7.300360785590278
 20
5.086154513888888
 10
7.103624131944444
 20
5.070081922743055
 10
6.901611328125
 20
5.067640516493055
 10
7.079047309027778
 20
5.121188693576388
 10
7.239095052083333
 20
5.199327256944444
 10
7.369384765625
 20
5.348822699652778
 10
7.254570855034721
 20
5.365085177951388
 10
7.147379557291666
 20
5.360012478298611
 10
7.042073567708333
 20
5.343858506944444
 10
6.857977973090278
 20
5.315633138020833
 10
6.692966037326388
 20
5.2403564453125
 10
6.547810872395833
 20
5.122517903645833
 10
6.508327907986111
 20
5.090467664930555
 10
6.484347873263888
 20
5.053575303819444
 10
6.480143229166666
 20
5.0001220703125
 10
6.462443033854166
 20
4.774142795138888
 10
6.441012912326388
 20
4.549031575520833
 10
6.364149305555555
 20
4.332587348090278
 10
6.303412543402778
 20
4.161580403645833
 10
6.229546440972221
 20
3.998141818576389
 10
6.121988932291666
 20
3.851616753472222
 10
6.1033935546875
 20
3.826266818576389
 10
6.104966905381944
 20
3.808742947048611
 10
6.117228190104166
 20
3.783528645833333
 10
6.154812282986111
 20
3.706258138020833
 10
6.196682400173611
 20
3.632188585069444
 10
6.254611545138888
 20
3.567857530381944
 10
6.305338541666666
 20
3.511501736111111
 10
6.354654947916666
 20
3.453884548611111
 10
6.417724609375
 20
3.381795247395833
 10
6.247856987847221
 20
3.447157118055555
 10
6.141167534722222
 20
3.552910698784722
 10
6.069539388020833
 20
3.695448133680555
 10
5.993435329861111
 20
3.846883138020833
 10
5.991129557291666
 20
3.849948459201389
 10
6.082370334201388
 20
3.990980360243055
 10
6.253160264756944
 20
4.254977756076388
 10
6.318549262152778
 20
4.5504150390625
 10
6.352186414930555
 20
4.856377495659722
 10
6.3538818359375
 20
4.871731228298611
 10
6.362413194444444
 20
4.891140407986111
 10
6.346571180555555
 20
4.901448567708333
 10
6.329237196180555
 20
4.912746853298611
 10
6.317952473958333
 20
4.892754448784722
 10
6.305067274305555
 20
4.884955512152778
 10
6.247748480902778
 20
4.850328233506944
 10
6.215616861979166
 20
4.807454427083333
 10
6.225653754340278
 20
4.732109917534722
 10
6.237982855902778
 20
4.6395263671875
 10
6.209771050347222
 20
4.548597547743055
 10
6.188218858506944
 20
4.458631727430555
 10
6.128662109375
 20
4.210055881076388
 10
6.0240478515625
 20
3.982747395833333
 10
5.861653645833333
 20
3.784315321180555
 10
5.831976996527778
 20
3.748060438368055
 10
5.831868489583333
 20
3.720513237847222
 10
5.850789388020833
 20
3.679267035590278
 10
5.994235568576388
 20
3.366414388020833
 10
6.135199652777778
 20
3.052408854166667
 10
6.276082356770833
 20
2.738389756944444
 10
6.301120334201388
 20
2.682562934027778
 10
6.310194227430555
 20
2.624064127604167
 10
6.297661675347221
 20
2.562418619791667
 10
6.291097005208333
 20
2.530069986979167
 10
6.276841905381944
 20
2.520751953125
 10
6.245008680555555
 20
2.527262369791667
 10
6.162027994791666
 20
2.544230143229167
 10
6.0721435546875
 20
2.656195746527778
 10
6.072998046875
 20
2.744099934895833
 10
6.104912651909722
 20
2.738308376736111
 10
6.129733615451388
 20
2.686726888020833
 10
6.163519965277778
 20
2.717312282986111
 10
6.189900716145833
 20
2.741183810763889
 10
6.162190755208333
 20
2.777845594618055
 10
6.153862847222222
 20
2.807549370659722
 10
6.071017795138888
 20
3.102593315972222
 10
5.931532118055555
 20
3.374850802951389
 10
5.809611002604166
 20
3.654052734375
 10
5.788764105902778
 20
3.7017822265625
 10
5.790866427951388
 20
3.736952039930555
 10
5.814900716145833
 20
3.782335069444444
 10
5.909966362847222
 20
3.961805555555555
 10
6.012491861979166
 20
4.138848198784722
 10
6.047268337673611
 20
4.343343098958333
 10
6.062255859375
 20
4.431410047743055
 10
6.070827907986111
 20
4.52001953125
 10
6.062554253472222
 20
4.630574544270833
 10
6.026136610243055
 20
4.584581163194444
 10
5.999267578125
 20
4.554551866319444
 10
5.976765950520833
 20
4.521565755208333
 10
5.839518229166666
 20
4.3204345703125
 10
5.724745008680555
 20
4.107137044270833
 10
5.631022135416666
 20
3.882283528645833
 10
5.613308376736111
 20
3.839789496527778
 10
5.624891493055555
 20
3.800428602430555
 10
5.631998697916666
 20
3.760050455729167
 10
5.695814344618055
 20
3.397664388020833
 10
5.760457356770833
 20
3.035536024305555
 10
5.748874240451388
 20
2.664984809027778
 10
5.737942165798611
 20
2.315158420138889
 10
5.651502821180555
 20
1.985649956597222
 10
5.484110514322916
 20
1.664930555555555
 10
5.468336317274305
 20
1.694037543402778
 10
5.455030653211805
 20
1.716701931423611
 10
5.443447536892361
 20
1.740234375
 10
5.257120768229166
 20
2.118747287326389
 10
5.207987467447916
 20
2.520412868923611
 10
5.242689344618055
 20
2.936021592881944
 10
5.266018337673611
 20
3.215359157986111
 10
5.315205891927083
 20
3.490804036458333
 10
5.370958116319444
 20
3.765109592013889
 10
5.382419162326388
 20
3.821506076388889
 10
5.377773708767361
 20
3.871297200520833
 10
5.353203667534722
 20
3.925021701388889
 10
5.265577528211805
 20
4.116563585069445
 10
5.174072265625
 20
4.305704752604166
 10
5.053609212239583
 20
4.479248046875
 10
5.022623697916666
 20
4.523885091145833
 10
4.987826877170138
 20
4.565877278645833
 10
4.944512261284722
 20
4.622504340277778
 10
4.936659071180555
 20
4.447713216145833
 10
4.946906195746528
 20
4.293877495659722
 10
5.008924696180555
 20
4.146063910590278
 10
5.061774359809028
 20
4.020114474826388
 10
5.12530517578125
 20
3.899468315972222
 10
5.189310709635416
 20
3.7791748046875
 10
5.209703233506944
 20
3.7408447265625
 10
5.212368435329861
 20
3.711263020833333
 10
5.193135579427083
 20
3.670477973090278
 10
5.070929633246528
 20
3.411336263020833
 10
4.956956651475694
 20
3.1485595703125
 10
4.862318250868055
 20
2.877848307291667
 10
4.850145128038194
 20
2.843031141493055
 10
4.841267903645833
 20
2.807020399305555
 10
4.831861707899305
 20
2.771294487847222
 10
4.826646592881944
 20
2.751491970486111
 10
4.816786024305555
 20
2.727810329861111
 10
4.837361653645833
 20
2.71337890625
 10
4.857584635416666
 20
2.699205186631944
 10
4.876607259114583
 20
2.716362847222222
 10
4.894273546006944
 20
2.726806640625
 10
4.905205620659722
 20
2.7332763671875
 10
4.915669759114583
 20
2.740532769097222
 10
4.9371337890625
 20
2.754421657986111
 10
4.911058213975694
 20
2.662150065104167
 10
4.875840928819444
 20
2.592597113715278
 10
4.802347819010416
 20
2.548027886284722
 10
4.778557671440972
 20
2.533610026041667
 10
4.751959906684028
 20
2.514689127604167
 10
4.725111219618055
 20
2.527777777777778
 10
4.693929036458333
 20
2.542955186631944
 10
4.698038736979166
 20
2.579386393229167
 10
4.698459201388888
 20
2.607842339409722
 10
4.699625651041666
 20
2.687717013888889
 10
4.724087185329861
 20
2.762858072916667
 10
4.756781684027778
 20
2.834689670138889
 10
4.885036892361111
 20
3.116414388020833
 10
5.013068305121528
 20
3.398261176215278
 10
5.145236545138888
 20
3.678141276041667
 10
5.166422526041666
 20
3.722995334201389
 10
5.162428114149305
 20
3.752468532986111
 10
5.135986328125
 20
3.790215386284722
 10
4.996222601996528
 20
3.989759657118055
 10
4.868821885850694
 20
4.195692274305555
 10
4.814500596788194
 20
4.437920464409722
 10
4.794704861111111
 20
4.526217990451388
 10
4.774217393663194
 20
4.615871853298611
 10
4.779798719618055
 20
4.705471462673611
 10
4.786044650607638
 20
4.805799696180555
 10
4.74029541015625
 20
4.864162868923611
 10
4.652818467881944
 20
4.909098307291666
 10
4.640679253472222
 20
4.797580295138888
 10
4.665147569444444
 20
4.692491319444444
 10
4.686475965711805
 20
4.587687174479166
 10
4.737270779079861
 20
4.338107638888888
 10
4.829372829861111
 20
4.105224609375
 10
4.973782009548611
 20
3.894178602430555
 10
4.986287434895833
 20
3.875908745659722
 10
5.002027723524305
 20
3.860880533854167
 10
4.991488986545138
 20
3.832234700520833
 10
4.922281901041666
 20
3.644097222222222
 10
4.82183837890625
 20
3.482774522569444
 10
4.630167643229166
 20
3.396809895833333
 10
4.620049370659722
 20
3.392266167534722
 10
4.608317057291666
 20
3.391357421875
 10
4.597330729166666
 20
3.388753255208333
 10
4.597330729166666
 20
3.388753255208333
 10
4.598354763454861
 20
3.386895073784722
 10
4.598354763454861
 20
3.386895073784722
 97
        0
 92
        1
 93
        1
 72
     4
 94
        3
 73
     0
 74
     1
 95
       11
 96
        7
 40
0.0
 40
0.0
 40
0.0
 40
0.0
 40
1.0
 40
1.0
 40
1.0
 40
2.0
 40
2.0
 40
2.0
 40
2.0
 10
5.490566677517361
 20
2.266357421875
 10
5.657036675347222
 20
2.725640190972222
 10
5.612928602430555
 20
3.187472873263889
 10
5.525702582465278
 20
3.650187174479167
 10
5.432969835069444
 20
3.191758897569444
 10
5.316019694010416
 20
2.733927408854167
 10
5.490566677517361
 20
2.266357421875
 97
        0
 75
     0
 76
     1
 98
        0
  0
SPLINE
  5
3F
330
1F
100
AcDbEntity
  8
Layer 1
370
     0
100
AcDbSpline
210
0.0
220
0.0
230
1.0
 70
    11
 71
     3
 72
    41
 73
    37
 74
     0
 42
0.0000000001
 43
0.0000000001
 40
0.0
 40
0.0
 40
0.0
 40
0.0
 40
1.0
 40
1.0
 40
1.0
 40
2.0
 40
2.0
 40
2.0
 40
3.0
 40
3.0
 40
3.0
 40
4.0
 40
4.0
 40
4.0
 40
5.0
 40
5.0
 40
5.0
 40
6.0
 40
6.0
 40
6.0
 40
7.0
 40
7.0
 40
7.0
 40
8.0
 40
8.0
 40
8.0
 40
9.0
 40
9.0
 40
9.0
 40
10.0
 40
10.0
 40
10.0
 40
11.0
 40
11.0
 40
11.0
 40
12.0
 40
12.0
 40
12.0
 40
12.0
 10
5.498494466145833
 20
4.433037651909722
 30
0.0
 10
5.408786349826388
 20
4.677422417534722
 30
0.0
 10
5.304307725694444
 20
4.908379448784722
 30
0.0
 10
5.164686414930555
 20
5.122504340277778
 30
0.0
 10
5.155063205295138
 20
5.137261284722222
 30
0.0
 10
5.147047254774305
 20
5.151285807291666
 30
0.0
 10
5.163811577690972
 20
5.164781358506944
 30
0.0
 10
5.2972412109375
 20
5.272257486979166
 30
0.0
 10
5.327039930555555
 20
5.415744357638888
 30
0.0
 10
5.307685004340278
 20
5.577813042534722
 30
0.0
 10
5.370808919270833
 20
5.450724283854166
 30
0.0
 10
5.371839735243055
 20
5.321614583333333
 30
0.0
 10
5.320203993055555
 20
5.193454318576388
 30
0.0
 10
5.299675835503472
 20
5.142510308159722
 30
0.0
 10
5.302049424913194
 20
5.105740017361111
 30
0.0
 10
5.337883843315972
 20
5.062337239583333
 30
0.0
 10
5.398539225260416
 20
4.988864474826388
 30
0.0
 10
5.433030870225694
 20
4.899956597222222
 30
0.0
 10
5.469550238715278
 20
4.792426215277778
 30
0.0
 10
5.521023220486111
 20
4.922905815972222
 30
0.0
 10
5.594807942708333
 20
5.022054036458333
 30
0.0
 10
5.672743055555555
 20
5.118489583333333
 30
0.0
 10
5.695122612847222
 20
5.146172417534722
 30
0.0
 10
5.668077256944444
 20
5.160359700520833
 30
0.0
 10
5.65380859375
 20
5.175862630208333
 30
0.0
 10
5.569173177083333
 20
5.267822265625
 30
0.0
 10
5.485460069444444
 20
5.360555013020833
 30
0.0
 10
5.418646918402778
 20
5.466769748263888
 30
0.0
 10
5.399685329861111
 20
5.496921115451388
 30
0.0
 10
5.377054850260416
 20
5.526692708333333
 30
0.0
 10
5.37542724609375
 20
5.584038628472222
 30
0.0
 10
5.518174913194444
 20
5.417534722222222
 30
0.0
 10
5.656277126736111
 20
5.269585503472222
 30
0.0
 10
5.903510199652778
 20
5.2811279296875
 30
0.0
 10
5.690538194444444
 20
5.024956597222222
 30
0.0
 10
5.564588758680555
 20
4.744113498263888
 30
0.0
 10
5.498494466145833
 20
4.433037651909722
 30
0.0
  0
HATCH
  5
40
330
1F
100
AcDbEntity
  8
Layer 1
 62
    12
420
 14094080
100
AcDbHatch
 10
0.0
 20
0.0
 30
0.0
210
0.0
220
0.0
230
1.0
  2
SOLID
 70
     1
 71
     0
 91
        1
 92
        1
 93
        1
 72
     4
 94
        3
 73
     0
 74
     1
 95
       41
 96
       37
 40
0.0
 40
0.0
 40
0.0
 40
0.0
 40
1.0
 40
1.0
 40
1.0
 40
2.0
 40
2.0
 40
2.0
 40
3.0
 40
3.0
 40
3.0
 40
4.0
 40
4.0
 40
4.0
 40
5.0
 40
5.0
 40
5.0
 40
6.0
 40
6.0
 40
6.0
 40
7.0
 40
7.0
 40
7.0
 40
8.0
 40
8.0
 40
8.0
 40
9.0
 40
9.0
 40
9.0
 40
10.0
 40
10.0
 40
10.0
 40
11.0
 40
11.0
 40
11.0
 40
12.0
 40
12.0
 40
12.0
 40
12.0
 10
5.498494466145833
 20
4.433037651909722
 10
5.408786349826388
 20
4.677422417534722
 10
5.304307725694444
 20
4.908379448784722
 10
5.164686414930555
 20
5.122504340277778
 10
5.155063205295138
 20
5.137261284722222
 10
5.147047254774305
 20
5.151285807291666
 10
5.163811577690972
 20
5.164781358506944
 10
5.2972412109375
 20
5.272257486979166
 10
5.327039930555555
 20
5.415744357638888
 10
5.307685004340278
 20
5.577813042534722
 10
5.370808919270833
 20
5.450724283854166
 10
5.371839735243055
 20
5.321614583333333
 10
5.320203993055555
 20
5.193454318576388
 10
5.299675835503472
 20
5.142510308159722
 10
5.302049424913194
 20
5.105740017361111
 10
5.337883843315972
 20
5.062337239583333
 10
5.398539225260416
 20
4.988864474826388
 10
5.433030870225694
 20
4.899956597222222
 10
5.469550238715278
 20
4.792426215277778
 10
5.521023220486111
 20
4.922905815972222
 10
5.594807942708333
 20
5.022054036458333
 10
5.672743055555555
 20
5.118489583333333
 10
5.695122612847222
 20
5.146172417534722
 10
5.668077256944444
 20
5.160359700520833
 10
5.65380859375
 20
5.175862630208333
 10
5.569173177083333
 20
5.267822265625
 10
5.485460069444444
 20
5.360555013020833
 10
5.418646918402778
 20
5.466769748263888
 10
5.399685329861111
 20
5.496921115451388
 10
5.377054850260416
 20
5.526692708333333
 10
5.37542724609375
 20
5.584038628472222
 10
5.518174913194444
 20
5.417534722222222
 10
5.656277126736111
 20
5.269585503472222
 10
5.903510199652778
 20
5.2811279296875
 10
5.690538194444444
 20
5.024956597222222
 10
5.564588758680555
 20
4.744113498263888
 10
5.498494466145833
 20
4.433037651909722
 97
        0
 75
     0
 76
     1
 98
        0
  0
SPLINE
  5
41
330
1F
100
AcDbEntity
  8
Layer 1
370
     0
100
AcDbSpline
210
0.0
220
0.0
230
1.0
 70
    11
 71
     3
 72
    68
 73
    64
 74
     0
 42
0.0000000001
 43
0.0000000001
 40
0.0
 40
0.0
 40
0.0
 40
0.0
 40
1.0
 40
1.0
 40
1.0
 40
2.0
 40
2.0
 40
2.0
 40
3.0
 40
3.0
 40
3.0
 40
4.0
 40
4.0
 40
4.0
 40
5.0
 40
5.0
 40
5.0
 40
6.0
 40
6.0
 40
6.0
 40
7.0
 40
7.0
 40
7.0
 40
8.0
 40
8.0
 40
8.0
 40
9.0
 40
9.0
 40
9.0
 40
10.0
 40
10.0
 40
10.0
 40
11.0
 40
11.0
 40
11.0
 40
12.0
 40
12.0
 40
12.0
 40
13.0
 40
13.0
 40
13.0
 40
14.0
 40
14.0
 40
14.0
 40
15.0
 40
15.0
 40
15.0
 40
16.0
 40
16.0
 40
16.0
 40
17.0
 40
17.0
 40
17.0
 40
18.0
 40
18.0
 40
18.0
 40
19.0
 40
19.0
 40
19.0
 40
20.0
 40
20.0
 40
20.0
 40
21.0
 40
21.0
 40
21.0
 40
21.0
 10
5.175584581163194
 20
5.939602322048611
 30
0.0
 10
5.201992458767361
 20
5.8463134765625
 30
0.0
 10
5.23797607421875
 20
5.755954318576388
 30
0.0
 10
5.255208333333333
 20
5.659803602430555
 30
0.0
 10
5.272325303819444
 20
5.5643310546875
 30
0.0
 10
5.252705891927083
 20
5.475599500868055
 30
0.0
 10
5.213005913628472
 20
5.390326605902778
 30
0.0
 10
5.186225043402778
 20
5.332817925347222
 30
0.0
 10
5.140414767795138
 20
5.304131401909722
 30
0.0
 10
5.071628146701388
 20
5.313910590277778
 30
0.0
 10
5.214436848958333
 20
5.442314995659722
 30
0.0
 10
5.207255045572916
 20
5.742648654513888
 30
0.0
 10
5.061842176649305
 20
5.872097439236111
 30
0.0
 10
5.02532958984375
 20
5.904595269097222
 30
0.0
 10
4.98382568359375
 20
5.914957682291666
 30
0.0
 10
4.93988037109375
 20
5.896348741319444
 30
0.0
 10
4.882954915364583
 20
5.872233072916666
 30
0.0
 10
4.882113986545138
 20
5.901272243923611
 30
0.0
 10
4.889940049913194
 20
5.942857530381944
 30
0.0
 10
4.916836208767361
 20
6.085856119791666
 30
0.0
 10
5.055718315972222
 20
6.1544189453125
 30
0.0
 10
5.188483344184028
 20
6.077989366319444
 30
0.0
 10
5.267320421006944
 20
6.032619900173611
 30
0.0
 10
5.336418999565972
 20
6.006334092881944
 30
0.0
 10
5.426608615451388
 20
6.039076063368055
 30
0.0
 10
5.479804144965278
 20
6.058376736111111
 30
0.0
 10
5.530585394965278
 20
6.0303955078125
 30
0.0
 10
5.570176866319444
 20
5.989556206597222
 30
0.0
 10
5.607489691840278
 20
5.9510498046875
 30
0.0
 10
5.637966579861111
 20
5.9071044921875
 30
0.0
 10
5.662977430555555
 20
5.860215928819444
 30
0.0
 10
5.755235460069444
 20
5.687106662326388
 30
0.0
 10
5.886949327256944
 20
5.555704752604166
 30
0.0
 10
6.065104166666666
 20
5.471856011284722
 30
0.0
 10
6.076904296875
 20
5.466295030381944
 30
0.0
 10
6.087646484375
 20
5.458468967013888
 30
0.0
 10
6.096218532986111
 20
5.446872287326388
 30
0.0
 10
5.929226345486111
 20
5.473809136284722
 30
0.0
 10
5.772691514756944
 20
5.521280924479166
 30
0.0
 10
5.665174696180555
 20
5.6651611328125
 30
0.0
 10
5.620876736111111
 20
5.724433051215278
 30
0.0
 10
5.578125
 20
5.784857855902778
 30
0.0
 10
5.533949110243055
 20
5.84423828125
 30
0.0
 10
5.525783962673611
 20
5.855211046006944
 30
0.0
 10
5.515150282118055
 20
5.864963107638888
 30
0.0
 10
5.504001193576388
 20
5.872979058159722
 30
0.0
 10
5.483778211805555
 20
5.887505425347222
 30
0.0
 10
5.460700141059028
 20
5.913601345486111
 30
0.0
 10
5.437452528211805
 20
5.899142795138888
 30
0.0
 10
5.417005750868055
 20
5.886406792534722
 30
0.0
 10
5.435316297743055
 20
5.856621636284722
 30
0.0
 10
5.437330457899305
 20
5.834337022569444
 30
0.0
 10
5.438083224826388
 20
5.826022677951388
 30
0.0
 10
5.437452528211805
 20
5.817586263020833
 30
0.0
 10
5.429368760850694
 20
5.799180772569444
 30
0.0
 10
5.377827962239583
 20
5.902167426215278
 30
0.0
 10
5.281331380208333
 20
5.925225151909722
 30
0.0
 10
5.187357584635416
 20
5.952596028645833
 30
0.0
 10
5.181254069010416
 20
5.956095377604166
 30
0.0
 10
5.174472384982638
 20
5.959296332465278
 30
0.0
 10
5.170457628038194
 20
5.951009114583333
 30
0.0
 10
5.169291178385416
 20
5.948594835069444
 30
0.0
 10
5.173719618055555
 20
5.9434814453125
 30
0.0
 10
5.175584581163194
 20
5.939602322048611
 30
0.0
  0
HATCH
  5
42
330
1F
100
AcDbEntity
  8
Layer 1
 62
    12
420
 14094080
100
AcDbHatch
 10
0.0
 20
0.0
 30
0.0
210
0.0
220
0.0
230
1.0
  2
SOLID
 70
     1
 71
     0
 91
        1
 92
        1
 93
        1
 72
     4
 94
        3
 73
     0
 74
     1
 95
       68
 96
       64
 40
0.0
 40
0.0
 40
0.0
 40
0.0
 40
1.0
 40
1.0
 40
1.0
 40
2.0
 40
2.0
 40
2.0
 40
3.0
 40
3.0
 40
3.0
 40
4.0
 40
4.0
 40
4.0
 40
5.0
 40
5.0
 40
5.0
 40
6.0
 40
6.0
 40
6.0
 40
7.0
 40
7.0
 40
7.0
 40
8.0
 40
8.0
 40
8.0
 40
9.0
 40
9.0
 40
9.0
 40
10.0
 40
10.0
 40
10.0
 40
11.0
 40
11.0
 40
11.0
 40
12.0
 40
12.0
 40
12.0
 40
13.0
 40
13.0
 40
13.0
 40
14.0
 40
14.0
 40
14.0
 40
15.0
 40
15.0
 40
15.0
 40
16.0
 40
16.0
 40
16.0
 40
17.0
 40
17.0
 40
17.0
 40
18.0
 40
18.0
 40
18.0
 40
19.0
 40
19.0
 40
19.0
 40
20.0
 40
20.0
 40
20.0
 40
21.0
 40
21.0
 40
21.0
 40
21.0
 10
5.175584581163194
 20
5.939602322048611
 10
5.201992458767361
 20
5.8463134765625
 10
5.23797607421875
 20
5.755954318576388
 10
5.255208333333333
 20
5.659803602430555
 10
5.272325303819444
 20
5.5643310546875
 10
5.252705891927083
 20
5.475599500868055
 10
5.213005913628472
 20
5.390326605902778
 10
5.186225043402778
 20
5.332817925347222
 10
5.140414767795138
 20
5.304131401909722
 10
5.071628146701388
 20
5.313910590277778
 10
5.214436848958333
 20
5.442314995659722
 10
5.207255045572916
 20
5.742648654513888
 10
5.061842176649305
 20
5.872097439236111
 10
5.02532958984375
 20
5.904595269097222
 10
4.98382568359375
 20
5.914957682291666
 10
4.93988037109375
 20
5.896348741319444
 10
4.882954915364583
 20
5.872233072916666
 10
4.882113986545138
 20
5.901272243923611
 10
4.889940049913194
 20
5.942857530381944
 10
4.916836208767361
 20
6.085856119791666
 10
5.055718315972222
 20
6.1544189453125
 10
5.188483344184028
 20
6.077989366319444
 10
5.267320421006944
 20
6.032619900173611
 10
5.336418999565972
 20
6.006334092881944
 10
5.426608615451388
 20
6.039076063368055
 10
5.479804144965278
 20
6.058376736111111
 10
5.530585394965278
 20
6.0303955078125
 10
5.570176866319444
 20
5.989556206597222
 10
5.607489691840278
 20
5.9510498046875
 10
5.637966579861111
 20
5.9071044921875
 10
5.662977430555555
 20
5.860215928819444
 10
5.755235460069444
 20
5.687106662326388
 10
5.886949327256944
 20
5.555704752604166
 10
6.065104166666666
 20
5.471856011284722
 10
6.076904296875
 20
5.466295030381944
 10
6.087646484375
 20
5.458468967013888
 10
6.096218532986111
 20
5.446872287326388
 10
5.929226345486111
 20
5.473809136284722
 10
5.772691514756944
 20
5.521280924479166
 10
5.665174696180555
 20
5.6651611328125
 10
5.620876736111111
 20
5.724433051215278
 10
5.578125
 20
5.784857855902778
 10
5.533949110243055
 20
5.84423828125
 10
5.525783962673611
 20
5.855211046006944
 10
5.515150282118055
 20
5.864963107638888
 10
5.504001193576388
 20
5.872979058159722
 10
5.483778211805555
 20
5.887505425347222
 10
5.460700141059028
 20
5.913601345486111
 10
5.437452528211805
 20
5.899142795138888
 10
5.417005750868055
 20
5.886406792534722
 10
5.435316297743055
 20
5.856621636284722
 10
5.437330457899305
 20
5.834337022569444
 10
5.438083224826388
 20
5.826022677951388
 10
5.437452528211805
 20
5.817586263020833
 10
5.429368760850694
 20
5.799180772569444
 10
5.377827962239583
 20
5.902167426215278
 10
5.281331380208333
 20
5.925225151909722
 10
5.187357584635416
 20
5.952596028645833
 10
5.181254069010416
 20
5.956095377604166
 10
5.174472384982638
 20
5.959296332465278
 10
5.170457628038194
 20
5.951009114583333
 10
5.169291178385416
 20
5.948594835069444
 10
5.173719618055555
 20
5.9434814453125
 10
5.175584581163194
 20
5.939602322048611
 97
        0
 75
     0
 76
     1
 98
        0
  0
SPLINE
  5
43
330
1F
100
AcDbEntity
  8
Layer 1
370
     0
100
AcDbSpline
210
0.0
220
0.0
230
1.0
 70
    11
 71
     3
 72
    32
 73
    28
 74
     0
 42
0.0000000001
 43
0.0000000001
 40
0.0
 40
0.0
 40
0.0
 40
0.0
 40
1.0
 40
1.0
 40
1.0
 40
2.0
 40
2.0
 40
2.0
 40
3.0
 40
3.0
 40
3.0
 40
4.0
 40
4.0
 40
4.0
 40
5.0
 40
5.0
 40
5.0
 40
6.0
 40
6.0
 40
6.0
 40
7.0
 40
7.0
 40
7.0
 40
8.0
 40
8.0
 40
8.0
 40
9.0
 40
9.0
 40
9.0
 40
9.0
 10
4.373826768663195
 20
5.029961480034722
 30
0.0
 10
4.269707573784722
 20
4.832329644097222
 30
0.0
 10
4.101677788628472
 20
4.7376708984375
 30
0.0
 10
3.875474717881944
 20
4.720960828993055
 30
0.0
 10
3.977199978298611
 20
4.627604166666666
 30
0.0
 10
4.103061252170138
 20
4.613959418402778
 30
0.0
 10
4.213711208767361
 20
4.564480251736111
 30
0.0
 10
3.973619249131944
 20
4.437269422743055
 30
0.0
 10
3.544535319010417
 20
4.679361979166666
 30
0.0
 10
3.49505615234375
 20
4.976548936631944
 30
0.0
 10
3.563788519965278
 20
4.937472873263888
 30
0.0
 10
3.625962999131944
 20
4.899834526909722
 30
0.0
 10
3.690287272135417
 20
4.8663330078125
 30
0.0
 10
3.737338595920139
 20
4.841810438368055
 30
0.0
 10
3.787489149305555
 20
4.8140869140625
 30
0.0
 10
3.831332736545139
 20
4.874647352430555
 30
0.0
 10
3.841966417100694
 20
4.889322916666666
 30
0.0
 10
3.854288736979167
 20
4.886691623263888
 30
0.0
 10
3.864813910590278
 20
4.872816297743055
 30
0.0
 10
3.914265950520833
 20
4.807590060763888
 30
0.0
 10
3.982184516059028
 20
4.830118815104166
 30
0.0
 10
4.043490939670138
 20
4.840426974826388
 30
0.0
 10
4.129543728298611
 20
4.854899088541666
 30
0.0
 10
4.200934516059028
 20
4.904147677951388
 30
0.0
 10
4.270372178819445
 20
4.954657660590278
 30
0.0
 10
4.304863823784722
 20
4.979749891493055
 30
0.0
 10
4.339341905381945
 20
5.004855685763888
 30
0.0
 10
4.373826768663195
 20
5.029961480034722
 30
0.0
  0
HATCH
  5
44
330
1F
100
AcDbEntity
  8
Layer 1
 62
    12
420
 14094080
100
AcDbHatch
 10
0.0
 20
0.0
 30
0.0
210
0.0
220
0.0
230
1.0
  2
SOLID
 70
     1
 71
     0
 91
        1
 92
        1
 93
        1
 72
     4
 94
        3
 73
     0
 74
     1
 95
       32
 96
       28
 40
0.0
 40
0.0
 40
0.0
 40
0.0
 40
1.0
 40
1.0
 40
1.0
 40
2.0
 40
2.0
 40
2.0
 40
3.0
 40
3.0
 40
3.0
 40
4.0
 40
4.0
 40
4.0
 40
5.0
 40
5.0
 40
5.0
 40
6.0
 40
6.0
 40
6.0
 40
7.0
 40
7.0
 40
7.0
 40
8.0
 40
8.0
 40
8.0
 40
9.0
 40
9.0
 40
9.0
 40
9.0
 10
4.373826768663195
 20
5.029961480034722
 10
4.269707573784722
 20
4.832329644097222
 10
4.101677788628472
 20
4.7376708984375
 10
3.875474717881944
 20
4.720960828993055
 10
3.977199978298611
 20
4.627604166666666
 10
4.103061252170138
 20
4.613959418402778
 10
4.213711208767361
 20
4.564480251736111
 10
3.973619249131944
 20
4.437269422743055
 10
3.544535319010417
 20
4.679361979166666
 10
3.49505615234375
 20
4.976548936631944
 10
3.563788519965278
 20
4.937472873263888
 10
3.625962999131944
 20
4.899834526909722
 10
3.690287272135417
 20
4.8663330078125
 10
3.737338595920139
 20
4.841810438368055
 10
3.787489149305555
 20
4.8140869140625
 10
3.831332736545139
 20
4.874647352430555
 10
3.841966417100694
 20
4.889322916666666
 10
3.854288736979167
 20
4.886691623263888
 10
3.864813910590278
 20
4.872816297743055
 10
3.914265950520833
 20
4.807590060763888
 10
3.982184516059028
 20
4.830118815104166
 10
4.043490939670138
 20
4.840426974826388
 10
4.129543728298611
 20
4.854899088541666
 10
4.200934516059028
 20
4.904147677951388
 10
4.270372178819445
 20
4.954657660590278
 10
4.304863823784722
 20
4.979749891493055
 10
4.339341905381945
 20
5.004855685763888
 10
4.373826768663195
 20
5.029961480034722
 97
        0
 75
     0
 76
     1
 98
        0
  0
SPLINE
  5
45
330
1F
100
AcDbEntity
  8
Layer 1
370
     0
100
AcDbSpline
210
0.0
220
0.0
230
1.0
 70
    11
 71
     3
 72
    32
 73
    28
 74
     0
 42
0.0000000001
 43
0.0000000001
 40
0.0
 40
0.0
 40
0.0
 40
0.0
 40
1.0
 40
1.0
 40
1.0
 40
2.0
 40
2.0
 40
2.0
 40
3.0
 40
3.0
 40
3.0
 40
4.0
 40
4.0
 40
4.0
 40
5.0
 40
5.0
 40
5.0
 40
6.0
 40
6.0
 40
6.0
 40
7.0
 40
7.0
 40
7.0
 40
8.0
 40
8.0
 40
8.0
 40
9.0
 40
9.0
 40
9.0
 40
9.0
 10
6.631808810763888
 20
5.0218505859375
 30
0.0
 10
6.721869574652778
 20
4.953911675347222
 30
0.0
 10
6.804497612847221
 20
4.874525282118055
 30
0.0
 10
6.917466905381944
 20
4.842542860243055
 30
0.0
 10
6.997884114583333
 20
4.819783528645833
 30
0.0
 10
7.078314887152778
 20
4.786756727430555
 30
0.0
 10
7.149115668402778
 20
4.863810221354166
 30
0.0
 10
7.159369574652778
 20
4.874972873263888
 30
0.0
 10
7.169650607638888
 20
4.873602973090278
 30
0.0
 10
7.177625868055555
 20
4.862521701388888
 30
0.0
 10
7.216335720486111
 20
4.808688693576388
 30
0.0
 10
7.264865451388888
 20
4.829305013020833
 30
0.0
 10
7.308186848958333
 20
4.849663628472222
 30
0.0
 10
7.374850802951388
 20
4.880995008680555
 30
0.0
 10
7.438530815972221
 20
4.918687608506944
 30
0.0
 10
7.502997504340278
 20
4.953436957465278
 30
0.0
 10
7.490410698784721
 20
4.683390299479166
 30
0.0
 10
7.077935112847221
 20
4.448282877604166
 30
0.0
 10
6.781032986111111
 20
4.549343532986111
 30
0.0
 10
6.899848090277778
 20
4.596394856770833
 30
0.0
 10
7.023735894097221
 20
4.620076497395833
 30
0.0
 10
7.138020833333333
 20
4.708997938368055
 30
0.0
 10
6.905924479166666
 20
4.728108723958333
 30
0.0
 10
6.737169053819444
 20
4.826280381944444
 30
0.0
 10
6.622422960069444
 20
5.011474609375
 30
0.0
 10
6.625542534722221
 20
5.014933268229166
 30
0.0
 10
6.628675672743055
 20
5.018391927083333
 30
0.0
 10
6.631808810763888
 20
5.0218505859375
 30
0.0
  0
HATCH
  5
46
330
1F
100
AcDbEntity
  8
Layer 1
 62
    12
420
 14094080
100
AcDbHatch
 10
0.0
 20
0.0
 30
0.0
210
0.0
220
0.0
230
1.0
  2
SOLID
 70
     1
 71
     0
 91
        1
 92
        1
 93
        1
 72
     4
 94
        3
 73
     0
 74
     1
 95
       32
 96
       28
 40
0.0
 40
0.0
 40
0.0
 40
0.0
 40
1.0
 40
1.0
 40
1.0
 40
2.0
 40
2.0
 40
2.0
 40
3.0
 40
3.0
 40
3.0
 40
4.0
 40
4.0
 40
4.0
 40
5.0
 40
5.0
 40
5.0
 40
6.0
 40
6.0
 40
6.0
 40
7.0
 40
7.0
 40
7.0
 40
8.0
 40
8.0
 40
8.0
 40
9.0
 40
9.0
 40
9.0
 40
9.0
 10
6.631808810763888
 20
5.0218505859375
 10
6.721869574652778
 20
4.953911675347222
 10
6.804497612847221
 20
4.874525282118055
 10
6.917466905381944
 20
4.842542860243055
 10
6.997884114583333
 20
4.819783528645833
 10
7.078314887152778
 20
4.786756727430555
 10
7.149115668402778
 20
4.863810221354166
 10
7.159369574652778
 20
4.874972873263888
 10
7.169650607638888
 20
4.873602973090278
 10
7.177625868055555
 20
4.862521701388888
 10
7.216335720486111
 20
4.808688693576388
 10
7.264865451388888
 20
4.829305013020833
 10
7.308186848958333
 20
4.849663628472222
 10
7.374850802951388
 20
4.880995008680555
 10
7.438530815972221
 20
4.918687608506944
 10
7.502997504340278
 20
4.953436957465278
 10
7.490410698784721
 20
4.683390299479166
 10
7.077935112847221
 20
4.448282877604166
 10
6.781032986111111
 20
4.549343532986111
 10
6.899848090277778
 20
4.596394856770833
 10
7.023735894097221
 20
4.620076497395833
 10
7.138020833333333
 20
4.708997938368055
 10
6.905924479166666
 20
4.728108723958333
 10
6.737169053819444
 20
4.826280381944444
 10
6.622422960069444
 20
5.011474609375
 10
6.625542534722221
 20
5.014933268229166
 10
6.628675672743055
 20
5.018391927083333
 10
6.631808810763888
 20
5.0218505859375
 97
        0
 75
     0
 76
     1
 98
        0
  0
SPLINE
  5
47
330
1F
100
AcDbEntity
  8
Layer 1
370
     0
100
AcDbSpline
210
0.0
220
0.0
230
1.0
 70
    11
 71
     3
 72
    32
 73
    28
 74
     0
 42
0.0000000001
 43
0.0000000001
 40
0.0
 40
0.0
 40
0.0
 40
0.0
 40
1.0
 40
1.0
 40
1.0
 40
2.0
 40
2.0
 40
2.0
 40
3.0
 40
3.0
 40
3.0
 40
4.0
 40
4.0
 40
4.0
 40
5.0
 40
5.0
 40
5.0
 40
6.0
 40
6.0
 40
6.0
 40
7.0
 40
7.0
 40
7.0
 40
8.0
 40
8.0
 40
8.0
 40
9.0
 40
9.0
 40
9.0
 40
9.0
 10
6.582831488715278
 20
4.624131944444444
 30
0.0
 10
6.602674696180555
 20
4.624837239583333
 30
0.0
 10
6.608995225694444
 20
4.607340494791666
 30
0.0
 10
6.619303385416666
 20
4.596055772569444
 30
0.0
 10
6.773383246527778
 20
4.427110460069445
 30
0.0
 10
6.956949869791666
 20
4.342190212673611
 30
0.0
 10
7.189249674479166
 20
4.394626193576388
 30
0.0
 10
7.197998046875
 20
4.3966064453125
 30
0.0
 10
7.207221137152778
 20
4.396565755208333
 30
0.0
 10
7.216254340277778
 20
4.396999782986111
 30
0.0
 10
7.217827690972221
 20
4.397067599826388
 30
0.0
 10
7.219509548611111
 20
4.394748263888888
 30
0.0
 10
7.226779513888888
 20
4.389322916666666
 30
0.0
 10
7.153266059027778
 20
4.261827256944445
 30
0.0
 10
7.046644422743055
 20
4.182590060763888
 30
0.0
 10
6.899197048611111
 20
4.165513780381945
 30
0.0
 10
6.787977430555555
 20
4.152615017361111
 30
0.0
 10
6.693332248263888
 20
4.195014105902778
 30
0.0
 10
6.647650824652778
 20
4.269354926215278
 30
0.0
 10
6.795735677083333
 20
4.241726345486111
 30
0.0
 10
6.797105577256944
 20
4.241848415798611
 30
0.0
 10
6.888780381944444
 20
4.295993381076388
 30
0.0
 10
6.748670789930555
 20
4.374430338541666
 30
0.0
 10
6.621744791666666
 20
4.460991753472222
 30
0.0
 10
6.583957248263888
 20
4.625149197048611
 30
0.0
 10
6.583957248263888
 20
4.625149197048611
 30
0.0
 10
6.582831488715278
 20
4.624131944444444
 30
0.0
 10
6.582831488715278
 20
4.624131944444444
 30
0.0
  0
HATCH
  5
48
330
1F
100
AcDbEntity
  8
Layer 1
 62
    12
420
 14094080
100
AcDbHatch
 10
0.0
 20
0.0
 30
0.0
210
0.0
220
0.0
230
1.0
  2
SOLID
 70
     1
 71
     0
 91
        1
 92
        1
 93
        1
 72
     4
 94
        3
 73
     0
 74
     1
 95
       32
 96
       28
 40
0.0
 40
0.0
 40
0.0
 40
0.0
 40
1.0
 40
1.0
 40
1.0
 40
2.0
 40
2.0
 40
2.0
 40
3.0
 40
3.0
 40
3.0
 40
4.0
 40
4.0
 40
4.0
 40
5.0
 40
5.0
 40
5.0
 40
6.0
 40
6.0
 40
6.0
 40
7.0
 40
7.0
 40
7.0
 40
8.0
 40
8.0
 40
8.0
 40
9.0
 40
9.0
 40
9.0
 40
9.0
 10
6.582831488715278
 20
4.624131944444444
 10
6.602674696180555
 20
4.624837239583333
 10
6.608995225694444
 20
4.607340494791666
 10
6.619303385416666
 20
4.596055772569444
 10
6.773383246527778
 20
4.427110460069445
 10
6.956949869791666
 20
4.342190212673611
 10
7.189249674479166
 20
4.394626193576388
 10
7.197998046875
 20
4.3966064453125
 10
7.207221137152778
 20
4.396565755208333
 10
7.216254340277778
 20
4.396999782986111
 10
7.217827690972221
 20
4.397067599826388
 10
7.219509548611111
 20
4.394748263888888
 10
7.226779513888888
 20
4.389322916666666
 10
7.153266059027778
 20
4.261827256944445
 10
7.046644422743055
 20
4.182590060763888
 10
6.899197048611111
 20
4.165513780381945
 10
6.787977430555555
 20
4.152615017361111
 10
6.693332248263888
 20
4.195014105902778
 10
6.647650824652778
 20
4.269354926215278
 10
6.795735677083333
 20
4.241726345486111
 10
6.797105577256944
 20
4.241848415798611
 10
6.888780381944444
 20
4.295993381076388
 10
6.748670789930555
 20
4.374430338541666
 10
6.621744791666666
 20
4.460991753472222
 10
6.583957248263888
 20
4.625149197048611
 10
6.583957248263888
 20
4.625149197048611
 10
6.582831488715278
 20
4.624131944444444
 10
6.582831488715278
 20
4.624131944444444
 97
        0
 75
     0
 76
     1
 98
        0
  0
SPLINE
  5
49
330
1F
100
AcDbEntity
  8
Layer 1
370
     0
100
AcDbSpline
210
0.0
220
0.0
230
1.0
 70
    11
 71
     3
 72
    23
 73
    19
 74
     0
 42
0.0000000001
 43
0.0000000001
 40
0.0
 40
0.0
 40
0.0
 40
0.0
 40
1.0
 40
1.0
 40
1.0
 40
2.0
 40
2.0
 40
2.0
 40
3.0
 40
3.0
 40
3.0
 40
4.0
 40
4.0
 40
4.0
 40
5.0
 40
5.0
 40
5.0
 40
6.0
 40
6.0
 40
6.0
 40
6.0
 10
4.122185601128472
 20
4.305731879340278
 30
0.0
 10
4.200419108072916
 20
4.241305881076388
 30
0.0
 10
4.276679144965278
 20
4.2431640625
 30
0.0
 10
4.359754774305555
 20
4.285956488715278
 30
0.0
 10
4.319173177083333
 20
4.220974392361111
 30
0.0
 10
4.261996799045138
 20
4.185628255208333
 30
0.0
 10
4.187330457899305
 20
4.176459418402778
 30
0.0
 10
4.001824273003472
 20
4.1536865234375
 30
0.0
 10
3.882432725694444
 20
4.253078884548611
 30
0.0
 10
3.773091634114583
 20
4.409261067708333
 30
0.0
 10
4.045925564236111
 20
4.344156901041666
 30
0.0
 10
4.25128173828125
 20
4.44140625
 30
0.0
 10
4.425930447048611
 20
4.630764431423611
 30
0.0
 10
4.40380859375
 20
4.5574951171875
 30
0.0
 10
4.363606770833333
 20
4.494656032986111
 30
0.0
 10
4.310940212673611
 20
4.438286675347222
 30
0.0
 10
4.258517795138888
 20
4.382175021701388
 30
0.0
 10
4.187635633680555
 20
4.351711697048611
 30
0.0
 10
4.122185601128472
 20
4.305731879340278
 30
0.0
  0
HATCH
  5
4A
330
1F
100
AcDbEntity
  8
Layer 1
 62
    12
420
 14094080
100
AcDbHatch
 10
0.0
 20
0.0
 30
0.0
210
0.0
220
0.0
230
1.0
  2
SOLID
 70
     1
 71
     0
 91
        1
 92
        1
 93
        1
 72
     4
 94
        3
 73
     0
 74
     1
 95
       23
 96
       19
 40
0.0
 40
0.0
 40
0.0
 40
0.0
 40
1.0
 40
1.0
 40
1.0
 40
2.0
 40
2.0
 40
2.0
 40
3.0
 40
3.0
 40
3.0
 40
4.0
 40
4.0
 40
4.0
 40
5.0
 40
5.0
 40
5.0
 40
6.0
 40
6.0
 40
6.0
 40
6.0
 10
4.122185601128472
 20
4.305731879340278
 10
4.200419108072916
 20
4.241305881076388
 10
4.276679144965278
 20
4.2431640625
 10
4.359754774305555
 20
4.285956488715278
 10
4.319173177083333
 20
4.220974392361111
 10
4.261996799045138
 20
4.185628255208333
 10
4.187330457899305
 20
4.176459418402778
 10
4.001824273003472
 20
4.1536865234375
 10
3.882432725694444
 20
4.253078884548611
 10
3.773091634114583
 20
4.409261067708333
 10
4.045925564236111
 20
4.344156901041666
 10
4.25128173828125
 20
4.44140625
 10
4.425930447048611
 20
4.630764431423611
 10
4.40380859375
 20
4.5574951171875
 10
4.363606770833333
 20
4.494656032986111
 10
4.310940212673611
 20
4.438286675347222
 10
4.258517795138888
 20
4.382175021701388
 10
4.187635633680555
 20
4.351711697048611
 10
4.122185601128472
 20
4.305731879340278
 97
        0
 75
     0
 76
     1
 98
        0
  0
SPLINE
  5
4B
330
1F
100
AcDbEntity
  8
Layer 1
370
     0
100
AcDbSpline
210
0.0
220
0.0
230
1.0
 70
    11
 71
     3
 72
    38
 73
    34
 74
     0
 42
0.0000000001
 43
0.0000000001
 40
0.0
 40
0.0
 40
0.0
 40
0.0
 40
1.0
 40
1.0
 40
1.0
 40
2.0
 40
2.0
 40
2.0
 40
3.0
 40
3.0
 40
3.0
 40
4.0
 40
4.0
 40
4.0
 40
5.0
 40
5.0
 40
5.0
 40
6.0
 40
6.0
 40
6.0
 40
7.0
 40
7.0
 40
7.0
 40
8.0
 40
8.0
 40
8.0
 40
9.0
 40
9.0
 40
9.0
 40
10.0
 40
10.0
 40
10.0
 40
11.0
 40
11.0
 40
11.0
 40
11.0
 10
5.815673828125
 20
3.256510416666667
 30
0.0
 10
5.904351128472222
 20
3.032023111979167
 30
0.0
 10
5.998670789930555
 20
2.808620876736111
 30
0.0
 10
6.0521240234375
 20
2.572129991319444
 30
0.0
 10
6.083957248263888
 20
2.431287977430555
 30
0.0
 10
6.084988064236111
 20
2.287855360243055
 30
0.0
 10
6.068684895833333
 20
2.144463433159722
 30
0.0
 10
6.065266927083333
 20
2.114352756076389
 30
0.0
 10
6.062961154513888
 20
2.078925238715278
 30
0.0
 10
6.026665581597222
 20
2.073201497395833
 30
0.0
 10
5.988661024305555
 20
2.067206488715278
 30
0.0
 10
5.968682183159722
 20
2.098415798611111
 30
0.0
 10
5.956515842013888
 20
2.129014756944444
 30
0.0
 10
5.910997178819444
 20
2.243543836805555
 30
0.0
 10
5.895236545138888
 20
2.365030924479167
 30
0.0
 10
5.871012369791666
 20
2.494764539930555
 30
0.0
 10
5.904134114583333
 20
2.475328233506944
 30
0.0
 10
5.906019422743055
 20
2.444878472222222
 30
0.0
 10
5.923231336805555
 20
2.426445855034722
 30
0.0
 10
5.934136284722222
 20
2.414767795138889
 30
0.0
 10
5.943305121527778
 20
2.399251302083333
 30
0.0
 10
5.962754991319444
 20
2.403998480902778
 30
0.0
 10
5.9815673828125
 20
2.408582899305555
 30
0.0
 10
5.985175238715278
 20
2.425089518229167
 30
0.0
 10
5.988688151041666
 20
2.441134982638889
 30
0.0
 10
6.000868055555555
 20
2.496961805555555
 30
0.0
 10
5.989393446180555
 20
2.551825629340278
 30
0.0
 10
5.980143229166666
 20
2.606296115451389
 30
0.0
 10
5.9451904296875
 20
2.811699761284722
 30
0.0
 10
5.887451171875
 20
3.011406792534722
 30
0.0
 10
5.826633029513888
 20
3.210300021701389
 30
0.0
 10
5.822021484375
 20
3.225409613715278
 30
0.0
 10
5.819281684027778
 20
3.2410888671875
 30
0.0
 10
5.815673828125
 20
3.256510416666667
 30
0.0
  0
HATCH
  5
4C
330
1F
100
AcDbEntity
  8
Layer 1
 62
    12
420
 14094080
100
AcDbHatch
 10
0.0
 20
0.0
 30
0.0
210
0.0
220
0.0
230
1.0
  2
SOLID
 70
     1
 71
     0
 91
        1
 92
        1
 93
        1
 72
     4
 94
        3
 73
     0
 74
     1
 95
       38
 96
       34
 40
0.0
 40
0.0
 40
0.0
 40
0.0
 40
1.0
 40
1.0
 40
1.0
 40
2.0
 40
2.0
 40
2.0
 40
3.0
 40
3.0
 40
3.0
 40
4.0
 40
4.0
 40
4.0
 40
5.0
 40
5.0
 40
5.0
 40
6.0
 40
6.0
 40
6.0
 40
7.0
 40
7.0
 40
7.0
 40
8.0
 40
8.0
 40
8.0
 40
9.0
 40
9.0
 40
9.0
 40
10.0
 40
10.0
 40
10.0
 40
11.0
 40
11.0
 40
11.0
 40
11.0
 10
5.815673828125
 20
3.256510416666667
 10
5.904351128472222
 20
3.032023111979167
 10
5.998670789930555
 20
2.808620876736111
 10
6.0521240234375
 20
2.572129991319444
 10
6.083957248263888
 20
2.431287977430555
 10
6.084988064236111
 20
2.287855360243055
 10
6.068684895833333
 20
2.144463433159722
 10
6.065266927083333
 20
2.114352756076389
 10
6.062961154513888
 20
2.078925238715278
 10
6.026665581597222
 20
2.073201497395833
 10
5.988661024305555
 20
2.067206488715278
 10
5.968682183159722
 20
2.098415798611111
 10
5.956515842013888
 20
2.129014756944444
 10
5.910997178819444
 20
2.243543836805555
 10
5.895236545138888
 20
2.365030924479167
 10
5.871012369791666
 20
2.494764539930555
 10
5.904134114583333
 20
2.475328233506944
 10
5.906019422743055
 20
2.444878472222222
 10
5.923231336805555
 20
2.426445855034722
 10
5.934136284722222
 20
2.414767795138889
 10
5.943305121527778
 20
2.399251302083333
 10
5.962754991319444
 20
2.403998480902778
 10
5.9815673828125
 20
2.408582899305555
 10
5.985175238715278
 20
2.425089518229167
 10
5.988688151041666
 20
2.441134982638889
 10
6.000868055555555
 20
2.496961805555555
 10
5.989393446180555
 20
2.551825629340278
 10
5.980143229166666
 20
2.606296115451389
 10
5.9451904296875
 20
2.811699761284722
 10
5.887451171875
 20
3.011406792534722
 10
5.826633029513888
 20
3.210300021701389
 10
5.822021484375
 20
3.225409613715278
 10
5.819281684027778
 20
3.2410888671875
 10
5.815673828125
 20
3.256510416666667
 97
        0
 75
     0
 76
     1
 98
        0
  0
SPLINE
  5
4D
330
1F
100
AcDbEntity
  8
Layer 1
370
     0
100
AcDbSpline
210
0.0
220
0.0
230
1.0
 70
    11
 71
     3
 72
    26
 73
    22
 74
     0
 42
0.0000000001
 43
0.0000000001
 40
0.0
 40
0.0
 40
0.0
 40
0.0
 40
1.0
 40
1.0
 40
1.0
 40
2.0
 40
2.0
 40
2.0
 40
3.0
 40
3.0
 40
3.0
 40
4.0
 40
4.0
 40
4.0
 40
5.0
 40
5.0
 40
5.0
 40
6.0
 40
6.0
 40
6.0
 40
7.0
 40
7.0
 40
7.0
 40
7.0
 10
4.537909613715278
 20
4.281887478298611
 30
0.0
 10
4.533393012152778
 20
4.187717013888888
 30
0.0
 10
4.494025336371528
 20
4.110310872395833
 30
0.0
 10
4.425937228732638
 20
4.045993381076388
 30
0.0
 10
4.407029893663195
 20
4.028130425347222
 30
0.0
 10
4.368150499131945
 20
4.011501736111111
 30
0.0
 10
4.381842719184028
 20
3.983913845486111
 30
0.0
 10
4.397216796875
 20
3.952962239583333
 30
0.0
 10
4.436136881510416
 20
3.956122504340278
 30
0.0
 10
4.469150119357638
 20
3.966986762152778
 30
0.0
 10
4.481730143229166
 20
3.971123589409722
 30
0.0
 10
4.495008680555555
 20
3.977918836805555
 30
0.0
 10
4.508368598090278
 20
3.968275282118055
 30
0.0
 10
4.400553385416666
 20
3.770968967013889
 30
0.0
 10
4.141730414496528
 20
3.733873155381944
 30
0.0
 10
3.974216037326389
 20
3.8974609375
 30
0.0
 10
4.09857177734375
 20
3.908962673611111
 30
0.0
 10
4.197869194878472
 20
3.970689561631944
 30
0.0
 10
4.296244303385416
 20
4.033555772569445
 30
0.0
 10
4.395277235243055
 20
4.096856011284722
 30
0.0
 10
4.469618055555555
 20
4.184529622395833
 30
0.0
 10
4.537909613715278
 20
4.281887478298611
 30
0.0
  0
HATCH
  5
4E
330
1F
100
AcDbEntity
  8
Layer 1
 62
    12
420
 14094080
100
AcDbHatch
 10
0.0
 20
0.0
 30
0.0
210
0.0
220
0.0
230
1.0
  2
SOLID
 70
     1
 71
     0
 91
        1
 92
        1
 93
        1
 72
     4
 94
        3
 73
     0
 74
     1
 95
       26
 96
       22
 40
0.0
 40
0.0
 40
0.0
 40
0.0
 40
1.0
 40
1.0
 40
1.0
 40
2.0
 40
2.0
 40
2.0
 40
3.0
 40
3.0
 40
3.0
 40
4.0
 40
4.0
 40
4.0
 40
5.0
 40
5.0
 40
5.0
 40
6.0
 40
6.0
 40
6.0
 40
7.0
 40
7.0
 40
7.0
 40
7.0
 10
4.537909613715278
 20
4.281887478298611
 10
4.533393012152778
 20
4.187717013888888
 10
4.494025336371528
 20
4.110310872395833
 10
4.425937228732638
 20
4.045993381076388
 10
4.407029893663195
 20
4.028130425347222
 10
4.368150499131945
 20
4.011501736111111
 10
4.381842719184028
 20
3.983913845486111
 10
4.397216796875
 20
3.952962239583333
 10
4.436136881510416
 20
3.956122504340278
 10
4.469150119357638
 20
3.966986762152778
 10
4.481730143229166
 20
3.971123589409722
 10
4.495008680555555
 20
3.977918836805555
 10
4.508368598090278
 20
3.968275282118055
 10
4.400553385416666
 20
3.770968967013889
 10
4.141730414496528
 20
3.733873155381944
 10
3.974216037326389
 20
3.8974609375
 10
4.09857177734375
 20
3.908962673611111
 10
4.197869194878472
 20
3.970689561631944
 10
4.296244303385416
 20
4.033555772569445
 10
4.395277235243055
 20
4.096856011284722
 10
4.469618055555555
 20
4.184529622395833
 10
4.537909613715278
 20
4.281887478298611
 97
        0
 75
     0
 76
     1
 98
        0
  0
SPLINE
  5
4F
330
1F
100
AcDbEntity
  8
Layer 1
370
     0
100
AcDbSpline
210
0.0
220
0.0
230
1.0
 70
    11
 71
     3
 72
    23
 73
    19
 74
     0
 42
0.0000000001
 43
0.0000000001
 40
0.0
 40
0.0
 40
0.0
 40
0.0
 40
1.0
 40
1.0
 40
1.0
 40
2.0
 40
2.0
 40
2.0
 40
3.0
 40
3.0
 40
3.0
 40
4.0
 40
4.0
 40
4.0
 40
5.0
 40
5.0
 40
5.0
 40
6.0
 40
6.0
 40
6.0
 40
6.0
 10
6.472412109375
 20
4.264119466145833
 30
0.0
 10
6.476413302951388
 20
4.262166341145833
 30
0.0
 10
6.482001410590278
 20
4.261311848958333
 30
0.0
 10
6.484185112847221
 20
4.258124457465278
 30
0.0
 10
6.616536458333333
 20
4.065226236979166
 30
0.0
 10
6.791666666666666
 20
3.934285481770833
 30
0.0
 10
7.027126736111111
 20
3.889729817708333
 30
0.0
 10
6.893961588541666
 20
3.718912760416667
 30
0.0
 10
6.635240342881944
 20
3.756388346354167
 30
0.0
 10
6.488444010416666
 20
3.967013888888889
 30
0.0
 10
6.538628472222221
 20
3.962931315104167
 30
0.0
 10
6.589179144965278
 20
3.926825629340278
 30
0.0
 10
6.633138020833333
 20
3.981865776909722
 30
0.0
 10
6.556450737847221
 20
4.060438368055555
 30
0.0
 10
6.471869574652778
 20
4.138210720486111
 30
0.0
 10
6.471096462673611
 20
4.262654622395833
 30
0.0
 10
6.471096462673611
 20
4.262654622395833
 30
0.0
 10
6.472412109375
 20
4.264119466145833
 30
0.0
 10
6.472412109375
 20
4.264119466145833
 30
0.0
  0
HATCH
  5
50
330
1F
100
AcDbEntity
  8
Layer 1
 62
    12
420
 14094080
100
AcDbHatch
 10
0.0
 20
0.0
 30
0.0
210
0.0
220
0.0
230
1.0
  2
SOLID
 70
     1
 71
     0
 91
        1
 92
        1
 93
        1
 72
     4
 94
        3
 73
     0
 74
     1
 95
       23
 96
       19
 40
0.0
 40
0.0
 40
0.0
 40
0.0
 40
1.0
 40
1.0
 40
1.0
 40
2.0
 40
2.0
 40
2.0
 40
3.0
 40
3.0
 40
3.0
 40
4.0
 40
4.0
 40
4.0
 40
5.0
 40
5.0
 40
5.0
 40
6.0
 40
6.0
 40
6.0
 40
6.0
 10
6.472412109375
 20
4.264119466145833
 10
6.476413302951388
 20
4.262166341145833
 10
6.482001410590278
 20
4.261311848958333
 10
6.484185112847221
 20
4.258124457465278
 10
6.616536458333333
 20
4.065226236979166
 10
6.791666666666666
 20
3.934285481770833
 10
7.027126736111111
 20
3.889729817708333
 10
6.893961588541666
 20
3.718912760416667
 10
6.635240342881944
 20
3.756388346354167
 10
6.488444010416666
 20
3.967013888888889
 10
6.538628472222221
 20
3.962931315104167
 10
6.589179144965278
 20
3.926825629340278
 10
6.633138020833333
 20
3.981865776909722
 10
6.556450737847221
 20
4.060438368055555
 10
6.471869574652778
 20
4.138210720486111
 10
6.471096462673611
 20
4.262654622395833
 10
6.471096462673611
 20
4.262654622395833
 10
6.472412109375
 20
4.264119466145833
 10
6.472412109375
 20
4.264119466145833
 97
        0
 75
     0
 76
     1
 98
        0
  0
SPLINE
  5
51
330
1F
100
AcDbEntity
  8
Layer 1
370
     0
100
AcDbSpline
210
0.0
220
0.0
230
1.0
 70
    11
 71
     3
 72
    38
 73
    34
 74
     0
 42
0.0000000001
 43
0.0000000001
 40
0.0
 40
0.0
 40
0.0
 40
0.0
 40
1.0
 40
1.0
 40
1.0
 40
2.0
 40
2.0
 40
2.0
 40
3.0
 40
3.0
 40
3.0
 40
4.0
 40
4.0
 40
4.0
 40
5.0
 40
5.0
 40
5.0
 40
6.0
 40
6.0
 40
6.0
 40
7.0
 40
7.0
 40
7.0
 40
8.0
 40
8.0
 40
8.0
 40
9.0
 40
9.0
 40
9.0
 40
10.0
 40
10.0
 40
10.0
 40
11.0
 40
11.0
 40
11.0
 40
11.0
 10
5.130472819010416
 20
2.487141927083333
 30
0.0
 10
5.113132052951388
 20
2.363986545138889
 30
0.0
 10
5.09765625
 20
2.252224392361111
 30
0.0
 10
5.05548095703125
 20
2.146321614583333
 30
0.0
 10
5.042582194010416
 20
2.113932291666667
 30
0.0
 10
5.025193956163194
 20
2.077704535590278
 30
0.0
 10
4.983072916666666
 20
2.083509657118055
 30
0.0
 10
4.946017795138888
 20
2.088623046875
 30
0.0
 10
4.946180555555555
 20
2.127210828993055
 30
0.0
 10
4.941006130642361
 20
2.155449761284722
 30
0.0
 10
4.911688910590278
 20
2.3155517578125
 30
0.0
 10
4.929429796006944
 20
2.474433051215278
 30
0.0
 10
4.969780815972222
 20
2.629231770833333
 30
0.0
 10
5.005859375
 20
2.767578125
 30
0.0
 10
5.056301540798611
 20
2.902208116319444
 30
0.0
 10
5.100796169704861
 20
3.038343641493055
 30
0.0
 10
5.104153103298611
 20
3.048611111111111
 30
0.0
 10
5.106974283854166
 20
3.061048719618055
 30
0.0
 10
5.122592502170138
 20
3.062771267361111
 30
0.0
 10
5.135599772135416
 20
3.029405381944444
 30
0.0
 10
5.1165771484375
 20
2.999905056423611
 30
0.0
 10
5.109178331163194
 20
2.969970703125
 30
0.0
 10
5.075907389322916
 20
2.835408528645833
 30
0.0
 10
5.038906521267361
 20
2.701727973090278
 30
0.0
 10
5.019904242621528
 20
2.564046223958333
 30
0.0
 10
5.018012152777778
 20
2.550320095486111
 30
0.0
 10
5.015211317274305
 20
2.536322699652778
 30
0.0
 10
5.016181098090278
 20
2.522691514756944
 30
0.0
 10
5.018839518229166
 20
2.4852294921875
 30
0.0
 10
4.998697916666666
 20
2.433553059895833
 30
0.0
 10
5.041456434461805
 20
2.416178385416667
 30
0.0
 10
5.085828993055555
 20
2.398139105902778
 30
0.0
 10
5.087599012586805
 20
2.462944878472222
 30
0.0
 10
5.130472819010416
 20
2.487141927083333
 30
0.0
  0
HATCH
  5
52
330
1F
100
AcDbEntity
  8
Layer 1
 62
    12
420
 14094080
100
AcDbHatch
 10
0.0
 20
0.0
 30
0.0
210
0.0
220
0.0
230
1.0
  2
SOLID
 70
     1
 71
     0
 91
        1
 92
        1
 93
        1
 72
     4
 94
        3
 73
     0
 74
     1
 95
       38
 96
       34
 40
0.0
 40
0.0
 40
0.0
 40
0.0
 40
1.0
 40
1.0
 40
1.0
 40
2.0
 40
2.0
 40
2.0
 40
3.0
 40
3.0
 40
3.0
 40
4.0
 40
4.0
 40
4.0
 40
5.0
 40
5.0
 40
5.0
 40
6.0
 40
6.0
 40
6.0
 40
7.0
 40
7.0
 40
7.0
 40
8.0
 40
8.0
 40
8.0
 40
9.0
 40
9.0
 40
9.0
 40
10.0
 40
10.0
 40
10.0
 40
11.0
 40
11.0
 40
11.0
 40
11.0
 10
5.130472819010416
 20
2.487141927083333
 10
5.113132052951388
 20
2.363986545138889
 10
5.09765625
 20
2.252224392361111
 10
5.05548095703125
 20
2.146321614583333
 10
5.042582194010416
 20
2.113932291666667
 10
5.025193956163194
 20
2.077704535590278
 10
4.983072916666666
 20
2.083509657118055
 10
4.946017795138888
 20
2.088623046875
 10
4.946180555555555
 20
2.127210828993055
 10
4.941006130642361
 20
2.155449761284722
 10
4.911688910590278
 20
2.3155517578125
 10
4.929429796006944
 20
2.474433051215278
 10
4.969780815972222
 20
2.629231770833333
 10
5.005859375
 20
2.767578125
 10
5.056301540798611
 20
2.902208116319444
 10
5.100796169704861
 20
3.038343641493055
 10
5.104153103298611
 20
3.048611111111111
 10
5.106974283854166
 20
3.061048719618055
 10
5.122592502170138
 20
3.062771267361111
 10
5.135599772135416
 20
3.029405381944444
 10
5.1165771484375
 20
2.999905056423611
 10
5.109178331163194
 20
2.969970703125
 10
5.075907389322916
 20
2.835408528645833
 10
5.038906521267361
 20
2.701727973090278
 10
5.019904242621528
 20
2.564046223958333
 10
5.018012152777778
 20
2.550320095486111
 10
5.015211317274305
 20
2.536322699652778
 10
5.016181098090278
 20
2.522691514756944
 10
5.018839518229166
 20
2.4852294921875
 10
4.998697916666666
 20
2.433553059895833
 10
5.041456434461805
 20
2.416178385416667
 10
5.085828993055555
 20
2.398139105902778
 10
5.087599012586805
 20
2.462944878472222
 10
5.130472819010416
 20
2.487141927083333
 97
        0
 75
     0
 76
     1
 98
        0
  0
SPLINE
  5
53
330
1F
100
AcDbEntity
  8
Layer 1
370
     0
100
AcDbSpline
210
0.0
220
0.0
230
1.0
 70
    11
 71
     3
 72
    26
 73
    22
 74
     0
 42
0.0000000001
 43
0.0000000001
 40
0.0
 40
0.0
 40
0.0
 40
0.0
 40
1.0
 40
1.0
 40
1.0
 40
2.0
 40
2.0
 40
2.0
 40
3.0
 40
3.0
 40
3.0
 40
4.0
 40
4.0
 40
4.0
 40
5.0
 40
5.0
 40
5.0
 40
6.0
 40
6.0
 40
6.0
 40
7.0
 40
7.0
 40
7.0
 40
7.0
 10
4.694525824652778
 20
3.6527099609375
 30
0.0
 10
4.586480034722222
 20
3.546929253472222
 30
0.0
 10
4.386067708333333
 20
3.529093424479167
 30
0.0
 10
4.235555013020833
 20
3.620347764756944
 30
0.0
 10
4.437249077690972
 20
3.652886284722222
 30
0.0
 10
4.548611111111111
 20
3.78564453125
 30
0.0
 10
4.637464735243055
 20
3.949300130208333
 30
0.0
 10
4.662387424045138
 20
3.870212131076389
 30
0.0
 10
4.637871636284722
 20
3.787272135416667
 30
0.0
 10
4.56988525390625
 20
3.700412326388889
 30
0.0
 10
4.558159722222222
 20
3.6854248046875
 30
0.0
 10
4.52899169921875
 20
3.673651801215278
 30
0.0
 10
4.542188856336805
 20
3.651095920138889
 30
0.0
 10
4.555487738715278
 20
3.628363715277778
 30
0.0
 10
4.58392333984375
 20
3.639879014756944
 30
0.0
 10
4.606133355034722
 20
3.641181098090278
 30
0.0
 10
4.635640462239583
 20
3.642903645833333
 30
0.0
 10
4.662794325086805
 20
3.662190755208333
 30
0.0
 10
4.693854437934028
 20
3.653279622395833
 30
0.0
 10
4.693854437934028
 20
3.653279622395833
 30
0.0
 10
4.694525824652778
 20
3.6527099609375
 30
0.0
 10
4.694525824652778
 20
3.6527099609375
 30
0.0
  0
HATCH
  5
54
330
1F
100
AcDbEntity
  8
Layer 1
 62
    12
420
 14094080
100
AcDbHatch
 10
0.0
 20
0.0
 30
0.0
210
0.0
220
0.0
230
1.0
  2
SOLID
 70
     1
 71
     0
 91
        1
 92
        1
 93
        1
 72
     4
 94
        3
 73
     0
 74
     1
 95
       26
 96
       22
 40
0.0
 40
0.0
 40
0.0
 40
0.0
 40
1.0
 40
1.0
 40
1.0
 40
2.0
 40
2.0
 40
2.0
 40
3.0
 40
3.0
 40
3.0
 40
4.0
 40
4.0
 40
4.0
 40
5.0
 40
5.0
 40
5.0
 40
6.0
 40
6.0
 40
6.0
 40
7.0
 40
7.0
 40
7.0
 40
7.0
 10
4.694525824652778
 20
3.6527099609375
 10
4.586480034722222
 20
3.546929253472222
 10
4.386067708333333
 20
3.529093424479167
 10
4.235555013020833
 20
3.620347764756944
 10
4.437249077690972
 20
3.652886284722222
 10
4.548611111111111
 20
3.78564453125
 10
4.637464735243055
 20
3.949300130208333
 10
4.662387424045138
 20
3.870212131076389
 10
4.637871636284722
 20
3.787272135416667
 10
4.56988525390625
 20
3.700412326388889
 10
4.558159722222222
 20
3.6854248046875
 10
4.52899169921875
 20
3.673651801215278
 10
4.542188856336805
 20
3.651095920138889
 10
4.555487738715278
 20
3.628363715277778
 10
4.58392333984375
 20
3.639879014756944
 10
4.606133355034722
 20
3.641181098090278
 10
4.635640462239583
 20
3.642903645833333
 10
4.662794325086805
 20
3.662190755208333
 10
4.693854437934028
 20
3.653279622395833
 10
4.693854437934028
 20
3.653279622395833
 10
4.694525824652778
 20
3.6527099609375
 10
4.694525824652778
 20
3.6527099609375
 97
        0
 75
     0
 76
     1
 98
        0
  0
SPLINE
  5
55
330
1F
100
AcDbEntity
  8
Layer 1
370
     0
100
AcDbSpline
210
0.0
220
0.0
230
1.0
 70
    11
 71
     3
 72
    23
 73
    19
 74
     0
 42
0.0000000001
 43
0.0000000001
 40
0.0
 40
0.0
 40
0.0
 40
0.0
 40
1.0
 40
1.0
 40
1.0
 40
2.0
 40
2.0
 40
2.0
 40
3.0
 40
3.0
 40
3.0
 40
4.0
 40
4.0
 40
4.0
 40
5.0
 40
5.0
 40
5.0
 40
6.0
 40
6.0
 40
6.0
 40
6.0
 10
6.326551649305555
 20
3.634955512152778
 30
0.0
 10
6.366224500868055
 20
3.64599609375
 30
0.0
 10
6.396267361111111
 20
3.625217013888889
 30
0.0
 10
6.428412543402778
 20
3.627143012152778
 30
0.0
 10
6.443684895833333
 20
3.6280517578125
 30
0.0
 10
6.463216145833333
 20
3.620836046006944
 30
0.0
 10
6.471815321180555
 20
3.639255099826389
 30
0.0
 10
6.480929904513888
 20
3.658786349826389
 30
0.0
 10
6.462158203125
 20
3.666910807291667
 30
0.0
 10
6.450900607638888
 20
3.677490234375
 30
0.0
 10
6.376817491319444
 20
3.747083875868055
 30
0.0
 10
6.365559895833333
 20
3.837673611111111
 30
0.0
 10
6.365017361111111
 20
3.934719509548611
 30
0.0
 10
6.4544677734375
 20
3.771687825520833
 30
0.0
 10
6.572835286458333
 20
3.64697265625
 30
0.0
 10
6.767917209201388
 20
3.609429253472222
 30
0.0
 10
6.632351345486111
 20
3.522257486979167
 30
0.0
 10
6.432752821180555
 20
3.534884982638889
 30
0.0
 10
6.326551649305555
 20
3.634955512152778
 30
0.0
  0
HATCH
  5
56
330
1F
100
AcDbEntity
  8
Layer 1
 62
    12
420
 14094080
100
AcDbHatch
 10
0.0
 20
0.0
 30
0.0
210
0.0
220
0.0
230
1.0
  2
SOLID
 70
     1
 71
     0
 91
        1
 92
        1
 93
        1
 72
     4
 94
        3
 73
     0
 74
     1
 95
       23
 96
       19
 40
0.0
 40
0.0
 40
0.0
 40
0.0
 40
1.0
 40
1.0
 40
1.0
 40
2.0
 40
2.0
 40
2.0
 40
3.0
 40
3.0
 40
3.0
 40
4.0
 40
4.0
 40
4.0
 40
5.0
 40
5.0
 40
5.0
 40
6.0
 40
6.0
 40
6.0
 40
6.0
 10
6.326551649305555
 20
3.634955512152778
 10
6.366224500868055
 20
3.64599609375
 10
6.396267361111111
 20
3.625217013888889
 10
6.428412543402778
 20
3.627143012152778
 10
6.443684895833333
 20
3.6280517578125
 10
6.463216145833333
 20
3.620836046006944
 10
6.471815321180555
 20
3.639255099826389
 10
6.480929904513888
 20
3.658786349826389
 10
6.462158203125
 20
3.666910807291667
 10
6.450900607638888
 20
3.677490234375
 10
6.376817491319444
 20
3.747083875868055
 10
6.365559895833333
 20
3.837673611111111
 10
6.365017361111111
 20
3.934719509548611
 10
6.4544677734375
 20
3.771687825520833
 10
6.572835286458333
 20
3.64697265625
 10
6.767917209201388
 20
3.609429253472222
 10
6.632351345486111
 20
3.522257486979167
 10
6.432752821180555
 20
3.534884982638889
 10
6.326551649305555
 20
3.634955512152778
 97
        0
 75
     0
 76
     1
 98
        0
  0
SPLINE
  5
57
330
1F
100
AcDbEntity
  8
Layer 1
370
     0
100
AcDbSpline
210
0.0
220
0.0
230
1.0
 70
    11
 71
     3
 72
    11
 73
     7
 74
     0
 42
0.0000000001
 43
0.0000000001
 40
0.0
 40
0.0
 40
0.0
 40
0.0
 40
1.0
 40
1.0
 40
1.0
 40
2.0
 40
2.0
 40
2.0
 40
2.0
 10
5.836330837673611
 20
5.405205620659722
 30
0.0
 10
5.699856228298611
 20
5.379408094618055
 30
0.0
 10
5.530788845486111
 20
5.524820963541666
 30
0.0
 10
5.514960394965278
 20
5.693033854166666
 30
0.0
 10
5.604085286458333
 20
5.559299045138888
 30
0.0
 10
5.706353081597222
 20
5.466756184895833
 30
0.0
 10
5.836330837673611
 20
5.405205620659722
 30
0.0
  0
HATCH
  5
58
330
1F
100
AcDbEntity
  8
Layer 1
 62
    12
420
 14094080
100
AcDbHatch
 10
0.0
 20
0.0
 30
0.0
210
0.0
220
0.0
230
1.0
  2
SOLID
 70
     1
 71
     0
 91
        1
 92
        1
 93
        1
 72
     4
 94
        3
 73
     0
 74
     1
 95
       11
 96
        7
 40
0.0
 40
0.0
 40
0.0
 40
0.0
 40
1.0
 40
1.0
 40
1.0
 40
2.0
 40
2.0
 40
2.0
 40
2.0
 10
5.836330837673611
 20
5.405205620659722
 10
5.699856228298611
 20
5.379408094618055
 10
5.530788845486111
 20
5.524820963541666
 10
5.514960394965278
 20
5.693033854166666
 10
5.604085286458333
 20
5.559299045138888
 10
5.706353081597222
 20
5.466756184895833
 10
5.836330837673611
 20
5.405205620659722
 97
        0
 75
     0
 76
     1
 98
        0
  0
SPLINE
  5
59
330
1F
100
AcDbEntity
  8
Layer 1
370
     0
100
AcDbSpline
210
0.0
220
0.0
230
1.0
 70
    11
 71
     3
 72
    14
 73
    10
 74
     0
 42
0.0000000001
 43
0.0000000001
 40
0.0
 40
0.0
 40
0.0
 40
0.0
 40
1.0
 40
1.0
 40
1.0
 40
2.0
 40
2.0
 40
2.0
 40
3.0
 40
3.0
 40
3.0
 40
3.0
 10
6.622422960069444
 20
5.011474609375
 30
0.0
 10
6.620008680555555
 20
5.014689127604166
 30
0.0
 10
6.617594401041666
 20
5.017903645833333
 30
0.0
 10
6.615180121527778
 20
5.0211181640625
 30
0.0
 10
6.620713975694444
 20
5.021348741319444
 30
0.0
 10
6.626247829861111
 20
5.021565755208333
 30
0.0
 10
6.631795247395833
 20
5.021823459201388
 30
0.0
 10
6.628675672743055
 20
5.018391927083333
 30
0.0
 10
6.625542534722221
 20
5.014933268229166
 30
0.0
 10
6.622422960069444
 20
5.011474609375
 30
0.0
  0
HATCH
  5
5A
330
1F
100
AcDbEntity
  8
Layer 1
 62
    12
420
 14094080
100
AcDbHatch
 10
0.0
 20
0.0
 30
0.0
210
0.0
220
0.0
230
1.0
  2
SOLID
 70
     1
 71
     0
 91
        1
 92
        1
 93
        1
 72
     4
 94
        3
 73
     0
 74
     1
 95
       14
 96
       10
 40
0.0
 40
0.0
 40
0.0
 40
0.0
 40
1.0
 40
1.0
 40
1.0
 40
2.0
 40
2.0
 40
2.0
 40
3.0
 40
3.0
 40
3.0
 40
3.0
 10
6.622422960069444
 20
5.011474609375
 10
6.620008680555555
 20
5.014689127604166
 10
6.617594401041666
 20
5.017903645833333
 10
6.615180121527778
 20
5.0211181640625
 10
6.620713975694444
 20
5.021348741319444
 10
6.626247829861111
 20
5.021565755208333
 10
6.631795247395833
 20
5.021823459201388
 10
6.628675672743055
 20
5.018391927083333
 10
6.625542534722221
 20
5.014933268229166
 10
6.622422960069444
 20
5.011474609375
 97
        0
 75
     0
 76
     1
 98
        0
  0
SPLINE
  5
5B
330
1F
100
AcDbEntity
  8
Layer 1
370
     0
100
AcDbSpline
210
0.0
220
0.0
230
1.0
 70
    11
 71
     3
 72
    14
 73
    10
 74
     0
 42
0.0000000001
 43
0.0000000001
 40
0.0
 40
0.0
 40
0.0
 40
0.0
 40
1.0
 40
1.0
 40
1.0
 40
2.0
 40
2.0
 40
2.0
 40
3.0
 40
3.0
 40
3.0
 40
3.0
 10
6.583957248263888
 20
4.625149197048611
 30
0.0
 10
6.583957248263888
 20
4.625149197048611
 30
0.0
 10
6.580837673611111
 20
4.628092447916666
 30
0.0
 10
6.580837673611111
 20
4.628092447916666
 30
0.0
 10
6.580837673611111
 20
4.628092447916666
 30
0.0
 10
6.582845052083333
 20
4.624131944444444
 30
0.0
 10
6.582845052083333
 20
4.624131944444444
 30
0.0
 10
6.582831488715278
 20
4.624131944444444
 30
0.0
 10
6.583957248263888
 20
4.625149197048611
 30
0.0
 10
6.583957248263888
 20
4.625149197048611
 30
0.0
  0
HATCH
  5
5C
330
1F
100
AcDbEntity
  8
Layer 1
 62
    12
420
 14094080
100
AcDbHatch
 10
0.0
 20
0.0
 30
0.0
210
0.0
220
0.0
230
1.0
  2
SOLID
 70
     1
 71
     0
 91
        1
 92
        1
 93
        1
 72
     4
 94
        3
 73
     0
 74
     1
 95
       14
 96
       10
 40
0.0
 40
0.0
 40
0.0
 40
0.0
 40
1.0
 40
1.0
 40
1.0
 40
2.0
 40
2.0
 40
2.0
 40
3.0
 40
3.0
 40
3.0
 40
3.0
 10
6.583957248263888
 20
4.625149197048611
 10
6.583957248263888
 20
4.625149197048611
 10
6.580837673611111
 20
4.628092447916666
 10
6.580837673611111
 20
4.628092447916666
 10
6.580837673611111
 20
4.628092447916666
 10
6.582845052083333
 20
4.624131944444444
 10
6.582845052083333
 20
4.624131944444444
 10
6.582831488715278
 20
4.624131944444444
 10
6.583957248263888
 20
4.625149197048611
 10
6.583957248263888
 20
4.625149197048611
 97
        0
 75
     0
 76
     1
 98
        0
  0
SPLINE
  5
5D
330
1F
100
AcDbEntity
  8
Layer 1
370
     0
100
AcDbSpline
210
0.0
220
0.0
230
1.0
 70
    11
 71
     3
 72
    17
 73
    13
 74
     0
 42
0.0000000001
 43
0.0000000001
 40
0.0
 40
0.0
 40
0.0
 40
0.0
 40
1.0
 40
1.0
 40
1.0
 40
2.0
 40
2.0
 40
2.0
 40
3.0
 40
3.0
 40
3.0
 40
4.0
 40
4.0
 40
4.0
 40
4.0
 10
6.471096462673611
 20
4.262654622395833
 30
0.0
 10
6.468478732638888
 20
4.264404296875
 30
0.0
 10
6.465766059027778
 20
4.266059027777778
 30
0.0
 10
6.46337890625
 20
4.268079969618055
 30
0.0
 10
6.463202582465278
 20
4.268229166666666
 30
0.0
 10
6.465277777777778
 20
4.271036783854166
 30
0.0
 10
6.46630859375
 20
4.272610134548611
 30
0.0
 10
6.468343098958333
 20
4.269775390625
 30
0.0
 10
6.470377604166666
 20
4.266940646701388
 30
0.0
 10
6.472412109375
 20
4.264119466145833
 30
0.0
 10
6.472412109375
 20
4.264119466145833
 30
0.0
 10
6.471096462673611
 20
4.262654622395833
 30
0.0
 10
6.471096462673611
 20
4.262654622395833
 30
0.0
  0
HATCH
  5
5E
330
1F
100
AcDbEntity
  8
Layer 1
 62
    12
420
 14094080
100
AcDbHatch
 10
0.0
 20
0.0
 30
0.0
210
0.0
220
0.0
230
1.0
  2
SOLID
 70
     1
 71
     0
 91
        1
 92
        1
 93
        1
 72
     4
 94
        3
 73
     0
 74
     1
 95
       17
 96
       13
 40
0.0
 40
0.0
 40
0.0
 40
0.0
 40
1.0
 40
1.0
 40
1.0
 40
2.0
 40
2.0
 40
2.0
 40
3.0
 40
3.0
 40
3.0
 40
4.0
 40
4.0
 40
4.0
 40
4.0
 10
6.471096462673611
 20
4.262654622395833
 10
6.468478732638888
 20
4.264404296875
 10
6.465766059027778
 20
4.266059027777778
 10
6.46337890625
 20
4.268079969618055
 10
6.463202582465278
 20
4.268229166666666
 10
6.465277777777778
 20
4.271036783854166
 10
6.46630859375
 20
4.272610134548611
 10
6.468343098958333
 20
4.269775390625
 10
6.470377604166666
 20
4.266940646701388
 10
6.472412109375
 20
4.264119466145833
 10
6.472412109375
 20
4.264119466145833
 10
6.471096462673611
 20
4.262654622395833
 10
6.471096462673611
 20
4.262654622395833
 97
        0
 75
     0
 76
     1
 98
        0
  0
SPLINE
  5
5F
330
1F
100
AcDbEntity
  8
Layer 1
370
     0
100
AcDbSpline
210
0.0
220
0.0
230
1.0
 70
    11
 71
     3
 72
    17
 73
    13
 74
     0
 42
0.0000000001
 43
0.0000000001
 40
0.0
 40
0.0
 40
0.0
 40
0.0
 40
1.0
 40
1.0
 40
1.0
 40
2.0
 40
2.0
 40
2.0
 40
3.0
 40
3.0
 40
3.0
 40
4.0
 40
4.0
 40
4.0
 40
4.0
 10
4.693854437934028
 20
3.653279622395833
 30
0.0
 10
4.695285373263888
 20
3.65625
 30
0.0
 10
4.696723090277778
 20
3.659206814236111
 30
0.0
 10
4.698160807291666
 20
3.662177191840278
 30
0.0
 10
4.699991861979166
 20
3.6612548828125
 30
0.0
 10
4.701822916666666
 20
3.660332573784722
 30
0.0
 10
4.703653971354166
 20
3.659410264756944
 30
0.0
 10
4.700615776909722
 20
3.657185872395833
 30
0.0
 10
4.697564019097222
 20
3.654947916666667
 30
0.0
 10
4.694525824652778
 20
3.6527099609375
 30
0.0
 10
4.694525824652778
 20
3.6527099609375
 30
0.0
 10
4.693854437934028
 20
3.653279622395833
 30
0.0
 10
4.693854437934028
 20
3.653279622395833
 30
0.0
  0
HATCH
  5
60
330
1F
100
AcDbEntity
  8
Layer 1
 62
    12
420
 14094080
100
AcDbHatch
 10
0.0
 20
0.0
 30
0.0
210
0.0
220
0.0
230
1.0
  2
SOLID
 70
     1
 71
     0
 91
        1
 92
        1
 93
        1
 72
     4
 94
        3
 73
     0
 74
     1
 95
       17
 96
       13
 40
0.0
 40
0.0
 40
0.0
 40
0.0
 40
1.0
 40
1.0
 40
1.0
 40
2.0
 40
2.0
 40
2.0
 40
3.0
 40
3.0
 40
3.0
 40
4.0
 40
4.0
 40
4.0
 40
4.0
 10
4.693854437934028
 20
3.653279622395833
 10
4.695285373263888
 20
3.65625
 10
4.696723090277778
 20
3.659206814236111
 10
4.698160807291666
 20
3.662177191840278
 10
4.699991861979166
 20
3.6612548828125
 10
4.701822916666666
 20
3.660332573784722
 10
4.703653971354166
 20
3.659410264756944
 10
4.700615776909722
 20
3.657185872395833
 10
4.697564019097222
 20
3.654947916666667
 10
4.694525824652778
 20
3.6527099609375
 10
4.694525824652778
 20
3.6527099609375
 10
4.693854437934028
 20
3.653279622395833
 10
4.693854437934028
 20
3.653279622395833
 97
        0
 75
     0
 76
     1
 98
        0
  0
SPLINE
  5
61
330
1F
100
AcDbEntity
  8
Layer 1
370
     0
100
AcDbSpline
210
0.0
220
0.0
230
1.0
 70
    11
 71
     3
 72
    17
 73
    13
 74
     0
 42
0.0000000001
 43
0.0000000001
 40
0.0
 40
0.0
 40
0.0
 40
0.0
 40
1.0
 40
1.0
 40
1.0
 40
2.0
 40
2.0
 40
2.0
 40
3.0
 40
3.0
 40
3.0
 40
4.0
 40
4.0
 40
4.0
 40
4.0
 10
4.597330729166666
 20
3.388753255208333
 30
0.0
 10
4.594841851128472
 20
3.3868408203125
 30
0.0
 10
4.592352973090278
 20
3.384928385416667
 30
0.0
 10
4.589857313368055
 20
3.383015950520833
 30
0.0
 10
4.589898003472222
 20
3.384833441840278
 30
0.0
 10
4.589931911892361
 20
3.386637369791667
 30
0.0
 10
4.5899658203125
 20
3.388441297743055
 30
0.0
 10
4.592753092447916
 20
3.387953016493055
 30
0.0
 10
4.595540364583333
 20
3.387478298611111
 30
0.0
 10
4.598341200086805
 20
3.386949327256944
 30
0.0
 10
4.598354763454861
 20
3.386895073784722
 30
0.0
 10
4.597330729166666
 20
3.388753255208333
 30
0.0
 10
4.597330729166666
 20
3.388753255208333
 30
0.0
  0
HATCH
  5
62
330
1F
100
AcDbEntity
  8
Layer 1
 62
    53
420
 16238398
100
AcDbHatch
 10
0.0
 20
0.0
 30
0.0
210
0.0
220
0.0
230
1.0
  2
SOLID
 70
     1
 71
     0
 91
        1
 92
        1
 93
        1
 72
     4
 94
        3
 73
     0
 74
     1
 95
       17
 96
       13
 40
0.0
 40
0.0
 40
0.0
 40
0.0
 40
1.0
 40
1.0
 40
1.0
 40
2.0
 40
2.0
 40
2.0
 40
3.0
 40
3.0
 40
3.0
 40
4.0
 40
4.0
 40
4.0
 40
4.0
 10
4.597330729166666
 20
3.388753255208333
 10
4.594841851128472
 20
3.3868408203125
 10
4.592352973090278
 20
3.384928385416667
 10
4.589857313368055
 20
3.383015950520833
 10
4.589898003472222
 20
3.384833441840278
 10
4.589931911892361
 20
3.386637369791667
 10
4.5899658203125
 20
3.388441297743055
 10
4.592753092447916
 20
3.387953016493055
 10
4.595540364583333
 20
3.387478298611111
 10
4.598341200086805
 20
3.386949327256944
 10
4.598354763454861
 20
3.386895073784722
 10
4.597330729166666
 20
3.388753255208333
 10
4.597330729166666
 20
3.388753255208333
 97
        0
 75
     0
 76
     1
 98
        0
  0
ENDSEC
  0
SECTION
  2
OBJECTS
  0
DICTIONARY
  5
C
330
0
100
AcDbDictionary
281
     1
  3
ACAD_GROUP
350
D
  3
ACAD_LAYOUT
350
1A
  3
ACAD_MLINESTYLE
350
17
  3
ACAD_PLOTSETTINGS
350
19
  3
ACAD_PLOTSTYLENAME
350
E
  3
ACAD_TABLESTYLE
350
63
  3
ACAD_VISUALSTYLE
350
2A
  0
DICTIONARY
  5
D
102
{ACAD_REACTORS
330
C
102
}
330
C
100
AcDbDictionary
281
     1
  0
DICTIONARY
  5
1A
102
{ACAD_REACTORS
330
C
102
}
330
C
100
AcDbDictionary
281
     1
  3
Layout1
350
1E
  3
Layout2
350
26
  3
Model
350
22
  0
DICTIONARY
  5
17
102
{ACAD_REACTORS
330
C
102
}
330
C
100
AcDbDictionary
281
     1
  3
Standard
350
18
  0
DICTIONARY
  5
19
102
{ACAD_REACTORS
330
C
102
}
330
C
100
AcDbDictionary
281
     1
  0
ACDBDICTIONARYWDFLT
  5
E
102
{ACAD_REACTORS
330
C
102
}
330
C
100
AcDbDictionary
281
     1
  3
Normal
350
F
100
AcDbDictionaryWithDefault
340
F
  0
DICTIONARY
  5
63
102
{ACAD_REACTORS
330
C
102
}
330
C
100
AcDbDictionary
281
     1
  0
DICTIONARY
  5
2A
102
{ACAD_REACTORS
330
C
102
}
330
C
100
AcDbDictionary
281
     1
  3
2dWireframe
350
2F
  3
3D Hidden
350
31
  3
3dWireframe
350
30
  3
Basic
350
32
  3
Brighten
350
36
  3
ColorChange
350
3A
  3
Conceptual
350
34
  3
Dim
350
35
  3
Facepattern
350
39
  3
Flat
350
2B
  3
FlatWithEdges
350
2C
  3
Gouraud
350
2D
  3
GouraudWithEdges
350
2E
  3
Linepattern
350
38
  3
Realistic
350
33
  3
Thicken
350
37
  0
LAYOUT
  5
1E
102
{ACAD_REACTORS
330
1A
102
}
330
1A
100
AcDbPlotSettings
  1

  2
none_device
  4

  6

 40
0.0
 41
0.0
 42
0.0
 43
0.0
 44
0.0
 45
0.0
 46
0.0
 47
0.0
 48
0.0
 49
0.0
140
0.0
141
0.0
142
1.0
143
1.0
 70
   688
 72
     0
 73
     0
 74
     5
  7

 75
    16
 76
     0
 77
     2
 78
   300
147
1.0
148
0.0
149
0.0
100
AcDbLayout
  1
Layout1
 70
     1
 71
     1
 10
0.0
 20
0.0
 11
12.0
 21
9.0
 12
0.0
 22
0.0
 32
0.0
 14
1.000000000000000E+20
 24
1.000000000000000E+20
 34
1.000000000000000E+20
 15
-1.000000000000000E+20
 25
-1.000000000000000E+20
 35
-1.000000000000000E+20
146
0.0
 13
0.0
 23
0.0
 33
0.0
 16
1.0
 26
0.0
 36
0.0
 17
0.0
 27
1.0
 37
0.0
 76
     0
330
1B
  0
LAYOUT
  5
26
102
{ACAD_REACTORS
330
1A
102
}
330
1A
100
AcDbPlotSettings
  1

  2
none_device
  4

  6

 40
0.0
 41
0.0
 42
0.0
 43
0.0
 44
0.0
 45
0.0
 46
0.0
 47
0.0
 48
0.0
 49
0.0
140
0.0
141
0.0
142
1.0
143
1.0
 70
   688
 72
     0
 73
     0
 74
     5
  7

 75
    16
 76
     0
 77
     2
 78
   300
147
1.0
148
0.0
149
0.0
100
AcDbLayout
  1
Layout2
 70
     1
 71
     2
 10
0.0
 20
0.0
 11
0.0
 21
0.0
 12
0.0
 22
0.0
 32
0.0
 14
0.0
 24
0.0
 34
0.0
 15
0.0
 25
0.0
 35
0.0
146
0.0
 13
0.0
 23
0.0
 33
0.0
 16
1.0
 26
0.0
 36
0.0
 17
0.0
 27
1.0
 37
0.0
 76
     0
330
23
  0
LAYOUT
  5
22
102
{ACAD_REACTORS
330
1A
102
}
330
1A
100
AcDbPlotSettings
  1

  2
none_device
  4

  6

 40
0.0
 41
0.0
 42
0.0
 43
0.0
 44
0.0
 45
0.0
 46
0.0
 47
0.0
 48
0.0
 49
0.0
140
0.0
141
0.0
142
1.0
143
1.0
 70
  1712
 72
     0
 73
     0
 74
     0
  7

 75
     0
 76
     0
 77
     2
 78
   300
147
1.0
148
0.0
149
0.0
100
AcDbLayout
  1
Model
 70
     1
 71
     0
 10
0.0
 20
0.0
 11
12.0
 21
9.0
 12
0.0
 22
0.0
 32
0.0
 14
1.000000000000000E+20
 24
1.000000000000000E+20
 34
1.000000000000000E+20
 15
-1.000000000000000E+20
 25
-1.000000000000000E+20
 35
-1.000000000000000E+20
146
0.0
 13
0.0
 23
0.0
 33
0.0
 16
1.0
 26
0.0
 36
0.0
 17
0.0
 27
1.0
 37
0.0
 76
     0
330
1F
331
29
  0
MLINESTYLE
  5
18
102
{ACAD_REACTORS
330
17
102
}
330
17
100
AcDbMlineStyle
  2
Standard
 70
     0
  3

 62
   256
 51
90.0
 52
90.0
 71
     2
 49
0.5
 62
   256
  6
BYLAYER
 49
-0.5
 62
   256
  6
BYLAYER
  0
ACDBPLACEHOLDER
  5
F
102
{ACAD_REACTORS
330
E
102
}
330
E
  0
VISUALSTYLE
  5
2F
102
{ACAD_REACTORS
330
2A
102
}
330
2A
100
AcDbVisualStyle
  2
2dWireframe
 70
     4
 71
     0
 72
     2
 73
     0
 90
        0
 40
-0.6
 41
-30.0
 62
     5
 63
     7
421
 16777215
 74
     1
 91
        4
 64
     7
 65
   257
 75
     1
175
     1
 42
1.0
 92
        0
 66
   257
 43
1.0
 76
     1
 77
     6
 78
     2
 67
     7
 79
     5
170
     0
171
     0
290
     0
174
     0
 93
        1
 44
0.0
173
     0
291
     0
 45
0.0
1001
ACAD
1000
AcDbSavedByObjectVersion
1070
     0
  0
VISUALSTYLE
  5
31
102
{ACAD_REACTORS
330
2A
102
}
330
2A
100
AcDbVisualStyle
  2
3D Hidden
 70
     6
 71
     1
 72
     2
 73
     2
 90
        0
 40
-0.6
 41
-30.0
 62
     5
 63
     7
421
 16777215
 74
     2
 91
        2
 64
     7
 65
   257
 75
     2
175
     1
 42
40.0
 92
        0
 66
   257
 43
1.0
 76
     1
 77
     6
 78
     2
 67
     7
 79
     3
170
     0
171
     0
290
     0
174
     0
 93
        1
 44
0.0
173
     0
291
     0
 45
0.0
1001
ACAD
1000
AcDbSavedByObjectVersion
1070
     0
  0
VISUALSTYLE
  5
30
102
{ACAD_REACTORS
330
2A
102
}
330
2A
100
AcDbVisualStyle
  2
3dWireframe
 70
     5
 71
     0
 72
     2
 73
     0
 90
        0
 40
-0.6
 41
-30.0
 62
     5
 63
     7
421
 16777215
 74
     1
 91
        4
 64
     7
 65
   257
 75
     1
175
     1
 42
1.0
 92
        0
 66
   257
 43
1.0
 76
     1
 77
     6
 78
     2
 67
     7
 79
     5
170
     0
171
     0
290
     0
174
     0
 93
        1
 44
0.0
173
     0
291
     0
 45
0.0
1001
ACAD
1000
AcDbSavedByObjectVersion
1070
     0
  0
VISUALSTYLE
  5
32
102
{ACAD_REACTORS
330
2A
102
}
330
2A
100
AcDbVisualStyle
  2
Basic
 70
     7
 71
     1
 72
     0
 73
     1
 90
        0
 40
-0.6
 41
-30.0
 62
     5
 63
     7
421
 16777215
 74
     0
 91
        4
 64
     7
 65
   257
 75
     1
175
     1
 42
1.0
 92
        8
 66
     7
 43
1.0
 76
     1
 77
     6
 78
     2
 67
     7
 79
     5
170
     0
171
     0
290
     0
174
     0
 93
        1
 44
0.0
173
     0
291
     1
 45
0.0
1001
ACAD
1000
AcDbSavedByObjectVersion
1070
     0
  0
VISUALSTYLE
  5
36
102
{ACAD_REACTORS
330
2A
102
}
330
2A
100
AcDbVisualStyle
  2
Brighten
 70
    12
 71
     2
 72
     2
 73
     0
 90
        0
 40
-0.6
 41
-30.0
 62
     5
 63
     7
421
 16777215
 74
     1
 91
        4
 64
     7
 65
   257
 75
     1
175
     1
 42
1.0
 92
        8
 66
     7
 43
1.0
 76
     1
 77
     6
 78
     2
 67
     7
 79
     5
170
     0
171
     0
290
     0
174
     0
 93
        1
 44
50.0
173
     0
291
     1
 45
0.0
1001
ACAD
1000
AcDbSavedByObjectVersion
1070
     0
  0
VISUALSTYLE
  5
3A
102
{ACAD_REACTORS
330
2A
102
}
330
2A
100
AcDbVisualStyle
  2
ColorChange
 70
    16
 71
     2
 72
     2
 73
     3
 90
        0
 40
-0.6
 41
-30.0
 62
     5
 63
     8
421
  8421504
 74
     1
 91
        4
 64
     7
 65
   257
 75
     1
175
     1
 42
1.0
 92
        8
 66
     8
424
  8421504
 43
1.0
 76
     1
 77
     6
 78
     2
 67
     7
 79
     5
170
     0
171
     0
290
     0
174
     0
 93
        1
 44
0.0
173
     0
291
     1
 45
0.0
1001
ACAD
1000
AcDbSavedByObjectVersion
1070
     0
  0
VISUALSTYLE
  5
34
102
{ACAD_REACTORS
330
2A
102
}
330
2A
100
AcDbVisualStyle
  2
Conceptual
 70
     9
 71
     3
 72
     2
 73
     0
 90
        0
 40
-0.6
 41
-30.0
 62
     5
 63
     7
421
 16777215
 74
     2
 91
        2
 64
     7
 65
   257
 75
     1
175
     1
 42
40.0
 92
        8
 66
     7
 43
1.0
 76
     1
 77
     6
 78
     2
 67
     7
 79
     3
170
     0
171
     0
290
     0
174
     0
 93
        1
 44
0.0
173
     0
291
     0
 45
0.0
1001
ACAD
1000
AcDbSavedByObjectVersion
1070
     0
  0
VISUALSTYLE
  5
35
102
{ACAD_REACTORS
330
2A
102
}
330
2A
100
AcDbVisualStyle
  2
Dim
 70
    11
 71
     2
 72
     2
 73
     0
 90
        0
 40
-0.6
 41
-30.0
 62
     5
 63
     7
421
 16777215
 74
     1
 91
        4
 64
     7
 65
   257
 75
     1
175
     1
 42
1.0
 92
        8
 66
     7
 43
1.0
 76
     1
 77
     6
 78
     2
 67
     7
 79
     5
170
     0
171
     0
290
     0
174
     0
 93
        1
 44
-50.0
173
     0
291
     1
 45
0.0
1001
ACAD
1000
AcDbSavedByObjectVersion
1070
     0
  0
VISUALSTYLE
  5
39
102
{ACAD_REACTORS
330
2A
102
}
330
2A
100
AcDbVisualStyle
  2
Facepattern
 70
    15
 71
     2
 72
     2
 73
     0
 90
        0
 40
-0.6
 41
-30.0
 62
     5
 63
     7
421
 16777215
 74
     1
 91
        4
 64
     7
 65
   257
 75
     1
175
     1
 42
1.0
 92
        8
 66
     7
 43
1.0
 76
     1
 77
     6
 78
     2
 67
     7
 79
     5
170
     0
171
     0
290
     0
174
     0
 93
        1
 44
0.0
173
     0
291
     1
 45
0.0
1001
ACAD
1000
AcDbSavedByObjectVersion
1070
     0
  0
VISUALSTYLE
  5
2B
102
{ACAD_REACTORS
330
2A
102
}
330
2A
100
AcDbVisualStyle
  2
Flat
 70
     0
 71
     2
 72
     1
 73
     1
 90
        2
 40
-0.6
 41
30.0
 62
     5
 63
     7
421
 16777215
 74
     0
 91
        4
 64
     7
 65
   257
 75
     1
175
     1
 42
1.0
 92
        8
 66
     7
 43
1.0
 76
     1
 77
     6
 78
     2
 67
     7
 79
     5
170
     0
171
     0
290
     0
174
     0
 93
       13
 44
0.0
173
     0
291
     1
 45
0.0
1001
ACAD
1000
AcDbSavedByObjectVersion
1070
     0
  0
VISUALSTYLE
  5
2C
102
{ACAD_REACTORS
330
2A
102
}
330
2A
100
AcDbVisualStyle
  2
FlatWithEdges
 70
     1
 71
     2
 72
     1
 73
     1
 90
        2
 40
-0.6
 41
30.0
 62
     5
 63
     7
421
 16777215
 74
     1
 91
        4
 64
     7
 65
   257
 75
     1
175
     1
 42
1.0
 92
        0
 66
   257
 43
1.0
 76
     1
 77
     6
 78
     2
 67
     7
 79
     5
170
     0
171
     0
290
     0
174
     0
 93
       13
 44
0.0
173
     0
291
     1
 45
0.0
1001
ACAD
1000
AcDbSavedByObjectVersion
1070
     0
  0
VISUALSTYLE
  5
2D
102
{ACAD_REACTORS
330
2A
102
}
330
2A
100
AcDbVisualStyle
  2
Gouraud
 70
     2
 71
     2
 72
     2
 73
     1
 90
        2
 40
-0.6
 41
30.0
 62
     5
 63
     7
421
 16777215
 74
     0
 91
        4
 64
     7
 65
   257
 75
     1
175
     1
 42
1.0
 92
        0
 66
     7
 43
1.0
 76
     1
 77
     6
 78
     2
 67
     7
 79
     5
170
     0
171
     0
290
     0
174
     0
 93
       13
 44
0.0
173
     0
291
     1
 45
0.0
1001
ACAD
1000
AcDbSavedByObjectVersion
1070
     0
  0
VISUALSTYLE
  5
2E
102
{ACAD_REACTORS
330
2A
102
}
330
2A
100
AcDbVisualStyle
  2
GouraudWithEdges
 70
     3
 71
     2
 72
     2
 73
     1
 90
        2
 40
-0.6
 41
30.0
 62
     5
 63
     7
421
 16777215
 74
     1
 91
        4
 64
     7
 65
   257
 75
     1
175
     1
 42
1.0
 92
        0
 66
   257
 43
1.0
 76
     1
 77
     6
 78
     2
 67
     7
 79
     5
170
     0
171
     0
290
     0
174
     0
 93
       13
 44
0.0
173
     0
291
     1
 45
0.0
1001
ACAD
1000
AcDbSavedByObjectVersion
1070
     0
  0
VISUALSTYLE
  5
38
102
{ACAD_REACTORS
330
2A
102
}
330
2A
100
AcDbVisualStyle
  2
Linepattern
 70
    14
 71
     2
 72
     2
 73
     0
 90
        0
 40
-0.6
 41
-30.0
 62
     5
 63
     7
421
 16777215
 74
     1
 91
        4
 64
     7
 65
   257
 75
     7
175
     7
 42
1.0
 92
        8
 66
     7
 43
1.0
 76
     1
 77
     6
 78
     2
 67
     7
 79
     5
170
     0
171
     0
290
     0
174
     0
 93
        1
 44
0.0
173
     0
291
     1
 45
0.0
1001
ACAD
1000
AcDbSavedByObjectVersion
1070
     0
  0
VISUALSTYLE
  5
33
102
{ACAD_REACTORS
330
2A
102
}
330
2A
100
AcDbVisualStyle
  2
Realistic
 70
     8
 71
     2
 72
     2
 73
     0
 90
        0
 40
-0.6
 41
-30.0
 62
     5
 63
     7
421
 16777215
 74
     1
 91
        0
 64
     7
 65
   257
 75
     1
175
     1
 42
1.0
 92
        8
 66
     8
424
  7895160
 43
1.0
 76
     1
 77
     6
 78
     2
 67
     7
 79
     5
170
     0
171
     0
290
     0
174
     0
 93
       13
 44
0.0
173
     0
291
     0
 45
0.0
1001
ACAD
1000
AcDbSavedByObjectVersion
1070
     0
  0
VISUALSTYLE
  5
37
102
{ACAD_REACTORS
330
2A
102
}
330
2A
100
AcDbVisualStyle
  2
Thicken
 70
    13
 71
     2
 72
     2
 73
     0
 90
        0
 40
-0.6
 41
-30.0
 62
     5
 63
     7
421
 16777215
 74
     1
 91
        4
 64
     7
 65
   257
 75
     1
175
     1
 42
1.0
 92
       12
 66
     7
 43
1.0
 76
     1
 77
     6
 78
     2
 67
     7
 79
     5
170
     0
171
     0
290
     0
174
     0
 93
        1
 44
0.0
173
     0
291
     1
 45
0.0
1001
ACAD
1000
AcDbSavedByObjectVersion
1070
     0
  0
ENDSEC
  0
EOF
