  0
SECTION
  2
HEADER
  9
$ACADVER
  1
AC1009
  9
$INSBASE
 10
0.0
 20
0.0
 30
0.0
  9
$EXTMIN
 10
0.6905429324770154
 20
1.128104725727002
 30
-0.0015258207003583
  9
$EXTMAX
 10
9.6865992969374624
 20
6.9131007558748818
 30
0.0000000349246037
  9
$LIMMIN
 10
0.0
 20
0.0
  9
$LIMMAX
 10
10.28999999999999
 20
7.9900000000000002
  9
$ORTHOMODE
 70
     0
  9
$REGENMODE
 70
     1
  9
$FILLMODE
 70
     1
  9
$QTEXTMODE
 70
     0
  9
$MIRRTEXT
 70
     1
  9
$DRAGMODE
 70
     2
  9
$LTSCALE
 40
1.0
  9
$OSMODE
 70
    39
  9
$ATTMODE
 70
     1
  9
$TEXTSIZE
 40
0.2
  9
$TRACEWID
 40
0.05
  9
$TEXTSTYLE
  7
STANDARD
  9
$CLAYER
  8
0
  9
$CELTYPE
  6
BYLAYER
  9
$CECOLOR
 62
   256
  9
$DIMSCALE
 40
1.0
  9
$DIMASZ
 40
0.18
  9
$DIMEXO
 40
0.0625
  9
$DIMDLI
 40
0.38
  9
$DIMRND
 40
0.0
  9
$DIMDLE
 40
0.0
  9
$DIMEXE
 40
0.18
  9
$DIMTP
 40
0.0
  9
$DIMTM
 40
0.0
  9
$DIMTXT
 40
0.18
  9
$DIMCEN
 40
0.09
  9
$DIMTSZ
 40
0.0
  9
$DIMTOL
 70
     0
  9
$DIMLIM
 70
     0
  9
$DIMTIH
 70
     1
  9
$DIMTOH
 70
     1
  9
$DIMSE1
 70
     0
  9
$DIMSE2
 70
     0
  9
$DIMTAD
 70
     0
  9
$DIMZIN
 70
     0
  9
$DIMBLK
  1

  9
$DIMASO
 70
     1
  9
$DIMSHO
 70
     0
  9
$DIMPOST
  1

  9
$DIMAPOST
  1

  9
$DIMALT
 70
     0
  9
$DIMALTD
 70
     2
  9
$DIMALTF
 40
25.399999999999999
  9
$DIMLFAC
 40
1.0
  9
$DIMTOFL
 70
     0
  9
$DIMTVP
 40
0.0
  9
$DIMTIX
 70
     0
  9
$DIMSOXD
 70
     0
  9
$DIMSAH
 70
     0
  9
$DIMBLK1
  1

  9
$DIMBLK2
  1

  9
$DIMSTYLE
  2
STANDARD
  9
$DIMCLRD
 70
     0
  9
$DIMCLRE
 70
     0
  9
$DIMCLRT
 70
     0
  9
$DIMTFAC
 40
1.0
  9
$DIMGAP
 40
0.09
  9
$LUNITS
 70
     2
  9
$LUPREC
 70
     4
  9
$SKETCHINC
 40
0.1
  9
$FILLETRAD
 40
0.0
  9
$AUNITS
 70
     0
  9
$AUPREC
 70
     0
  9
$MENU
  1
acad
  9
$ELEVATION
 40
0.0
  9
$PELEVATION
 40
0.0
  9
$THICKNESS
 40
0.0
  9
$LIMCHECK
 70
     0
  9
$BLIPMODE
 70
     0
  9
$CHAMFERA
 40
0.0
  9
$CHAMFERB
 40
0.0
  9
$SKPOLY
 70
     0
  9
$TDCREATE
 40
2447479.5449670139
  9
$TDUPDATE
 40
2453713.5072741201
  9
$TDINDWG
 40
0.0007380208
  9
$TDUSRTIMER
 40
0.000732963
  9
$USRTIMER
 70
     1
  9
$ANGBASE
 50
0.0
  9
$ANGDIR
 70
     0
  9
$PDMODE
 70
     0
  9
$PDSIZE
 40
0.0
  9
$PLINEWID
 40
0.0
  9
$COORDS
 70
     1
  9
$SPLFRAME
 70
     0
  9
$SPLINETYPE
 70
     6
  9
$SPLINESEGS
 70
     8
  9
$ATTDIA
 70
     0
  9
$ATTREQ
 70
     1
  9
$HANDLING
 70
 22529
  9
$HANDSEED
  5
A18
  9
$SURFTAB1
 70
     6
  9
$SURFTAB2
 70
     6
  9
$SURFTYPE
 70
     6
  9
$SURFU
 70
     6
  9
$SURFV
 70
     6
  9
$UCSNAME
  2

  9
$UCSORG
 10
0.0
 20
0.0
 30
0.0
  9
$UCSXDIR
 10
1.0
 20
0.0
 30
0.0
  9
$UCSYDIR
 10
0.0
 20
1.0
 30
0.0
  9
$PUCSNAME
  2

  9
$PUCSORG
 10
0.0
 20
0.0
 30
0.0
  9
$PUCSXDIR
 10
1.0
 20
0.0
 30
0.0
  9
$PUCSYDIR
 10
0.0
 20
1.0
 30
0.0
  9
$USERI1
 70
     0
  9
$USERI2
 70
     0
  9
$USERI3
 70
     0
  9
$USERI4
 70
     0
  9
$USERI5
 70
     0
  9
$USERR1
 40
0.0
  9
$USERR2
 40
0.0
  9
$USERR3
 40
0.0
  9
$USERR4
 40
0.0
  9
$USERR5
 40
0.0
  9
$WORLDVIEW
 70
     1
  9
$SHADEDGE
 70
     3
  9
$SHADEDIF
 70
    70
  9
$TILEMODE
 70
     1
  9
$MAXACTVP
 70
    64
  9
$PLIMCHECK
 70
     0
  9
$PEXTMIN
 10
1.0000000000000000E+020
 20
1.0000000000000000E+020
 30
1.0000000000000000E+020
  9
$PEXTMAX
 10
-1.0000000000000000E+020
 20
-1.0000000000000000E+020
 30
-1.0000000000000000E+020
  9
$PLIMMIN
 10
0.0
 20
0.0
  9
$PLIMMAX
 10
12.0
 20
9.0
  9
$UNITMODE
 70
     0
  9
$VISRETAIN
 70
     1
  9
$PLINEGEN
 70
     0
  9
$PSLTSCALE
 70
     1
  0
ENDSEC
  0
SECTION
  2
TABLES
  0
TABLE
  2
VPORT
 70
     2
  0
VPORT
  2
*ACTIVE
 70
     0
 10
0.0
 20
0.0
 11
1.0
 21
1.0
 12
6.0623049803151048
 22
3.2275682145055051
 13
0.0
 23
0.0
 14
1.0
 24
1.0
 15
0.0
 25
0.0
 16
0.0
 26
0.0
 36
1.0
 17
0.0
 27
0.0
 37
0.0
 40
9.3100873723720436
 41
1.5186567164179099
 42
50.0
 43
0.0
 44
0.0
 50
0.0
 51
0.0
 71
     0
 72
   100
 73
     1
 74
     1
 75
     0
 76
     0
 77
     0
 78
     0
  0
ENDTAB
  0
TABLE
  2
LTYPE
 70
     1
  0
LTYPE
  2
CONTINUOUS
 70
     0
  3
Solid line
 72
    65
 73
     0
 40
0.0
  0
ENDTAB
  0
TABLE
  2
LAYER
 70
     2
  0
LAYER
  2
0
 70
     0
 62
     7
  6
CONTINUOUS
  0
LAYER
  2
PEN1
 70
     0
 62
     7
  6
CONTINUOUS
  0
ENDTAB
  0
TABLE
  2
STYLE
 70
     1
  0
STYLE
  2
STANDARD
 70
     0
 40
0.0
 41
1.0
 50
0.0
 71
     0
 42
0.2
  3
SIMPLEX
  4

  0
ENDTAB
  0
TABLE
  2
VIEW
 70
     0
  0
ENDTAB
  0
TABLE
  2
UCS
 70
     0
  0
ENDTAB
  0
TABLE
  2
APPID
 70
     1
  0
APPID
  2
ACAD
 70
     0
  0
ENDTAB
  0
TABLE
  2
DIMSTYLE
 70
     1
  0
DIMSTYLE
  2
STANDARD
 70
     0
  3

  4

  5

  6

  7

 40
1.0
 41
0.18
 42
0.0625
 43
0.38
 44
0.18
 45
0.0
 46
0.0
 47
0.0
 48
0.0
140
0.18
141
0.09
142
0.0
143
25.399999999999999
144
1.0
145
0.0
146
1.0
147
0.09
 71
     0
 72
     0
 73
     1
 74
     1
 75
     0
 76
     0
 77
     0
 78
     0
170
     0
171
     2
172
     0
173
     0
174
     0
175
     0
176
     0
177
     0
178
     0
  0
ENDTAB
  0
ENDSEC
  0
SECTION
  2
BLOCKS
  0
BLOCK
  8
0
  2
$MODEL_SPACE
 70
     0
 10
0.0
 20
0.0
 30
0.0
  3
$MODEL_SPACE
  1

  0
ENDBLK
  5
20
  8
0
  0
BLOCK
 67
     1
  8
0
  2
$PAPER_SPACE
 70
     0
 10
0.0
 20
0.0
 30
0.0
  3
$PAPER_SPACE
  1

  0
ENDBLK
  5
1C
 67
     1
  8
0
  0
BLOCK
  8
0
  2
BORDER
 70
     0
 10
0.0
 20
0.0
 30
0.0
  3
BORDER
  1

  0
LINE
  5
27
  8
0
 10
0.0
 20
0.0
 30
0.0
 11
1.0
 21
0.0
 31
0.0
  0
LINE
  5
28
  8
0
 10
1.0
 20
0.0
 30
0.0
 11
1.0
 21
1.0
 31
0.0
  0
LINE
  5
29
  8
0
 10
1.0
 20
1.0
 30
0.0
 11
0.0
 21
1.0
 31
0.0
  0
LINE
  5
2A
  8
0
 10
0.0
 20
1.0
 30
0.0
 11
0.0
 21
0.0
 31
0.0
  0
ENDBLK
  5
2B
  8
0
  0
ENDSEC
  0
SECTION
  2
ENTITIES
  0
LINE
  5
2C
  8
PEN1
 10
6.6509999999999989
 20
3.3559999999999999
 30
0.0
 11
6.6509999999999989
 21
3.3559999999999999
 31
0.0
  0
LINE
  5
2D
  8
PEN1
 10
6.6509999999999989
 20
3.3559999999999999
 30
0.0
 11
6.6669999999999998
 21
3.3359999999999999
 31
0.0
  0
LINE
  5
2E
  8
PEN1
 10
6.6669999999999998
 20
3.3359999999999999
 30
0.0
 11
6.6509999999999989
 21
2.677
 31
0.0
  0
LINE
  5
2F
  8
PEN1
 10
6.6509999999999989
 20
2.677
 30
0.0
 11
6.6909999999999989
 21
2.3580000000000001
 31
0.0
  0
LINE
  5
30
  8
PEN1
 10
6.6909999999999989
 20
2.3580000000000001
 30
0.0
 11
6.7379999999999987
 21
2.3469999999999991
 31
0.0
  0
LINE
  5
31
  8
PEN1
 10
6.7379999999999987
 20
2.3469999999999991
 30
0.0
 11
6.7560000000000002
 21
2.4470000000000001
 31
0.0
  0
LINE
  5
32
  8
PEN1
 10
6.7560000000000002
 20
2.4470000000000001
 30
0.0
 11
6.774
 21
2.419999999999999
 31
0.0
  0
LINE
  5
33
  8
PEN1
 10
6.774
 20
2.419999999999999
 30
0.0
 11
6.7770000000000001
 21
2.371999999999999
 31
0.0
  0
LINE
  5
34
  8
PEN1
 10
6.7770000000000001
 20
2.371999999999999
 30
0.0
 11
6.8019999999999996
 21
2.3479999999999999
 31
0.0
  0
LINE
  5
35
  8
PEN1
 10
6.8019999999999996
 20
2.3479999999999999
 30
0.0
 11
6.7649999999999988
 21
2.3260000000000001
 31
0.0
  0
LINE
  5
36
  8
PEN1
 10
6.7649999999999988
 20
2.3260000000000001
 30
0.0
 11
6.8570000000000002
 21
2.3500000000000001
 31
0.0
  0
LINE
  5
37
  8
PEN1
 10
6.8570000000000002
 20
2.3500000000000001
 30
0.0
 11
6.8760000000000003
 21
2.379999999999999
 31
0.0
  0
LINE
  5
38
  8
PEN1
 10
6.8760000000000003
 20
2.379999999999999
 30
0.0
 11
6.8609999999999998
 21
2.3969999999999989
 31
0.0
  0
LINE
  5
39
  8
PEN1
 10
6.8609999999999998
 20
2.3969999999999989
 30
0.0
 11
6.8689999999999989
 21
2.423
 31
0.0
  0
LINE
  5
3A
  8
PEN1
 10
6.8689999999999989
 20
2.423
 30
0.0
 11
6.823999999999999
 21
2.4659999999999989
 31
0.0
  0
LINE
  5
3B
  8
PEN1
 10
6.823999999999999
 20
2.4659999999999989
 30
0.0
 11
6.827
 21
2.4990000000000001
 31
0.0
  0
LINE
  5
3C
  8
PEN1
 10
6.827
 20
2.4990000000000001
 30
0.0
 11
7.306
 21
2.5430000000000001
 31
0.0
  0
LINE
  5
3D
  8
PEN1
 10
7.306
 20
2.5430000000000001
 30
0.0
 11
7.2649999999999988
 21
2.7119999999999989
 31
0.0
  0
LINE
  5
3E
  8
PEN1
 10
7.2649999999999988
 20
2.7119999999999989
 30
0.0
 11
7.2720000000000002
 21
2.7719999999999989
 31
0.0
  0
LINE
  5
3F
  8
PEN1
 10
7.2720000000000002
 20
2.7719999999999989
 30
0.0
 11
7.2919999999999998
 21
2.8119999999999989
 31
0.0
  0
LINE
  5
40
  8
PEN1
 10
7.2919999999999998
 20
2.8119999999999989
 30
0.0
 11
7.2750000000000004
 21
2.8679999999999999
 31
0.0
  0
LINE
  5
41
  8
PEN1
 10
7.2750000000000004
 20
2.8679999999999999
 30
0.0
 11
7.2290000000000001
 21
2.9439999999999991
 31
0.0
  0
LINE
  5
42
  8
PEN1
 10
7.2290000000000001
 20
2.9439999999999991
 30
0.0
 11
7.105999999999999
 21
3.3939999999999988
 31
0.0
  0
LINE
  5
43
  8
PEN1
 10
7.105999999999999
 20
3.3939999999999988
 30
0.0
 11
6.6509999999999989
 21
3.3559999999999999
 31
0.0
  0
LINE
  5
44
  8
PEN1
 10
1.0169999999999999
 20
1.351999999999999
 30
0.0
 11
1.0169999999999999
 21
1.351999999999999
 31
0.0
  0
LINE
  5
45
  8
PEN1
 10
1.0169999999999999
 20
1.351999999999999
 30
0.0
 11
1.038
 21
1.3740000000000001
 31
0.0
  0
LINE
  5
46
  8
PEN1
 10
1.038
 20
1.3740000000000001
 30
0.0
 11
1.0969999999999991
 21
1.3939999999999999
 31
0.0
  0
LINE
  5
47
  8
PEN1
 10
1.0969999999999991
 20
1.3939999999999999
 30
0.0
 11
1.1020000000000001
 21
1.385999999999999
 31
0.0
  0
LINE
  5
48
  8
PEN1
 10
1.1020000000000001
 20
1.385999999999999
 30
0.0
 11
1.0169999999999999
 21
1.351999999999999
 31
0.0
  0
LINE
  5
49
  8
PEN1
 10
1.139999999999999
 20
1.3779999999999999
 30
0.0
 11
1.139999999999999
 21
1.3779999999999999
 31
0.0
  0
LINE
  5
4A
  8
PEN1
 10
1.139999999999999
 20
1.3779999999999999
 30
0.0
 11
1.151
 21
1.411999999999999
 31
0.0
  0
LINE
  5
4B
  8
PEN1
 10
1.151
 20
1.411999999999999
 30
0.0
 11
1.1909999999999989
 21
1.405999999999999
 31
0.0
  0
LINE
  5
4C
  8
PEN1
 10
1.1909999999999989
 20
1.405999999999999
 30
0.0
 11
1.1850000000000001
 21
1.385999999999999
 31
0.0
  0
LINE
  5
4D
  8
PEN1
 10
1.1850000000000001
 20
1.385999999999999
 30
0.0
 11
1.139999999999999
 21
1.3779999999999999
 31
0.0
  0
LINE
  5
4E
  8
PEN1
 10
1.252
 20
1.4139999999999999
 30
0.0
 11
1.252
 21
1.4139999999999999
 31
0.0
  0
LINE
  5
4F
  8
PEN1
 10
1.252
 20
1.4139999999999999
 30
0.0
 11
1.272999999999999
 21
1.4519999999999991
 31
0.0
  0
LINE
  5
50
  8
PEN1
 10
1.272999999999999
 20
1.4519999999999991
 30
0.0
 11
1.3300000000000001
 21
1.4519999999999991
 31
0.0
  0
LINE
  5
51
  8
PEN1
 10
1.3300000000000001
 20
1.4519999999999991
 30
0.0
 11
1.3440000000000001
 21
1.4169999999999989
 31
0.0
  0
LINE
  5
52
  8
PEN1
 10
1.3440000000000001
 20
1.4169999999999989
 30
0.0
 11
1.2829999999999999
 21
1.425999999999999
 31
0.0
  0
LINE
  5
53
  8
PEN1
 10
1.2829999999999999
 20
1.425999999999999
 30
0.0
 11
1.252
 21
1.4139999999999999
 31
0.0
  0
LINE
  5
54
  8
PEN1
 10
1.3380000000000001
 20
1.4399999999999991
 30
0.0
 11
1.3380000000000001
 21
1.4399999999999991
 31
0.0
  0
LINE
  5
55
  8
PEN1
 10
1.3380000000000001
 20
1.4399999999999991
 30
0.0
 11
1.351999999999999
 21
1.460999999999999
 31
0.0
  0
LINE
  5
56
  8
PEN1
 10
1.351999999999999
 20
1.460999999999999
 30
0.0
 11
1.3649999999999991
 21
1.458
 31
0.0
  0
LINE
  5
57
  8
PEN1
 10
1.3649999999999991
 20
1.458
 30
0.0
 11
1.4330000000000001
 21
1.508
 31
0.0
  0
LINE
  5
58
  8
PEN1
 10
1.4330000000000001
 20
1.508
 30
0.0
 11
1.474
 21
1.4990000000000001
 31
0.0
  0
LINE
  5
59
  8
PEN1
 10
1.474
 20
1.4990000000000001
 30
0.0
 11
1.4859999999999991
 21
1.4799999999999991
 31
0.0
  0
LINE
  5
5A
  8
PEN1
 10
1.4859999999999991
 20
1.4799999999999991
 30
0.0
 11
1.4890000000000001
 21
1.5
 31
0.0
  0
LINE
  5
5B
  8
PEN1
 10
1.4890000000000001
 20
1.5
 30
0.0
 11
1.53
 21
1.5289999999999999
 31
0.0
  0
LINE
  5
5C
  8
PEN1
 10
1.53
 20
1.5289999999999999
 30
0.0
 11
1.5949999999999991
 21
1.554
 31
0.0
  0
LINE
  5
5D
  8
PEN1
 10
1.5949999999999991
 20
1.554
 30
0.0
 11
1.6539999999999999
 21
1.601999999999999
 31
0.0
  0
LINE
  5
5E
  8
PEN1
 10
1.6539999999999999
 20
1.601999999999999
 30
0.0
 11
1.6679999999999999
 21
1.5969999999999991
 31
0.0
  0
LINE
  5
5F
  8
PEN1
 10
1.6679999999999999
 20
1.5969999999999991
 30
0.0
 11
1.6779999999999999
 21
1.6579999999999999
 31
0.0
  0
LINE
  5
60
  8
PEN1
 10
1.6779999999999999
 20
1.6579999999999999
 30
0.0
 11
1.7119999999999991
 21
1.706999999999999
 31
0.0
  0
LINE
  5
61
  8
PEN1
 10
1.7119999999999991
 20
1.706999999999999
 30
0.0
 11
1.653
 21
1.7019999999999991
 31
0.0
  0
LINE
  5
62
  8
PEN1
 10
1.653
 20
1.7019999999999991
 30
0.0
 11
1.659999999999999
 21
1.7259999999999991
 31
0.0
  0
LINE
  5
63
  8
PEN1
 10
1.659999999999999
 20
1.7259999999999991
 30
0.0
 11
1.681
 21
1.724
 31
0.0
  0
LINE
  5
64
  8
PEN1
 10
1.681
 20
1.724
 30
0.0
 11
1.661
 21
1.7359999999999991
 31
0.0
  0
LINE
  5
65
  8
PEN1
 10
1.661
 20
1.7359999999999991
 30
0.0
 11
1.631
 21
1.708
 31
0.0
  0
LINE
  5
66
  8
PEN1
 10
1.631
 20
1.708
 30
0.0
 11
1.629
 21
1.6869999999999989
 31
0.0
  0
LINE
  5
67
  8
PEN1
 10
1.629
 20
1.6869999999999989
 30
0.0
 11
1.5940000000000001
 21
1.7339999999999991
 31
0.0
  0
LINE
  5
68
  8
PEN1
 10
1.5940000000000001
 20
1.7339999999999991
 30
0.0
 11
1.583
 21
1.7259999999999991
 31
0.0
  0
LINE
  5
69
  8
PEN1
 10
1.583
 20
1.7259999999999991
 30
0.0
 11
1.5640000000000001
 21
1.75
 31
0.0
  0
LINE
  5
6A
  8
PEN1
 10
1.5640000000000001
 20
1.75
 30
0.0
 11
1.5179999999999989
 21
1.732
 31
0.0
  0
LINE
  5
6B
  8
PEN1
 10
1.5179999999999989
 20
1.732
 30
0.0
 11
1.506999999999999
 21
1.728
 31
0.0
  0
LINE
  5
6C
  8
PEN1
 10
1.506999999999999
 20
1.728
 30
0.0
 11
1.468
 21
1.74
 31
0.0
  0
LINE
  5
6D
  8
PEN1
 10
1.468
 20
1.74
 30
0.0
 11
1.508
 21
1.7729999999999999
 31
0.0
  0
LINE
  5
6E
  8
PEN1
 10
1.508
 20
1.7729999999999999
 30
0.0
 11
1.496999999999999
 21
1.780999999999999
 31
0.0
  0
LINE
  5
6F
  8
PEN1
 10
1.496999999999999
 20
1.780999999999999
 30
0.0
 11
1.5099999999999989
 21
1.804
 31
0.0
  0
LINE
  5
70
  8
PEN1
 10
1.5099999999999989
 20
1.804
 30
0.0
 11
1.5029999999999999
 21
1.873
 31
0.0
  0
LINE
  5
71
  8
PEN1
 10
1.5029999999999999
 20
1.873
 30
0.0
 11
1.524
 21
1.905999999999999
 31
0.0
  0
LINE
  5
72
  8
PEN1
 10
1.524
 20
1.905999999999999
 30
0.0
 11
1.49
 21
1.881
 31
0.0
  0
LINE
  5
73
  8
PEN1
 10
1.49
 20
1.881
 30
0.0
 11
1.4919999999999991
 21
1.8600000000000001
 31
0.0
  0
LINE
  5
74
  8
PEN1
 10
1.4919999999999991
 20
1.8600000000000001
 30
0.0
 11
1.4619999999999991
 21
1.841999999999999
 31
0.0
  0
LINE
  5
75
  8
PEN1
 10
1.4619999999999991
 20
1.841999999999999
 30
0.0
 11
1.423
 21
1.855
 31
0.0
  0
LINE
  5
76
  8
PEN1
 10
1.423
 20
1.855
 30
0.0
 11
1.411
 21
1.9079999999999999
 31
0.0
  0
LINE
  5
77
  8
PEN1
 10
1.411
 20
1.9079999999999999
 30
0.0
 11
1.3839999999999999
 21
1.9330000000000001
 31
0.0
  0
LINE
  5
78
  8
PEN1
 10
1.3839999999999999
 20
1.9330000000000001
 30
0.0
 11
1.385
 21
1.946999999999999
 31
0.0
  0
LINE
  5
79
  8
PEN1
 10
1.385
 20
1.946999999999999
 30
0.0
 11
1.4009999999999989
 21
1.946999999999999
 31
0.0
  0
LINE
  5
7A
  8
PEN1
 10
1.4009999999999989
 20
1.946999999999999
 30
0.0
 11
1.4089999999999989
 21
1.958999999999999
 31
0.0
  0
LINE
  5
7B
  8
PEN1
 10
1.4089999999999989
 20
1.958999999999999
 30
0.0
 11
1.421
 21
1.964
 31
0.0
  0
LINE
  5
7C
  8
PEN1
 10
1.421
 20
1.964
 30
0.0
 11
1.4089999999999989
 21
1.966
 31
0.0
  0
LINE
  5
7D
  8
PEN1
 10
1.4089999999999989
 20
1.966
 30
0.0
 11
1.419
 21
1.9750000000000001
 31
0.0
  0
LINE
  5
7E
  8
PEN1
 10
1.419
 20
1.9750000000000001
 30
0.0
 11
1.4039999999999999
 21
1.9930000000000001
 31
0.0
  0
LINE
  5
7F
  8
PEN1
 10
1.4039999999999999
 20
1.9930000000000001
 30
0.0
 11
1.3969999999999989
 21
1.9839999999999991
 31
0.0
  0
LINE
  5
80
  8
PEN1
 10
1.3969999999999989
 20
1.9839999999999991
 30
0.0
 11
1.375999999999999
 21
2.0259999999999989
 31
0.0
  0
LINE
  5
81
  8
PEN1
 10
1.375999999999999
 20
2.0259999999999989
 30
0.0
 11
1.389
 21
2.0550000000000002
 31
0.0
  0
LINE
  5
82
  8
PEN1
 10
1.389
 20
2.0550000000000002
 30
0.0
 11
1.4650000000000001
 21
2.1069999999999989
 31
0.0
  0
LINE
  5
83
  8
PEN1
 10
1.4650000000000001
 20
2.1069999999999989
 30
0.0
 11
1.4850000000000001
 21
2.1429999999999998
 31
0.0
  0
LINE
  5
84
  8
PEN1
 10
1.4850000000000001
 20
2.1429999999999998
 30
0.0
 11
1.500999999999999
 21
2.149
 31
0.0
  0
LINE
  5
85
  8
PEN1
 10
1.500999999999999
 20
2.149
 30
0.0
 11
1.536999999999999
 21
2.125
 31
0.0
  0
LINE
  5
86
  8
PEN1
 10
1.536999999999999
 20
2.125
 30
0.0
 11
1.5649999999999991
 21
2.133
 31
0.0
  0
LINE
  5
87
  8
PEN1
 10
1.5649999999999991
 20
2.133
 30
0.0
 11
1.5769999999999991
 21
2.1509999999999989
 31
0.0
  0
LINE
  5
88
  8
PEN1
 10
1.5769999999999991
 20
2.1509999999999989
 30
0.0
 11
1.631999999999999
 21
2.1429999999999998
 31
0.0
  0
LINE
  5
89
  8
PEN1
 10
1.631999999999999
 20
2.1429999999999998
 30
0.0
 11
1.645
 21
2.198999999999999
 31
0.0
  0
LINE
  5
8A
  8
PEN1
 10
1.645
 20
2.198999999999999
 30
0.0
 11
1.629
 21
2.2200000000000002
 31
0.0
  0
LINE
  5
8B
  8
PEN1
 10
1.629
 20
2.2200000000000002
 30
0.0
 11
1.665
 21
2.2410000000000001
 31
0.0
  0
LINE
  5
8C
  8
PEN1
 10
1.665
 20
2.2410000000000001
 30
0.0
 11
1.631
 21
2.2530000000000001
 31
0.0
  0
LINE
  5
8D
  8
PEN1
 10
1.631
 20
2.2530000000000001
 30
0.0
 11
1.5840000000000001
 21
2.2229999999999999
 31
0.0
  0
LINE
  5
8E
  8
PEN1
 10
1.5840000000000001
 20
2.2229999999999999
 30
0.0
 11
1.5800000000000001
 21
2.2519999999999989
 31
0.0
  0
LINE
  5
8F
  8
PEN1
 10
1.5800000000000001
 20
2.2519999999999989
 30
0.0
 11
1.4959999999999991
 21
2.2559999999999989
 31
0.0
  0
LINE
  5
90
  8
PEN1
 10
1.4959999999999991
 20
2.2559999999999989
 30
0.0
 11
1.4590000000000001
 21
2.2890000000000001
 31
0.0
  0
LINE
  5
91
  8
PEN1
 10
1.4590000000000001
 20
2.2890000000000001
 30
0.0
 11
1.4530000000000001
 21
2.3460000000000001
 31
0.0
  0
LINE
  5
92
  8
PEN1
 10
1.4530000000000001
 20
2.3460000000000001
 30
0.0
 11
1.480999999999999
 21
2.3349999999999991
 31
0.0
  0
LINE
  5
93
  8
PEN1
 10
1.480999999999999
 20
2.3349999999999991
 30
0.0
 11
1.421999999999999
 21
2.3940000000000001
 31
0.0
  0
LINE
  5
94
  8
PEN1
 10
1.421999999999999
 20
2.3940000000000001
 30
0.0
 11
1.5740000000000001
 21
2.427
 31
0.0
  0
LINE
  5
95
  8
PEN1
 10
1.5740000000000001
 20
2.427
 30
0.0
 11
1.595999999999999
 21
2.419
 31
0.0
  0
LINE
  5
96
  8
PEN1
 10
1.595999999999999
 20
2.419
 30
0.0
 11
1.5769999999999991
 21
2.3929999999999998
 31
0.0
  0
LINE
  5
97
  8
PEN1
 10
1.5769999999999991
 20
2.3929999999999998
 30
0.0
 11
1.655
 21
2.355999999999999
 31
0.0
  0
LINE
  5
98
  8
PEN1
 10
1.655
 20
2.355999999999999
 30
0.0
 11
1.6909999999999989
 21
2.3669999999999991
 31
0.0
  0
LINE
  5
99
  8
PEN1
 10
1.6909999999999989
 20
2.3669999999999991
 30
0.0
 11
1.6859999999999991
 21
2.379
 31
0.0
  0
LINE
  5
9A
  8
PEN1
 10
1.6859999999999991
 20
2.379
 30
0.0
 11
1.6589999999999989
 21
2.387
 31
0.0
  0
LINE
  5
9B
  8
PEN1
 10
1.6589999999999989
 20
2.387
 30
0.0
 11
1.6429999999999989
 21
2.4399999999999991
 31
0.0
  0
LINE
  5
9C
  8
PEN1
 10
1.6429999999999989
 20
2.4399999999999991
 30
0.0
 11
1.6639999999999999
 21
2.4219999999999988
 31
0.0
  0
LINE
  5
9D
  8
PEN1
 10
1.6639999999999999
 20
2.4219999999999988
 30
0.0
 11
1.671
 21
2.3929999999999998
 31
0.0
  0
LINE
  5
9E
  8
PEN1
 10
1.671
 20
2.3929999999999998
 30
0.0
 11
1.7059999999999991
 21
2.3740000000000001
 31
0.0
  0
LINE
  5
9F
  8
PEN1
 10
1.7059999999999991
 20
2.3740000000000001
 30
0.0
 11
1.74
 21
2.375999999999999
 31
0.0
  0
LINE
  5
A0
  8
PEN1
 10
1.74
 20
2.375999999999999
 30
0.0
 11
1.732
 21
2.395
 31
0.0
  0
LINE
  5
A1
  8
PEN1
 10
1.732
 20
2.395
 30
0.0
 11
1.6739999999999999
 21
2.4089999999999998
 31
0.0
  0
LINE
  5
A2
  8
PEN1
 10
1.6739999999999999
 20
2.4089999999999998
 30
0.0
 11
1.6850000000000001
 21
2.4399999999999991
 31
0.0
  0
LINE
  5
A3
  8
PEN1
 10
1.6850000000000001
 20
2.4399999999999991
 30
0.0
 11
1.6180000000000001
 21
2.4639999999999991
 31
0.0
  0
LINE
  5
A4
  8
PEN1
 10
1.6180000000000001
 20
2.4639999999999991
 30
0.0
 11
1.615999999999999
 21
2.508999999999999
 31
0.0
  0
LINE
  5
A5
  8
PEN1
 10
1.615999999999999
 20
2.508999999999999
 30
0.0
 11
1.595999999999999
 21
2.54
 31
0.0
  0
LINE
  5
A6
  8
PEN1
 10
1.595999999999999
 20
2.54
 30
0.0
 11
1.548
 21
2.5979999999999999
 31
0.0
  0
LINE
  5
A7
  8
PEN1
 10
1.548
 20
2.5979999999999999
 30
0.0
 11
1.5659999999999989
 21
2.6000000000000001
 31
0.0
  0
LINE
  5
A8
  8
PEN1
 10
1.5659999999999989
 20
2.6000000000000001
 30
0.0
 11
1.5889999999999991
 21
2.6439999999999988
 31
0.0
  0
LINE
  5
A9
  8
PEN1
 10
1.5889999999999991
 20
2.6439999999999988
 30
0.0
 11
1.645999999999999
 21
2.6239999999999992
 31
0.0
  0
LINE
  5
AA
  8
PEN1
 10
1.645999999999999
 20
2.6239999999999992
 30
0.0
 11
1.6879999999999999
 21
2.645
 31
0.0
  0
LINE
  5
AB
  8
PEN1
 10
1.6879999999999999
 20
2.645
 30
0.0
 11
1.7519999999999989
 21
2.7210000000000001
 31
0.0
  0
LINE
  5
AC
  8
PEN1
 10
1.7519999999999989
 20
2.7210000000000001
 30
0.0
 11
1.770999999999999
 21
2.7099999999999991
 31
0.0
  0
LINE
  5
AD
  8
PEN1
 10
1.770999999999999
 20
2.7099999999999991
 30
0.0
 11
1.8109999999999991
 21
2.7360000000000002
 31
0.0
  0
LINE
  5
AE
  8
PEN1
 10
1.8109999999999991
 20
2.7360000000000002
 30
0.0
 11
1.8119999999999989
 21
2.7139999999999991
 31
0.0
  0
LINE
  5
AF
  8
PEN1
 10
1.8119999999999989
 20
2.7139999999999991
 30
0.0
 11
1.833
 21
2.718999999999999
 31
0.0
  0
LINE
  5
B0
  8
PEN1
 10
1.833
 20
2.718999999999999
 30
0.0
 11
1.821999999999999
 21
2.7319999999999989
 31
0.0
  0
LINE
  5
B1
  8
PEN1
 10
1.821999999999999
 20
2.7319999999999989
 30
0.0
 11
1.881999999999999
 21
2.7410000000000001
 31
0.0
  0
LINE
  5
B2
  8
PEN1
 10
1.881999999999999
 20
2.7410000000000001
 30
0.0
 11
1.925
 21
2.7810000000000001
 31
0.0
  0
LINE
  5
B3
  8
PEN1
 10
1.925
 20
2.7810000000000001
 30
0.0
 11
1.9519999999999991
 21
2.7530000000000001
 31
0.0
  0
LINE
  5
B4
  8
PEN1
 10
1.9519999999999991
 20
2.7530000000000001
 30
0.0
 11
1.9419999999999991
 21
2.7210000000000001
 31
0.0
  0
LINE
  5
B5
  8
PEN1
 10
1.9419999999999991
 20
2.7210000000000001
 30
0.0
 11
1.9619999999999991
 21
2.718999999999999
 31
0.0
  0
LINE
  5
B6
  8
PEN1
 10
1.9619999999999991
 20
2.718999999999999
 30
0.0
 11
1.9699999999999991
 21
2.7489999999999992
 31
0.0
  0
LINE
  5
B7
  8
PEN1
 10
1.9699999999999991
 20
2.7489999999999992
 30
0.0
 11
1.996999999999999
 21
2.7119999999999989
 31
0.0
  0
LINE
  5
B8
  8
PEN1
 10
1.996999999999999
 20
2.7119999999999989
 30
0.0
 11
2.044
 21
2.7119999999999989
 31
0.0
  0
LINE
  5
B9
  8
PEN1
 10
2.044
 20
2.7119999999999989
 30
0.0
 11
2.0510000000000002
 21
2.677999999999999
 31
0.0
  0
LINE
  5
BA
  8
PEN1
 10
2.0510000000000002
 20
2.677999999999999
 30
0.0
 11
2.137999999999999
 21
2.6689999999999992
 31
0.0
  0
LINE
  5
BB
  8
PEN1
 10
2.137999999999999
 20
2.6689999999999992
 30
0.0
 11
2.137
 21
2.6509999999999998
 31
0.0
  0
LINE
  5
BC
  8
PEN1
 10
2.137
 20
2.6509999999999998
 30
0.0
 11
2.157999999999999
 21
2.661999999999999
 31
0.0
  0
LINE
  5
BD
  8
PEN1
 10
2.157999999999999
 20
2.661999999999999
 30
0.0
 11
2.1800000000000002
 21
2.6360000000000001
 31
0.0
  0
LINE
  5
BE
  8
PEN1
 10
2.1800000000000002
 20
2.6360000000000001
 30
0.0
 11
2.2250000000000001
 21
2.6439999999999988
 31
0.0
  0
LINE
  5
BF
  8
PEN1
 10
2.2250000000000001
 20
2.6439999999999988
 30
0.0
 11
2.266999999999999
 21
2.6239999999999992
 31
0.0
  0
LINE
  5
C0
  8
PEN1
 10
2.266999999999999
 20
2.6239999999999992
 30
0.0
 11
2.3079999999999998
 21
2.6429999999999998
 31
0.0
  0
LINE
  5
C1
  8
PEN1
 10
2.3079999999999998
 20
2.6429999999999998
 30
0.0
 11
2.3079999999999998
 21
2.633
 31
0.0
  0
LINE
  5
C2
  8
PEN1
 10
2.3079999999999998
 20
2.633
 30
0.0
 11
2.323999999999999
 21
2.637
 31
0.0
  0
LINE
  5
C3
  8
PEN1
 10
2.323999999999999
 20
2.637
 30
0.0
 11
2.3940000000000001
 21
2.601999999999999
 31
0.0
  0
LINE
  5
C4
  8
PEN1
 10
2.3940000000000001
 20
2.601999999999999
 30
0.0
 11
2.4479999999999991
 21
1.7889999999999999
 31
0.0
  0
LINE
  5
C5
  8
PEN1
 10
2.4479999999999991
 20
1.7889999999999999
 30
0.0
 11
2.528
 21
1.790999999999999
 31
0.0
  0
LINE
  5
C6
  8
PEN1
 10
2.528
 20
1.790999999999999
 30
0.0
 11
2.5259999999999989
 21
1.77
 31
0.0
  0
LINE
  5
C7
  8
PEN1
 10
2.5259999999999989
 20
1.77
 30
0.0
 11
2.552
 21
1.75
 31
0.0
  0
LINE
  5
C8
  8
PEN1
 10
2.552
 20
1.75
 30
0.0
 11
2.601999999999999
 21
1.710999999999999
 31
0.0
  0
LINE
  5
C9
  8
PEN1
 10
2.601999999999999
 20
1.710999999999999
 30
0.0
 11
2.609999999999999
 21
1.6879999999999999
 31
0.0
  0
LINE
  5
CA
  8
PEN1
 10
2.609999999999999
 20
1.6879999999999999
 30
0.0
 11
2.6509999999999998
 21
1.7130000000000001
 31
0.0
  0
LINE
  5
CB
  8
PEN1
 10
2.6509999999999998
 20
1.7130000000000001
 30
0.0
 11
2.661999999999999
 21
1.7459999999999991
 31
0.0
  0
LINE
  5
CC
  8
PEN1
 10
2.661999999999999
 20
1.7459999999999991
 30
0.0
 11
2.6850000000000001
 21
1.7589999999999999
 31
0.0
  0
LINE
  5
CD
  8
PEN1
 10
2.6850000000000001
 20
1.7589999999999999
 30
0.0
 11
2.6899999999999991
 21
1.764999999999999
 31
0.0
  0
LINE
  5
CE
  8
PEN1
 10
2.6899999999999991
 20
1.764999999999999
 30
0.0
 11
2.714999999999999
 21
1.7459999999999991
 31
0.0
  0
LINE
  5
CF
  8
PEN1
 10
2.714999999999999
 20
1.7459999999999991
 30
0.0
 11
2.7130000000000001
 21
1.724
 31
0.0
  0
LINE
  5
D0
  8
PEN1
 10
2.7130000000000001
 20
1.724
 30
0.0
 11
2.7309999999999999
 21
1.7230000000000001
 31
0.0
  0
LINE
  5
D1
  8
PEN1
 10
2.7309999999999999
 20
1.7230000000000001
 30
0.0
 11
2.7410000000000001
 21
1.7150000000000001
 31
0.0
  0
LINE
  5
D2
  8
PEN1
 10
2.7410000000000001
 20
1.7150000000000001
 30
0.0
 11
2.7489999999999992
 21
1.6990000000000001
 31
0.0
  0
LINE
  5
D3
  8
PEN1
 10
2.7489999999999992
 20
1.6990000000000001
 30
0.0
 11
2.7759999999999998
 21
1.6850000000000001
 31
0.0
  0
LINE
  5
D4
  8
PEN1
 10
2.7759999999999998
 20
1.6850000000000001
 30
0.0
 11
2.8959999999999999
 21
1.5179999999999989
 31
0.0
  0
LINE
  5
D5
  8
PEN1
 10
2.8959999999999999
 20
1.5179999999999989
 30
0.0
 11
2.9329999999999998
 21
1.5089999999999999
 31
0.0
  0
LINE
  5
D6
  8
PEN1
 10
2.9329999999999998
 20
1.5089999999999999
 30
0.0
 11
2.9929999999999999
 21
1.4859999999999991
 31
0.0
  0
LINE
  5
D7
  8
PEN1
 10
2.9929999999999999
 20
1.4859999999999991
 30
0.0
 11
2.9989999999999992
 21
1.4730000000000001
 31
0.0
  0
LINE
  5
D8
  8
PEN1
 10
2.9989999999999992
 20
1.4730000000000001
 30
0.0
 11
2.9860000000000002
 21
1.460999999999999
 31
0.0
  0
LINE
  5
D9
  8
PEN1
 10
2.9860000000000002
 20
1.460999999999999
 30
0.0
 11
2.988999999999999
 21
1.4330000000000001
 31
0.0
  0
LINE
  5
DA
  8
PEN1
 10
2.988999999999999
 20
1.4330000000000001
 30
0.0
 11
2.9780000000000002
 21
1.3769999999999989
 31
0.0
  0
LINE
  5
DB
  8
PEN1
 10
2.9780000000000002
 20
1.3769999999999989
 30
0.0
 11
2.9710000000000001
 21
1.3879999999999999
 31
0.0
  0
LINE
  5
DC
  8
PEN1
 10
2.9710000000000001
 20
1.3879999999999999
 30
0.0
 11
2.9599999999999991
 21
1.3779999999999999
 31
0.0
  0
LINE
  5
DD
  8
PEN1
 10
2.9599999999999991
 20
1.3779999999999999
 30
0.0
 11
2.9460000000000002
 21
1.389999999999999
 31
0.0
  0
LINE
  5
DE
  8
PEN1
 10
2.9460000000000002
 20
1.389999999999999
 30
0.0
 11
2.9660000000000002
 21
1.405999999999999
 31
0.0
  0
LINE
  5
DF
  8
PEN1
 10
2.9660000000000002
 20
1.405999999999999
 30
0.0
 11
2.9510000000000001
 21
1.425999999999999
 31
0.0
  0
LINE
  5
E0
  8
PEN1
 10
2.9510000000000001
 20
1.425999999999999
 30
0.0
 11
2.9510000000000001
 21
1.4379999999999999
 31
0.0
  0
LINE
  5
E1
  8
PEN1
 10
2.9510000000000001
 20
1.4379999999999999
 30
0.0
 11
2.9329999999999998
 21
1.4759999999999991
 31
0.0
  0
LINE
  5
E2
  8
PEN1
 10
2.9329999999999998
 20
1.4759999999999991
 30
0.0
 11
2.9219999999999988
 21
1.4759999999999991
 31
0.0
  0
LINE
  5
E3
  8
PEN1
 10
2.9219999999999988
 20
1.4759999999999991
 30
0.0
 11
2.9009999999999998
 21
1.4619999999999991
 31
0.0
  0
LINE
  5
E4
  8
PEN1
 10
2.9009999999999998
 20
1.4619999999999991
 30
0.0
 11
2.8980000000000001
 21
1.4419999999999991
 31
0.0
  0
LINE
  5
E5
  8
PEN1
 10
2.8980000000000001
 20
1.4419999999999991
 30
0.0
 11
2.879999999999999
 21
1.4369999999999989
 31
0.0
  0
LINE
  5
E6
  8
PEN1
 10
2.879999999999999
 20
1.4369999999999989
 30
0.0
 11
2.8769999999999989
 21
1.4419999999999991
 31
0.0
  0
LINE
  5
E7
  8
PEN1
 10
2.8769999999999989
 20
1.4419999999999991
 30
0.0
 11
2.891
 21
1.4650000000000001
 31
0.0
  0
LINE
  5
E8
  8
PEN1
 10
2.891
 20
1.4650000000000001
 30
0.0
 11
2.8949999999999991
 21
1.4859999999999991
 31
0.0
  0
LINE
  5
E9
  8
PEN1
 10
2.8949999999999991
 20
1.4859999999999991
 30
0.0
 11
2.883
 21
1.478
 31
0.0
  0
LINE
  5
EA
  8
PEN1
 10
2.883
 20
1.478
 30
0.0
 11
2.8780000000000001
 21
1.460999999999999
 31
0.0
  0
LINE
  5
EB
  8
PEN1
 10
2.8780000000000001
 20
1.460999999999999
 30
0.0
 11
2.8359999999999999
 21
1.488
 31
0.0
  0
LINE
  5
EC
  8
PEN1
 10
2.8359999999999999
 20
1.488
 30
0.0
 11
2.8380000000000001
 21
1.496999999999999
 31
0.0
  0
LINE
  5
ED
  8
PEN1
 10
2.8380000000000001
 20
1.496999999999999
 30
0.0
 11
2.859999999999999
 21
1.4959999999999991
 31
0.0
  0
LINE
  5
EE
  8
PEN1
 10
2.859999999999999
 20
1.4959999999999991
 30
0.0
 11
2.8629999999999991
 21
1.5129999999999999
 31
0.0
  0
LINE
  5
EF
  8
PEN1
 10
2.8629999999999991
 20
1.5129999999999999
 30
0.0
 11
2.8769999999999989
 21
1.5189999999999999
 31
0.0
  0
LINE
  5
F0
  8
PEN1
 10
2.8769999999999989
 20
1.5189999999999999
 30
0.0
 11
2.875
 21
1.526999999999999
 31
0.0
  0
LINE
  5
F1
  8
PEN1
 10
2.875
 20
1.526999999999999
 30
0.0
 11
2.8539999999999992
 21
1.524
 31
0.0
  0
LINE
  5
F2
  8
PEN1
 10
2.8539999999999992
 20
1.524
 30
0.0
 11
2.8469999999999991
 21
1.554
 31
0.0
  0
LINE
  5
F3
  8
PEN1
 10
2.8469999999999991
 20
1.554
 30
0.0
 11
2.8039999999999989
 21
1.554999999999999
 31
0.0
  0
LINE
  5
F4
  8
PEN1
 10
2.8039999999999989
 20
1.554999999999999
 30
0.0
 11
2.7919999999999989
 21
1.5889999999999991
 31
0.0
  0
LINE
  5
F5
  8
PEN1
 10
2.7919999999999989
 20
1.5889999999999991
 30
0.0
 11
2.8039999999999989
 21
1.6169999999999991
 31
0.0
  0
LINE
  5
F6
  8
PEN1
 10
2.8039999999999989
 20
1.6169999999999991
 30
0.0
 11
2.7879999999999998
 21
1.613
 31
0.0
  0
LINE
  5
F7
  8
PEN1
 10
2.7879999999999998
 20
1.613
 30
0.0
 11
2.782
 21
1.6339999999999999
 31
0.0
  0
LINE
  5
F8
  8
PEN1
 10
2.782
 20
1.6339999999999999
 30
0.0
 11
2.7730000000000001
 21
1.625999999999999
 31
0.0
  0
LINE
  5
F9
  8
PEN1
 10
2.7730000000000001
 20
1.625999999999999
 30
0.0
 11
2.766
 21
1.6349999999999989
 31
0.0
  0
LINE
  5
FA
  8
PEN1
 10
2.766
 20
1.6349999999999989
 30
0.0
 11
2.7759999999999998
 21
1.659999999999999
 31
0.0
  0
LINE
  5
FB
  8
PEN1
 10
2.7759999999999998
 20
1.659999999999999
 30
0.0
 11
2.766999999999999
 21
1.6639999999999999
 31
0.0
  0
LINE
  5
FC
  8
PEN1
 10
2.766999999999999
 20
1.6639999999999999
 30
0.0
 11
2.7639999999999989
 21
1.649
 31
0.0
  0
LINE
  5
FD
  8
PEN1
 10
2.7639999999999989
 20
1.649
 30
0.0
 11
2.7489999999999992
 21
1.6439999999999999
 31
0.0
  0
LINE
  5
FE
  8
PEN1
 10
2.7489999999999992
 20
1.6439999999999999
 30
0.0
 11
2.7319999999999989
 21
1.653
 31
0.0
  0
LINE
  5
FF
  8
PEN1
 10
2.7319999999999989
 20
1.653
 30
0.0
 11
2.7299999999999991
 21
1.675
 31
0.0
  0
LINE
  5
100
  8
PEN1
 10
2.7299999999999991
 20
1.675
 30
0.0
 11
2.7080000000000002
 21
1.7030000000000001
 31
0.0
  0
LINE
  5
101
  8
PEN1
 10
2.7080000000000002
 20
1.7030000000000001
 30
0.0
 11
2.7089999999999992
 21
1.7199999999999991
 31
0.0
  0
LINE
  5
102
  8
PEN1
 10
2.7089999999999992
 20
1.7199999999999991
 30
0.0
 11
2.7000000000000002
 21
1.7230000000000001
 31
0.0
  0
LINE
  5
103
  8
PEN1
 10
2.7000000000000002
 20
1.7230000000000001
 30
0.0
 11
2.6979999999999991
 21
1.7439999999999991
 31
0.0
  0
LINE
  5
104
  8
PEN1
 10
2.6979999999999991
 20
1.7439999999999991
 30
0.0
 11
2.694999999999999
 21
1.7359999999999991
 31
0.0
  0
LINE
  5
105
  8
PEN1
 10
2.694999999999999
 20
1.7359999999999991
 30
0.0
 11
2.7039999999999988
 21
1.6869999999999989
 31
0.0
  0
LINE
  5
106
  8
PEN1
 10
2.7039999999999988
 20
1.6869999999999989
 30
0.0
 11
2.7229999999999999
 21
1.651999999999999
 31
0.0
  0
LINE
  5
107
  8
PEN1
 10
2.7229999999999999
 20
1.651999999999999
 30
0.0
 11
2.782999999999999
 21
1.6049999999999991
 31
0.0
  0
LINE
  5
108
  8
PEN1
 10
2.782999999999999
 20
1.6049999999999991
 30
0.0
 11
2.7839999999999989
 21
1.595999999999999
 31
0.0
  0
LINE
  5
109
  8
PEN1
 10
2.7839999999999989
 20
1.595999999999999
 30
0.0
 11
2.7689999999999988
 21
1.599
 31
0.0
  0
LINE
  5
10A
  8
PEN1
 10
2.7689999999999988
 20
1.599
 30
0.0
 11
2.7679999999999998
 21
1.5889999999999991
 31
0.0
  0
LINE
  5
10B
  8
PEN1
 10
2.7679999999999998
 20
1.5889999999999991
 30
0.0
 11
2.7759999999999998
 21
1.591
 31
0.0
  0
LINE
  5
10C
  8
PEN1
 10
2.7759999999999998
 20
1.591
 30
0.0
 11
2.7850000000000001
 21
1.5580000000000001
 31
0.0
  0
LINE
  5
10D
  8
PEN1
 10
2.7850000000000001
 20
1.5580000000000001
 30
0.0
 11
2.823
 21
1.54
 31
0.0
  0
LINE
  5
10E
  8
PEN1
 10
2.823
 20
1.54
 30
0.0
 11
2.8429999999999991
 21
1.508
 31
0.0
  0
LINE
  5
10F
  8
PEN1
 10
2.8429999999999991
 20
1.508
 30
0.0
 11
2.7969999999999988
 21
1.498
 31
0.0
  0
LINE
  5
110
  8
PEN1
 10
2.7969999999999988
 20
1.498
 30
0.0
 11
2.7759999999999998
 21
1.4390000000000001
 31
0.0
  0
LINE
  5
111
  8
PEN1
 10
2.7759999999999998
 20
1.4390000000000001
 30
0.0
 11
2.762999999999999
 21
1.5329999999999999
 31
0.0
  0
LINE
  5
112
  8
PEN1
 10
2.762999999999999
 20
1.5329999999999999
 30
0.0
 11
2.7539999999999991
 21
1.5419999999999989
 31
0.0
  0
LINE
  5
113
  8
PEN1
 10
2.7539999999999991
 20
1.5419999999999989
 30
0.0
 11
2.7530000000000001
 21
1.5600000000000001
 31
0.0
  0
LINE
  5
114
  8
PEN1
 10
2.7530000000000001
 20
1.5600000000000001
 30
0.0
 11
2.7610000000000001
 21
1.5669999999999991
 31
0.0
  0
LINE
  5
115
  8
PEN1
 10
2.7610000000000001
 20
1.5669999999999991
 30
0.0
 11
2.7239999999999989
 21
1.6379999999999999
 31
0.0
  0
LINE
  5
116
  8
PEN1
 10
2.7239999999999989
 20
1.6379999999999999
 30
0.0
 11
2.7099999999999991
 21
1.639999999999999
 31
0.0
  0
LINE
  5
117
  8
PEN1
 10
2.7099999999999991
 20
1.639999999999999
 30
0.0
 11
2.7019999999999991
 21
1.653
 31
0.0
  0
LINE
  5
118
  8
PEN1
 10
2.7019999999999991
 20
1.653
 30
0.0
 11
2.6909999999999998
 21
1.649999999999999
 31
0.0
  0
LINE
  5
119
  8
PEN1
 10
2.6909999999999998
 20
1.649999999999999
 30
0.0
 11
2.6829999999999998
 21
1.655999999999999
 31
0.0
  0
LINE
  5
11A
  8
PEN1
 10
2.6829999999999998
 20
1.655999999999999
 30
0.0
 11
2.673999999999999
 21
1.6959999999999991
 31
0.0
  0
LINE
  5
11B
  8
PEN1
 10
2.673999999999999
 20
1.6959999999999991
 30
0.0
 11
2.6680000000000001
 21
1.679999999999999
 31
0.0
  0
LINE
  5
11C
  8
PEN1
 10
2.6680000000000001
 20
1.679999999999999
 30
0.0
 11
2.637
 21
1.6909999999999989
 31
0.0
  0
LINE
  5
11D
  8
PEN1
 10
2.637
 20
1.6909999999999989
 30
0.0
 11
2.6309999999999998
 21
1.6830000000000001
 31
0.0
  0
LINE
  5
11E
  8
PEN1
 10
2.6309999999999998
 20
1.6830000000000001
 30
0.0
 11
2.669999999999999
 21
1.659999999999999
 31
0.0
  0
LINE
  5
11F
  8
PEN1
 10
2.669999999999999
 20
1.659999999999999
 30
0.0
 11
2.6519999999999988
 21
1.6539999999999999
 31
0.0
  0
LINE
  5
120
  8
PEN1
 10
2.6519999999999988
 20
1.6539999999999999
 30
0.0
 11
2.653999999999999
 21
1.635999999999999
 31
0.0
  0
LINE
  5
121
  8
PEN1
 10
2.653999999999999
 20
1.635999999999999
 30
0.0
 11
2.621999999999999
 21
1.6479999999999999
 31
0.0
  0
LINE
  5
122
  8
PEN1
 10
2.621999999999999
 20
1.6479999999999999
 30
0.0
 11
2.581999999999999
 21
1.6869999999999989
 31
0.0
  0
LINE
  5
123
  8
PEN1
 10
2.581999999999999
 20
1.6869999999999989
 30
0.0
 11
2.5230000000000001
 21
1.7150000000000001
 31
0.0
  0
LINE
  5
124
  8
PEN1
 10
2.5230000000000001
 20
1.7150000000000001
 30
0.0
 11
2.4799999999999991
 21
1.716
 31
0.0
  0
LINE
  5
125
  8
PEN1
 10
2.4799999999999991
 20
1.716
 30
0.0
 11
2.508999999999999
 21
1.754999999999999
 31
0.0
  0
LINE
  5
126
  8
PEN1
 10
2.508999999999999
 20
1.754999999999999
 30
0.0
 11
2.524
 21
1.7359999999999991
 31
0.0
  0
LINE
  5
127
  8
PEN1
 10
2.524
 20
1.7359999999999991
 30
0.0
 11
2.5259999999999989
 21
1.754999999999999
 31
0.0
  0
LINE
  5
128
  8
PEN1
 10
2.5259999999999989
 20
1.754999999999999
 30
0.0
 11
2.500999999999999
 21
1.7729999999999999
 31
0.0
  0
LINE
  5
129
  8
PEN1
 10
2.500999999999999
 20
1.7729999999999999
 30
0.0
 11
2.4859999999999989
 21
1.7419999999999991
 31
0.0
  0
LINE
  5
12A
  8
PEN1
 10
2.4859999999999989
 20
1.7419999999999991
 30
0.0
 11
2.4510000000000001
 21
1.74
 31
0.0
  0
LINE
  5
12B
  8
PEN1
 10
2.4510000000000001
 20
1.74
 30
0.0
 11
2.298999999999999
 21
1.754
 31
0.0
  0
LINE
  5
12C
  8
PEN1
 10
2.298999999999999
 20
1.754
 30
0.0
 11
2.3039999999999998
 21
1.7789999999999999
 31
0.0
  0
LINE
  5
12D
  8
PEN1
 10
2.3039999999999998
 20
1.7789999999999999
 30
0.0
 11
2.29
 21
1.7719999999999989
 31
0.0
  0
LINE
  5
12E
  8
PEN1
 10
2.29
 20
1.7719999999999989
 30
0.0
 11
2.27
 21
1.794999999999999
 31
0.0
  0
LINE
  5
12F
  8
PEN1
 10
2.27
 20
1.794999999999999
 30
0.0
 11
2.2480000000000002
 21
1.7829999999999999
 31
0.0
  0
LINE
  5
130
  8
PEN1
 10
2.2480000000000002
 20
1.7829999999999999
 30
0.0
 11
2.2379999999999991
 21
1.798
 31
0.0
  0
LINE
  5
131
  8
PEN1
 10
2.2379999999999991
 20
1.798
 30
0.0
 11
2.198999999999999
 21
1.780999999999999
 31
0.0
  0
LINE
  5
132
  8
PEN1
 10
2.198999999999999
 20
1.780999999999999
 30
0.0
 11
2.1970000000000001
 21
1.7929999999999999
 31
0.0
  0
LINE
  5
133
  8
PEN1
 10
2.1970000000000001
 20
1.7929999999999999
 30
0.0
 11
2.2159999999999989
 21
1.8200000000000001
 31
0.0
  0
LINE
  5
134
  8
PEN1
 10
2.2159999999999989
 20
1.8200000000000001
 30
0.0
 11
2.2040000000000002
 21
1.8209999999999991
 31
0.0
  0
LINE
  5
135
  8
PEN1
 10
2.2040000000000002
 20
1.8209999999999991
 30
0.0
 11
2.2179999999999991
 21
1.8300000000000001
 31
0.0
  0
LINE
  5
136
  8
PEN1
 10
2.2179999999999991
 20
1.8300000000000001
 30
0.0
 11
2.173
 21
1.8240000000000001
 31
0.0
  0
LINE
  5
137
  8
PEN1
 10
2.173
 20
1.8240000000000001
 30
0.0
 11
2.1560000000000001
 21
1.8400000000000001
 31
0.0
  0
LINE
  5
138
  8
PEN1
 10
2.1560000000000001
 20
1.8400000000000001
 30
0.0
 11
2.141
 21
1.8300000000000001
 31
0.0
  0
LINE
  5
139
  8
PEN1
 10
2.141
 20
1.8300000000000001
 30
0.0
 11
2.137
 21
1.841999999999999
 31
0.0
  0
LINE
  5
13A
  8
PEN1
 10
2.137
 20
1.841999999999999
 30
0.0
 11
2.1469999999999989
 21
1.855
 31
0.0
  0
LINE
  5
13B
  8
PEN1
 10
2.1469999999999989
 20
1.855
 30
0.0
 11
2.1230000000000002
 21
1.8469999999999991
 31
0.0
  0
LINE
  5
13C
  8
PEN1
 10
2.1230000000000002
 20
1.8469999999999991
 30
0.0
 11
2.1269999999999989
 21
1.8400000000000001
 31
0.0
  0
LINE
  5
13D
  8
PEN1
 10
2.1269999999999989
 20
1.8400000000000001
 30
0.0
 11
2.113999999999999
 21
1.8269999999999991
 31
0.0
  0
LINE
  5
13E
  8
PEN1
 10
2.113999999999999
 20
1.8269999999999991
 30
0.0
 11
2.1309999999999989
 21
1.8289999999999991
 31
0.0
  0
LINE
  5
13F
  8
PEN1
 10
2.1309999999999989
 20
1.8289999999999991
 30
0.0
 11
2.1230000000000002
 21
1.804999999999999
 31
0.0
  0
LINE
  5
140
  8
PEN1
 10
2.1230000000000002
 20
1.804999999999999
 30
0.0
 11
2.141
 21
1.796
 31
0.0
  0
LINE
  5
141
  8
PEN1
 10
2.141
 20
1.796
 30
0.0
 11
2.161999999999999
 21
1.784999999999999
 31
0.0
  0
LINE
  5
142
  8
PEN1
 10
2.161999999999999
 20
1.784999999999999
 30
0.0
 11
2.1869999999999989
 21
1.796
 31
0.0
  0
LINE
  5
143
  8
PEN1
 10
2.1869999999999989
 20
1.796
 30
0.0
 11
2.1819999999999991
 21
1.7439999999999991
 31
0.0
  0
LINE
  5
144
  8
PEN1
 10
2.1819999999999991
 20
1.7439999999999991
 30
0.0
 11
2.1389999999999998
 21
1.7419999999999991
 31
0.0
  0
LINE
  5
145
  8
PEN1
 10
2.1389999999999998
 20
1.7419999999999991
 30
0.0
 11
2.1389999999999998
 21
1.756
 31
0.0
  0
LINE
  5
146
  8
PEN1
 10
2.1389999999999998
 20
1.756
 30
0.0
 11
2.1230000000000002
 21
1.766
 31
0.0
  0
LINE
  5
147
  8
PEN1
 10
2.1230000000000002
 20
1.766
 30
0.0
 11
2.089999999999999
 21
1.7519999999999989
 31
0.0
  0
LINE
  5
148
  8
PEN1
 10
2.089999999999999
 20
1.7519999999999989
 30
0.0
 11
2.0880000000000001
 21
1.766
 31
0.0
  0
LINE
  5
149
  8
PEN1
 10
2.0880000000000001
 20
1.766
 30
0.0
 11
2.0750000000000002
 21
1.754
 31
0.0
  0
LINE
  5
14A
  8
PEN1
 10
2.0750000000000002
 20
1.754
 30
0.0
 11
2.0729999999999991
 21
1.77
 31
0.0
  0
LINE
  5
14B
  8
PEN1
 10
2.0729999999999991
 20
1.77
 30
0.0
 11
2.0469999999999988
 21
1.7729999999999999
 31
0.0
  0
LINE
  5
14C
  8
PEN1
 10
2.0469999999999988
 20
1.7729999999999999
 30
0.0
 11
2.0659999999999989
 21
1.7439999999999991
 31
0.0
  0
LINE
  5
14D
  8
PEN1
 10
2.0659999999999989
 20
1.7439999999999991
 30
0.0
 11
2.0630000000000002
 21
1.736999999999999
 31
0.0
  0
LINE
  5
14E
  8
PEN1
 10
2.0630000000000002
 20
1.736999999999999
 30
0.0
 11
2.0630000000000002
 21
1.736999999999999
 31
0.0
  0
LINE
  5
14F
  8
PEN1
 10
2.0630000000000002
 20
1.736999999999999
 30
0.0
 11
2.052
 21
1.7419999999999991
 31
0.0
  0
LINE
  5
150
  8
PEN1
 10
2.052
 20
1.7419999999999991
 30
0.0
 11
2.0219999999999989
 21
1.724
 31
0.0
  0
LINE
  5
151
  8
PEN1
 10
2.0219999999999989
 20
1.724
 30
0.0
 11
2.016
 21
1.7299999999999991
 31
0.0
  0
LINE
  5
152
  8
PEN1
 10
2.016
 20
1.7299999999999991
 30
0.0
 11
1.9939999999999991
 21
1.6909999999999989
 31
0.0
  0
LINE
  5
153
  8
PEN1
 10
1.9939999999999991
 20
1.6909999999999989
 30
0.0
 11
1.982
 21
1.706999999999999
 31
0.0
  0
LINE
  5
154
  8
PEN1
 10
1.982
 20
1.706999999999999
 30
0.0
 11
1.9730000000000001
 21
1.696999999999999
 31
0.0
  0
LINE
  5
155
  8
PEN1
 10
1.9730000000000001
 20
1.696999999999999
 30
0.0
 11
1.9519999999999991
 21
1.700999999999999
 31
0.0
  0
LINE
  5
156
  8
PEN1
 10
1.9519999999999991
 20
1.700999999999999
 30
0.0
 11
1.9490000000000001
 21
1.720999999999999
 31
0.0
  0
LINE
  5
157
  8
PEN1
 10
1.9490000000000001
 20
1.720999999999999
 30
0.0
 11
1.976999999999999
 21
1.720999999999999
 31
0.0
  0
LINE
  5
158
  8
PEN1
 10
1.976999999999999
 20
1.720999999999999
 30
0.0
 11
1.9939999999999991
 21
1.740999999999999
 31
0.0
  0
LINE
  5
159
  8
PEN1
 10
1.9939999999999991
 20
1.740999999999999
 30
0.0
 11
1.948
 21
1.7419999999999991
 31
0.0
  0
LINE
  5
15A
  8
PEN1
 10
1.948
 20
1.7419999999999991
 30
0.0
 11
1.986999999999999
 21
1.833999999999999
 31
0.0
  0
LINE
  5
15B
  8
PEN1
 10
1.986999999999999
 20
1.833999999999999
 30
0.0
 11
2.052999999999999
 21
1.849
 31
0.0
  0
LINE
  5
15C
  8
PEN1
 10
2.052999999999999
 20
1.849
 30
0.0
 11
2.0459999999999989
 21
1.8700000000000001
 31
0.0
  0
LINE
  5
15D
  8
PEN1
 10
2.0459999999999989
 20
1.8700000000000001
 30
0.0
 11
2.0869999999999989
 21
1.8939999999999999
 31
0.0
  0
LINE
  5
15E
  8
PEN1
 10
2.0869999999999989
 20
1.8939999999999999
 30
0.0
 11
2.0310000000000001
 21
1.8789999999999989
 31
0.0
  0
LINE
  5
15F
  8
PEN1
 10
2.0310000000000001
 20
1.8789999999999989
 30
0.0
 11
2.04
 21
1.925999999999999
 31
0.0
  0
LINE
  5
160
  8
PEN1
 10
2.04
 20
1.925999999999999
 30
0.0
 11
2.012999999999999
 21
1.871
 31
0.0
  0
LINE
  5
161
  8
PEN1
 10
2.012999999999999
 20
1.871
 30
0.0
 11
1.976999999999999
 21
1.8540000000000001
 31
0.0
  0
LINE
  5
162
  8
PEN1
 10
1.976999999999999
 20
1.8540000000000001
 30
0.0
 11
1.9339999999999999
 21
1.7989999999999999
 31
0.0
  0
LINE
  5
163
  8
PEN1
 10
1.9339999999999999
 20
1.7989999999999999
 30
0.0
 11
1.9039999999999999
 21
1.7989999999999999
 31
0.0
  0
LINE
  5
164
  8
PEN1
 10
1.9039999999999999
 20
1.7989999999999999
 30
0.0
 11
1.919999999999999
 21
1.77
 31
0.0
  0
LINE
  5
165
  8
PEN1
 10
1.919999999999999
 20
1.77
 30
0.0
 11
1.8449999999999991
 21
1.7099999999999991
 31
0.0
  0
LINE
  5
166
  8
PEN1
 10
1.8449999999999991
 20
1.7099999999999991
 30
0.0
 11
1.8779999999999999
 21
1.696999999999999
 31
0.0
  0
LINE
  5
167
  8
PEN1
 10
1.8779999999999999
 20
1.696999999999999
 30
0.0
 11
1.871
 21
1.671
 31
0.0
  0
LINE
  5
168
  8
PEN1
 10
1.871
 20
1.671
 30
0.0
 11
1.7019999999999991
 21
1.5429999999999999
 31
0.0
  0
LINE
  5
169
  8
PEN1
 10
1.7019999999999991
 20
1.5429999999999999
 30
0.0
 11
1.5809999999999991
 21
1.5089999999999999
 31
0.0
  0
LINE
  5
16A
  8
PEN1
 10
1.5809999999999991
 20
1.5089999999999999
 30
0.0
 11
1.615999999999999
 21
1.4950000000000001
 31
0.0
  0
LINE
  5
16B
  8
PEN1
 10
1.615999999999999
 20
1.4950000000000001
 30
0.0
 11
1.5429999999999999
 21
1.4550000000000001
 31
0.0
  0
LINE
  5
16C
  8
PEN1
 10
1.5429999999999999
 20
1.4550000000000001
 30
0.0
 11
1.528
 21
1.474
 31
0.0
  0
LINE
  5
16D
  8
PEN1
 10
1.528
 20
1.474
 30
0.0
 11
1.4790000000000001
 21
1.4550000000000001
 31
0.0
  0
LINE
  5
16E
  8
PEN1
 10
1.4790000000000001
 20
1.4550000000000001
 30
0.0
 11
1.4409999999999989
 21
1.4539999999999991
 31
0.0
  0
LINE
  5
16F
  8
PEN1
 10
1.4409999999999989
 20
1.4539999999999991
 30
0.0
 11
1.4419999999999991
 21
1.476999999999999
 31
0.0
  0
LINE
  5
170
  8
PEN1
 10
1.4419999999999991
 20
1.476999999999999
 30
0.0
 11
1.3939999999999999
 21
1.431
 31
0.0
  0
LINE
  5
171
  8
PEN1
 10
1.3939999999999999
 20
1.431
 30
0.0
 11
1.381999999999999
 21
1.4339999999999999
 31
0.0
  0
LINE
  5
172
  8
PEN1
 10
1.381999999999999
 20
1.4339999999999999
 30
0.0
 11
1.381
 21
1.4559999999999991
 31
0.0
  0
LINE
  5
173
  8
PEN1
 10
1.381
 20
1.4559999999999991
 30
0.0
 11
1.371999999999999
 21
1.4339999999999999
 31
0.0
  0
LINE
  5
174
  8
PEN1
 10
1.371999999999999
 20
1.4339999999999999
 30
0.0
 11
1.3380000000000001
 21
1.4399999999999991
 31
0.0
  0
LINE
  5
175
  8
PEN1
 10
1.780999999999999
 20
1.4759999999999991
 30
0.0
 11
1.780999999999999
 21
1.4759999999999991
 31
0.0
  0
LINE
  5
176
  8
PEN1
 10
1.780999999999999
 20
1.4759999999999991
 30
0.0
 11
1.8280000000000001
 21
1.52
 31
0.0
  0
LINE
  5
177
  8
PEN1
 10
1.8280000000000001
 20
1.52
 30
0.0
 11
1.796999999999999
 21
1.575999999999999
 31
0.0
  0
LINE
  5
178
  8
PEN1
 10
1.796999999999999
 20
1.575999999999999
 30
0.0
 11
1.841
 21
1.5580000000000001
 31
0.0
  0
LINE
  5
179
  8
PEN1
 10
1.841
 20
1.5580000000000001
 30
0.0
 11
1.9069999999999989
 21
1.641
 31
0.0
  0
LINE
  5
17A
  8
PEN1
 10
1.9069999999999989
 20
1.641
 30
0.0
 11
1.9459999999999991
 21
1.631999999999999
 31
0.0
  0
LINE
  5
17B
  8
PEN1
 10
1.9459999999999991
 20
1.631999999999999
 30
0.0
 11
1.9109999999999989
 21
1.550999999999999
 31
0.0
  0
LINE
  5
17C
  8
PEN1
 10
1.9109999999999989
 20
1.550999999999999
 30
0.0
 11
1.780999999999999
 21
1.4759999999999991
 31
0.0
  0
LINE
  5
17D
  8
PEN1
 10
2.657
 20
1.599
 30
0.0
 11
2.657
 21
1.599
 31
0.0
  0
LINE
  5
17E
  8
PEN1
 10
2.657
 20
1.599
 30
0.0
 11
2.677999999999999
 21
1.649
 31
0.0
  0
LINE
  5
17F
  8
PEN1
 10
2.677999999999999
 20
1.649
 30
0.0
 11
2.726999999999999
 21
1.6009999999999991
 31
0.0
  0
LINE
  5
180
  8
PEN1
 10
2.726999999999999
 20
1.6009999999999991
 30
0.0
 11
2.7539999999999991
 21
1.4619999999999991
 31
0.0
  0
LINE
  5
181
  8
PEN1
 10
2.7539999999999991
 20
1.4619999999999991
 30
0.0
 11
2.657
 21
1.599
 31
0.0
  0
LINE
  5
182
  8
PEN1
 10
2.8050000000000002
 20
1.460999999999999
 30
0.0
 11
2.8050000000000002
 21
1.460999999999999
 31
0.0
  0
LINE
  5
183
  8
PEN1
 10
2.8050000000000002
 20
1.460999999999999
 30
0.0
 11
2.8159999999999998
 21
1.391999999999999
 31
0.0
  0
LINE
  5
184
  8
PEN1
 10
2.8159999999999998
 20
1.391999999999999
 30
0.0
 11
2.8980000000000001
 21
1.3589999999999991
 31
0.0
  0
LINE
  5
185
  8
PEN1
 10
2.8980000000000001
 20
1.3589999999999991
 30
0.0
 11
2.851999999999999
 21
1.4590000000000001
 31
0.0
  0
LINE
  5
186
  8
PEN1
 10
2.851999999999999
 20
1.4590000000000001
 30
0.0
 11
2.8050000000000002
 21
1.460999999999999
 31
0.0
  0
LINE
  5
187
  8
PEN1
 10
2.9100000000000001
 20
1.405999999999999
 30
0.0
 11
2.9100000000000001
 21
1.405999999999999
 31
0.0
  0
LINE
  5
188
  8
PEN1
 10
2.9100000000000001
 20
1.405999999999999
 30
0.0
 11
2.9159999999999999
 21
1.460999999999999
 31
0.0
  0
LINE
  5
189
  8
PEN1
 10
2.9159999999999999
 20
1.460999999999999
 30
0.0
 11
2.9399999999999991
 21
1.4139999999999999
 31
0.0
  0
LINE
  5
18A
  8
PEN1
 10
2.9399999999999991
 20
1.4139999999999999
 30
0.0
 11
2.9100000000000001
 21
1.405999999999999
 31
0.0
  0
LINE
  5
18B
  8
PEN1
 10
1.8609999999999991
 20
3.121999999999999
 30
0.0
 11
1.8609999999999991
 21
3.121999999999999
 31
0.0
  0
LINE
  5
18C
  8
PEN1
 10
1.8609999999999991
 20
3.121999999999999
 30
0.0
 11
1.9369999999999989
 21
3.1869999999999989
 31
0.0
  0
LINE
  5
18D
  8
PEN1
 10
1.9369999999999989
 20
3.1869999999999989
 30
0.0
 11
1.9069999999999989
 21
3.238999999999999
 31
0.0
  0
LINE
  5
18E
  8
PEN1
 10
1.9069999999999989
 20
3.238999999999999
 30
0.0
 11
1.923
 21
3.3139999999999992
 31
0.0
  0
LINE
  5
18F
  8
PEN1
 10
1.923
 20
3.3139999999999992
 30
0.0
 11
1.9990000000000001
 21
3.4419999999999988
 31
0.0
  0
LINE
  5
190
  8
PEN1
 10
1.9990000000000001
 20
3.4419999999999988
 30
0.0
 11
2.0579999999999998
 21
3.4789999999999992
 31
0.0
  0
LINE
  5
191
  8
PEN1
 10
2.0579999999999998
 20
3.4789999999999992
 30
0.0
 11
2.024
 21
3.5239999999999991
 31
0.0
  0
LINE
  5
192
  8
PEN1
 10
2.024
 20
3.5239999999999991
 30
0.0
 11
2.0019999999999989
 21
3.6509999999999998
 31
0.0
  0
LINE
  5
193
  8
PEN1
 10
2.0019999999999989
 20
3.6509999999999998
 30
0.0
 11
2.0269999999999988
 21
3.8780000000000001
 31
0.0
  0
LINE
  5
194
  8
PEN1
 10
2.0269999999999988
 20
3.8780000000000001
 30
0.0
 11
2.0659999999999989
 21
3.891
 31
0.0
  0
LINE
  5
195
  8
PEN1
 10
2.0659999999999989
 20
3.891
 30
0.0
 11
2.1319999999999988
 21
3.851999999999999
 31
0.0
  0
LINE
  5
196
  8
PEN1
 10
2.1319999999999988
 20
3.851999999999999
 30
0.0
 11
2.1890000000000001
 21
4.0539999999999994
 31
0.0
  0
LINE
  5
197
  8
PEN1
 10
2.1890000000000001
 20
4.0539999999999994
 30
0.0
 11
3.036999999999999
 21
3.9089999999999989
 31
0.0
  0
LINE
  5
198
  8
PEN1
 10
3.036999999999999
 20
3.9089999999999989
 30
0.0
 11
2.8589999999999991
 21
2.6909999999999998
 31
0.0
  0
LINE
  5
199
  8
PEN1
 10
2.8589999999999991
 20
2.6909999999999998
 30
0.0
 11
2.6000000000000001
 21
2.7299999999999991
 31
0.0
  0
LINE
  5
19A
  8
PEN1
 10
2.6000000000000001
 20
2.7299999999999991
 30
0.0
 11
2.4369999999999989
 21
2.7769999999999988
 31
0.0
  0
LINE
  5
19B
  8
PEN1
 10
2.4369999999999989
 20
2.7769999999999988
 30
0.0
 11
2.1049999999999991
 21
2.9719999999999991
 31
0.0
  0
LINE
  5
19C
  8
PEN1
 10
2.1049999999999991
 20
2.9719999999999991
 30
0.0
 11
1.8609999999999991
 21
3.121999999999999
 31
0.0
  0
LINE
  5
19D
  8
PEN1
 10
5.5119999999999996
 20
3.637999999999999
 30
0.0
 11
5.5119999999999996
 21
3.637999999999999
 31
0.0
  0
LINE
  5
19E
  8
PEN1
 10
5.5119999999999996
 20
3.637999999999999
 30
0.0
 11
5.5469999999999997
 21
3.395
 31
0.0
  0
LINE
  5
19F
  8
PEN1
 10
5.5469999999999997
 20
3.395
 30
0.0
 11
5.5410000000000004
 21
3.016999999999999
 31
0.0
  0
LINE
  5
1A0
  8
PEN1
 10
5.5410000000000004
 20
3.016999999999999
 30
0.0
 11
5.5579999999999989
 21
2.996
 31
0.0
  0
LINE
  5
1A1
  8
PEN1
 10
5.5579999999999989
 20
2.996
 30
0.0
 11
5.6200000000000001
 21
2.9980000000000002
 31
0.0
  0
LINE
  5
1A2
  8
PEN1
 10
5.6200000000000001
 20
2.9980000000000002
 30
0.0
 11
5.6229999999999993
 21
2.8809999999999998
 31
0.0
  0
LINE
  5
1A3
  8
PEN1
 10
5.6229999999999993
 20
2.8809999999999998
 30
0.0
 11
6.1399999999999988
 21
2.887999999999999
 31
0.0
  0
LINE
  5
1A4
  8
PEN1
 10
6.1399999999999988
 20
2.887999999999999
 30
0.0
 11
6.1289999999999987
 21
3.0069999999999988
 31
0.0
  0
LINE
  5
1A5
  8
PEN1
 10
6.1289999999999987
 20
3.0069999999999988
 30
0.0
 11
6.1739999999999986
 21
3.1360000000000001
 31
0.0
  0
LINE
  5
1A6
  8
PEN1
 10
6.1739999999999986
 20
3.1360000000000001
 30
0.0
 11
6.2379999999999987
 21
3.226999999999999
 31
0.0
  0
LINE
  5
1A7
  8
PEN1
 10
6.2379999999999987
 20
3.226999999999999
 30
0.0
 11
6.2350000000000003
 21
3.2519999999999989
 31
0.0
  0
LINE
  5
1A8
  8
PEN1
 10
6.2350000000000003
 20
3.2519999999999989
 30
0.0
 11
6.2829999999999986
 21
3.331999999999999
 31
0.0
  0
LINE
  5
1A9
  8
PEN1
 10
6.2829999999999986
 20
3.331999999999999
 30
0.0
 11
6.3079999999999989
 21
3.4209999999999998
 31
0.0
  0
LINE
  5
1AA
  8
PEN1
 10
6.3079999999999989
 20
3.4209999999999998
 30
0.0
 11
6.2979999999999992
 21
3.427999999999999
 31
0.0
  0
LINE
  5
1AB
  8
PEN1
 10
6.2979999999999992
 20
3.427999999999999
 30
0.0
 11
6.3419999999999996
 21
3.4619999999999989
 31
0.0
  0
LINE
  5
1AC
  8
PEN1
 10
6.3419999999999996
 20
3.4619999999999989
 30
0.0
 11
6.3810000000000002
 21
3.5409999999999999
 31
0.0
  0
LINE
  5
1AD
  8
PEN1
 10
6.3810000000000002
 20
3.5409999999999999
 30
0.0
 11
6.3679999999999994
 21
3.5579999999999998
 31
0.0
  0
LINE
  5
1AE
  8
PEN1
 10
6.3679999999999994
 20
3.5579999999999998
 30
0.0
 11
6.2519999999999998
 21
3.552
 31
0.0
  0
LINE
  5
1AF
  8
PEN1
 10
6.2519999999999998
 20
3.552
 30
0.0
 11
6.2839999999999989
 21
3.5950000000000002
 31
0.0
  0
LINE
  5
1B0
  8
PEN1
 10
6.2839999999999989
 20
3.5950000000000002
 30
0.0
 11
6.274
 21
3.6629999999999998
 31
0.0
  0
LINE
  5
1B1
  8
PEN1
 10
6.274
 20
3.6629999999999998
 30
0.0
 11
5.5119999999999996
 21
3.637999999999999
 31
0.0
  0
LINE
  5
1B2
  8
PEN1
 10
0.723
 20
5.1040000000000001
 30
0.0
 11
0.723
 21
5.1040000000000001
 31
0.0
  0
LINE
  5
1B3
  8
PEN1
 10
0.723
 20
5.1040000000000001
 30
0.0
 11
0.7400000000000001
 21
5.052999999999999
 31
0.0
  0
LINE
  5
1B4
  8
PEN1
 10
0.7400000000000001
 20
5.052999999999999
 30
0.0
 11
0.7
 21
4.8710000000000004
 31
0.0
  0
LINE
  5
1B5
  8
PEN1
 10
0.7
 20
4.8710000000000004
 30
0.0
 11
0.725
 21
4.8159999999999989
 31
0.0
  0
LINE
  5
1B6
  8
PEN1
 10
0.725
 20
4.8159999999999989
 30
0.0
 11
0.833
 21
4.5750000000000002
 31
0.0
  0
LINE
  5
1B7
  8
PEN1
 10
0.833
 20
4.5750000000000002
 30
0.0
 11
0.8449999999999999
 21
4.581999999999999
 31
0.0
  0
LINE
  5
1B8
  8
PEN1
 10
0.8449999999999999
 20
4.581999999999999
 30
0.0
 11
0.85
 21
4.6349999999999989
 31
0.0
  0
LINE
  5
1B9
  8
PEN1
 10
0.85
 20
4.6349999999999989
 30
0.0
 11
0.8679999999999999
 21
4.6419999999999986
 31
0.0
  0
LINE
  5
1BA
  8
PEN1
 10
0.8679999999999999
 20
4.6419999999999986
 30
0.0
 11
0.8859999999999999
 21
4.6289999999999987
 31
0.0
  0
LINE
  5
1BB
  8
PEN1
 10
0.8859999999999999
 20
4.6289999999999987
 30
0.0
 11
0.854
 21
4.5969999999999986
 31
0.0
  0
LINE
  5
1BC
  8
PEN1
 10
0.854
 20
4.5969999999999986
 30
0.0
 11
0.8669999999999999
 21
4.5789999999999988
 31
0.0
  0
LINE
  5
1BD
  8
PEN1
 10
0.8669999999999999
 20
4.5789999999999988
 30
0.0
 11
0.8949999999999999
 21
4.4749999999999988
 31
0.0
  0
LINE
  5
1BE
  8
PEN1
 10
0.8949999999999999
 20
4.4749999999999988
 30
0.0
 11
0.8769999999999999
 21
4.480999999999999
 31
0.0
  0
LINE
  5
1BF
  8
PEN1
 10
0.8769999999999999
 20
4.480999999999999
 30
0.0
 11
0.839
 21
4.5220000000000002
 31
0.0
  0
LINE
  5
1C0
  8
PEN1
 10
0.839
 20
4.5220000000000002
 30
0.0
 11
0.85
 21
4.5620000000000003
 31
0.0
  0
LINE
  5
1C1
  8
PEN1
 10
0.85
 20
4.5620000000000003
 30
0.0
 11
0.8309999999999999
 21
4.5599999999999987
 31
0.0
  0
LINE
  5
1C2
  8
PEN1
 10
0.8309999999999999
 20
4.5599999999999987
 30
0.0
 11
0.8109999999999999
 21
4.516
 31
0.0
  0
LINE
  5
1C3
  8
PEN1
 10
0.8109999999999999
 20
4.516
 30
0.0
 11
0.817
 21
4.4219999999999988
 31
0.0
  0
LINE
  5
1C4
  8
PEN1
 10
0.817
 20
4.4219999999999988
 30
0.0
 11
0.84
 21
4.3780000000000001
 31
0.0
  0
LINE
  5
1C5
  8
PEN1
 10
0.84
 20
4.3780000000000001
 30
0.0
 11
0.89
 21
4.3410000000000002
 31
0.0
  0
LINE
  5
1C6
  8
PEN1
 10
0.89
 20
4.3410000000000002
 30
0.0
 11
0.872
 21
4.294999999999999
 31
0.0
  0
LINE
  5
1C7
  8
PEN1
 10
0.872
 20
4.294999999999999
 30
0.0
 11
0.8449999999999999
 21
4.286999999999999
 31
0.0
  0
LINE
  5
1C8
  8
PEN1
 10
0.8449999999999999
 20
4.286999999999999
 30
0.0
 11
0.84
 21
4.2270000000000003
 31
0.0
  0
LINE
  5
1C9
  8
PEN1
 10
0.84
 20
4.2270000000000003
 30
0.0
 11
0.907
 21
4.0869999999999989
 31
0.0
  0
LINE
  5
1CA
  8
PEN1
 10
0.907
 20
4.0869999999999989
 30
0.0
 11
0.9599999999999999
 21
4.0
 31
0.0
  0
LINE
  5
1CB
  8
PEN1
 10
0.9599999999999999
 20
4.0
 30
0.0
 11
0.9520000000000001
 21
3.948999999999999
 31
0.0
  0
LINE
  5
1CC
  8
PEN1
 10
0.9520000000000001
 20
3.948999999999999
 30
0.0
 11
0.9840000000000001
 21
3.9169999999999989
 31
0.0
  0
LINE
  5
1CD
  8
PEN1
 10
0.9840000000000001
 20
3.9169999999999989
 30
0.0
 11
0.9709999999999999
 21
3.883
 31
0.0
  0
LINE
  5
1CE
  8
PEN1
 10
0.9709999999999999
 20
3.883
 30
0.0
 11
0.9509999999999999
 21
3.8019999999999992
 31
0.0
  0
LINE
  5
1CF
  8
PEN1
 10
0.9509999999999999
 20
3.8019999999999992
 30
0.0
 11
0.975
 21
3.7709999999999999
 31
0.0
  0
LINE
  5
1D0
  8
PEN1
 10
0.975
 20
3.7709999999999999
 30
0.0
 11
1.1419999999999999
 21
3.7119999999999989
 31
0.0
  0
LINE
  5
1D1
  8
PEN1
 10
1.1419999999999999
 20
3.7119999999999989
 30
0.0
 11
1.2099999999999991
 21
3.621
 31
0.0
  0
LINE
  5
1D2
  8
PEN1
 10
1.2099999999999991
 20
3.621
 30
0.0
 11
1.288
 21
3.589999999999999
 31
0.0
  0
LINE
  5
1D3
  8
PEN1
 10
1.288
 20
3.589999999999999
 30
0.0
 11
1.29
 21
3.5339999999999989
 31
0.0
  0
LINE
  5
1D4
  8
PEN1
 10
1.29
 20
3.5339999999999989
 30
0.0
 11
1.341999999999999
 21
3.52
 31
0.0
  0
LINE
  5
1D5
  8
PEN1
 10
1.341999999999999
 20
3.52
 30
0.0
 11
1.413
 21
3.4260000000000002
 31
0.0
  0
LINE
  5
1D6
  8
PEN1
 10
1.413
 20
3.4260000000000002
 30
0.0
 11
1.450999999999999
 21
3.343999999999999
 31
0.0
  0
LINE
  5
1D7
  8
PEN1
 10
1.450999999999999
 20
3.343999999999999
 30
0.0
 11
1.4530000000000001
 21
3.2179999999999991
 31
0.0
  0
LINE
  5
1D8
  8
PEN1
 10
1.4530000000000001
 20
3.2179999999999991
 30
0.0
 11
1.9369999999999989
 21
3.1869999999999989
 31
0.0
  0
LINE
  5
1D9
  8
PEN1
 10
1.9369999999999989
 20
3.1869999999999989
 30
0.0
 11
1.9069999999999989
 21
3.238999999999999
 31
0.0
  0
LINE
  5
1DA
  8
PEN1
 10
1.9069999999999989
 20
3.238999999999999
 30
0.0
 11
1.923
 21
3.3139999999999992
 31
0.0
  0
LINE
  5
1DB
  8
PEN1
 10
1.923
 20
3.3139999999999992
 30
0.0
 11
1.9990000000000001
 21
3.4419999999999988
 31
0.0
  0
LINE
  5
1DC
  8
PEN1
 10
1.9990000000000001
 20
3.4419999999999988
 30
0.0
 11
2.0579999999999998
 21
3.4789999999999992
 31
0.0
  0
LINE
  5
1DD
  8
PEN1
 10
2.0579999999999998
 20
3.4789999999999992
 30
0.0
 11
2.024
 21
3.5239999999999991
 31
0.0
  0
LINE
  5
1DE
  8
PEN1
 10
2.024
 20
3.5239999999999991
 30
0.0
 11
2.0019999999999989
 21
3.6509999999999998
 31
0.0
  0
LINE
  5
1DF
  8
PEN1
 10
2.0019999999999989
 20
3.6509999999999998
 30
0.0
 11
1.3549999999999991
 21
4.6260000000000003
 31
0.0
  0
LINE
  5
1E0
  8
PEN1
 10
1.3549999999999991
 20
4.6260000000000003
 30
0.0
 11
1.304999999999999
 21
4.7240000000000002
 31
0.0
  0
LINE
  5
1E1
  8
PEN1
 10
1.304999999999999
 20
4.7240000000000002
 30
0.0
 11
1.468
 21
5.3470000000000004
 31
0.0
  0
LINE
  5
1E2
  8
PEN1
 10
1.468
 20
5.3470000000000004
 30
0.0
 11
0.823
 21
5.5279999999999987
 31
0.0
  0
LINE
  5
1E3
  8
PEN1
 10
0.823
 20
5.5279999999999987
 30
0.0
 11
0.8040000000000001
 21
5.4909999999999997
 31
0.0
  0
LINE
  5
1E4
  8
PEN1
 10
0.8040000000000001
 20
5.4909999999999997
 30
0.0
 11
0.8100000000000001
 21
5.4100000000000001
 31
0.0
  0
LINE
  5
1E5
  8
PEN1
 10
0.8100000000000001
 20
5.4100000000000001
 30
0.0
 11
0.691
 21
5.2160000000000002
 31
0.0
  0
LINE
  5
1E6
  8
PEN1
 10
0.691
 20
5.2160000000000002
 30
0.0
 11
0.723
 21
5.1040000000000001
 31
0.0
  0
LINE
  5
1E7
  8
PEN1
 10
3.036999999999999
 20
3.9089999999999989
 30
0.0
 11
3.036999999999999
 21
3.9089999999999989
 31
0.0
  0
LINE
  5
1E8
  8
PEN1
 10
3.036999999999999
 20
3.9089999999999989
 30
0.0
 11
3.1600000000000001
 21
4.7759999999999989
 31
0.0
  0
LINE
  5
1E9
  8
PEN1
 10
3.1600000000000001
 20
4.7759999999999989
 30
0.0
 11
3.9670000000000001
 21
4.6840000000000002
 31
0.0
  0
LINE
  5
1EA
  8
PEN1
 10
3.9670000000000001
 20
4.6840000000000002
 30
0.0
 11
4.2919999999999989
 21
4.657
 31
0.0
  0
LINE
  5
1EB
  8
PEN1
 10
4.2919999999999989
 20
4.657
 30
0.0
 11
4.2779999999999996
 21
4.4409999999999989
 31
0.0
  0
LINE
  5
1EC
  8
PEN1
 10
4.2779999999999996
 20
4.4409999999999989
 30
0.0
 11
4.2339999999999991
 21
3.7839999999999989
 31
0.0
  0
LINE
  5
1ED
  8
PEN1
 10
4.2339999999999991
 20
3.7839999999999989
 30
0.0
 11
4.0700000000000003
 21
3.7959999999999998
 31
0.0
  0
LINE
  5
1EE
  8
PEN1
 10
4.0700000000000003
 20
3.7959999999999998
 30
0.0
 11
3.5550000000000002
 21
3.8410000000000002
 31
0.0
  0
LINE
  5
1EF
  8
PEN1
 10
3.5550000000000002
 20
3.8410000000000002
 30
0.0
 11
3.036999999999999
 21
3.9089999999999989
 31
0.0
  0
LINE
  5
1F0
  8
PEN1
 10
8.8599999999999994
 20
5.2560000000000002
 30
0.0
 11
8.8599999999999994
 21
5.2560000000000002
 31
0.0
  0
LINE
  5
1F1
  8
PEN1
 10
8.8599999999999994
 20
5.2560000000000002
 30
0.0
 11
8.8849999999999998
 21
5.1089999999999991
 31
0.0
  0
LINE
  5
1F2
  8
PEN1
 10
8.8849999999999998
 20
5.1089999999999991
 30
0.0
 11
8.8840000000000003
 21
5.032
 31
0.0
  0
LINE
  5
1F3
  8
PEN1
 10
8.8840000000000003
 20
5.032
 30
0.0
 11
8.9079999999999995
 21
5.0389999999999988
 31
0.0
  0
LINE
  5
1F4
  8
PEN1
 10
8.9079999999999995
 20
5.0389999999999988
 30
0.0
 11
8.9209999999999994
 21
5.0609999999999991
 31
0.0
  0
LINE
  5
1F5
  8
PEN1
 10
8.9209999999999994
 20
5.0609999999999991
 30
0.0
 11
8.9640000000000004
 21
5.0780000000000003
 31
0.0
  0
LINE
  5
1F6
  8
PEN1
 10
8.9640000000000004
 20
5.0780000000000003
 30
0.0
 11
8.9839999999999982
 21
5.1169999999999991
 31
0.0
  0
LINE
  5
1F7
  8
PEN1
 10
8.9839999999999982
 20
5.1169999999999991
 30
0.0
 11
8.9949999999999992
 21
5.1089999999999991
 31
0.0
  0
LINE
  5
1F8
  8
PEN1
 10
8.9949999999999992
 20
5.1089999999999991
 30
0.0
 11
9.0279999999999987
 21
5.1219999999999999
 31
0.0
  0
LINE
  5
1F9
  8
PEN1
 10
9.0279999999999987
 20
5.1219999999999999
 30
0.0
 11
9.0719999999999992
 21
5.1310000000000002
 31
0.0
  0
LINE
  5
1FA
  8
PEN1
 10
9.0719999999999992
 20
5.1310000000000002
 30
0.0
 11
9.0749999999999993
 21
5.145999999999999
 31
0.0
  0
LINE
  5
1FB
  8
PEN1
 10
9.0749999999999993
 20
5.145999999999999
 30
0.0
 11
9.0879999999999992
 21
5.137999999999999
 31
0.0
  0
LINE
  5
1FC
  8
PEN1
 10
9.0879999999999992
 20
5.137999999999999
 30
0.0
 11
9.1020000000000003
 21
5.1509999999999989
 31
0.0
  0
LINE
  5
1FD
  8
PEN1
 10
9.1020000000000003
 20
5.1509999999999989
 30
0.0
 11
9.1259999999999994
 21
5.1550000000000002
 31
0.0
  0
LINE
  5
1FE
  8
PEN1
 10
9.1259999999999994
 20
5.1550000000000002
 30
0.0
 11
9.1560000000000006
 21
5.169999999999999
 31
0.0
  0
LINE
  5
1FF
  8
PEN1
 10
9.1560000000000006
 20
5.169999999999999
 30
0.0
 11
9.1280000000000001
 21
5.3129999999999988
 31
0.0
  0
LINE
  5
200
  8
PEN1
 10
9.1280000000000001
 20
5.3129999999999988
 30
0.0
 11
8.8599999999999994
 21
5.2560000000000002
 31
0.0
  0
LINE
  5
201
  8
PEN1
 10
8.6039999999999992
 20
4.6789999999999994
 30
0.0
 11
8.6039999999999992
 21
4.6789999999999994
 31
0.0
  0
LINE
  5
202
  8
PEN1
 10
8.6039999999999992
 20
4.6789999999999994
 30
0.0
 11
8.6280000000000001
 21
4.7089999999999987
 31
0.0
  0
LINE
  5
203
  8
PEN1
 10
8.6280000000000001
 20
4.7089999999999987
 30
0.0
 11
8.6630000000000003
 21
4.7089999999999987
 31
0.0
  0
LINE
  5
204
  8
PEN1
 10
8.6630000000000003
 20
4.7089999999999987
 30
0.0
 11
8.6509999999999998
 21
4.677999999999999
 31
0.0
  0
LINE
  5
205
  8
PEN1
 10
8.6509999999999998
 20
4.677999999999999
 30
0.0
 11
8.641
 21
4.6669999999999989
 31
0.0
  0
LINE
  5
206
  8
PEN1
 10
8.641
 20
4.6669999999999989
 30
0.0
 11
8.6479999999999997
 21
4.6339999999999986
 31
0.0
  0
LINE
  5
207
  8
PEN1
 10
8.6479999999999997
 20
4.6339999999999986
 30
0.0
 11
8.6660000000000004
 21
4.6120000000000001
 31
0.0
  0
LINE
  5
208
  8
PEN1
 10
8.6660000000000004
 20
4.6120000000000001
 30
0.0
 11
8.6920000000000002
 21
4.5869999999999989
 31
0.0
  0
LINE
  5
209
  8
PEN1
 10
8.6920000000000002
 20
4.5869999999999989
 30
0.0
 11
8.6999999999999993
 21
4.5519999999999987
 31
0.0
  0
LINE
  5
20A
  8
PEN1
 10
8.6999999999999993
 20
4.5519999999999987
 30
0.0
 11
8.7189999999999994
 21
4.5279999999999996
 31
0.0
  0
LINE
  5
20B
  8
PEN1
 10
8.7189999999999994
 20
4.5279999999999996
 30
0.0
 11
8.7349999999999994
 21
4.5110000000000001
 31
0.0
  0
LINE
  5
20C
  8
PEN1
 10
8.7349999999999994
 20
4.5110000000000001
 30
0.0
 11
8.7629999999999981
 21
4.5010000000000003
 31
0.0
  0
LINE
  5
20D
  8
PEN1
 10
8.7629999999999981
 20
4.5010000000000003
 30
0.0
 11
8.7759999999999998
 21
4.4740000000000002
 31
0.0
  0
LINE
  5
20E
  8
PEN1
 10
8.7759999999999998
 20
4.4740000000000002
 30
0.0
 11
8.7530000000000001
 21
4.4509999999999996
 31
0.0
  0
LINE
  5
20F
  8
PEN1
 10
8.7530000000000001
 20
4.4509999999999996
 30
0.0
 11
8.777000000000001
 21
4.4560000000000004
 31
0.0
  0
LINE
  5
210
  8
PEN1
 10
8.777000000000001
 20
4.4560000000000004
 30
0.0
 11
8.7839999999999971
 21
4.4329999999999989
 31
0.0
  0
LINE
  5
211
  8
PEN1
 10
8.7839999999999971
 20
4.4329999999999989
 30
0.0
 11
8.7360000000000007
 21
4.423
 31
0.0
  0
LINE
  5
212
  8
PEN1
 10
8.7360000000000007
 20
4.423
 30
0.0
 11
8.6750000000000007
 21
4.4109999999999996
 31
0.0
  0
LINE
  5
213
  8
PEN1
 10
8.6750000000000007
 20
4.4109999999999996
 30
0.0
 11
8.6709999999999994
 21
4.4319999999999986
 31
0.0
  0
LINE
  5
214
  8
PEN1
 10
8.6709999999999994
 20
4.4319999999999986
 30
0.0
 11
8.6039999999999992
 21
4.6789999999999994
 31
0.0
  0
LINE
  5
215
  8
PEN1
 10
8.4199999999999982
 20
4.4669999999999987
 30
0.0
 11
8.4199999999999982
 21
4.4669999999999987
 31
0.0
  0
LINE
  5
216
  8
PEN1
 10
8.4199999999999982
 20
4.4669999999999987
 30
0.0
 11
8.4379999999999988
 21
4.4770000000000003
 31
0.0
  0
LINE
  5
217
  8
PEN1
 10
8.4379999999999988
 20
4.4770000000000003
 30
0.0
 11
8.4480000000000004
 21
4.4560000000000004
 31
0.0
  0
LINE
  5
218
  8
PEN1
 10
8.4480000000000004
 20
4.4560000000000004
 30
0.0
 11
8.4390000000000001
 21
4.4400000000000004
 31
0.0
  0
LINE
  5
219
  8
PEN1
 10
8.4390000000000001
 20
4.4400000000000004
 30
0.0
 11
8.4199999999999982
 21
4.4669999999999987
 31
0.0
  0
LINE
  5
21A
  8
PEN1
 10
6.827
 20
2.4990000000000001
 30
0.0
 11
6.827
 21
2.4990000000000001
 31
0.0
  0
LINE
  5
21B
  8
PEN1
 10
6.827
 20
2.4990000000000001
 30
0.0
 11
6.823999999999999
 21
2.4659999999999989
 31
0.0
  0
LINE
  5
21C
  8
PEN1
 10
6.823999999999999
 20
2.4659999999999989
 30
0.0
 11
6.8689999999999989
 21
2.423
 31
0.0
  0
LINE
  5
21D
  8
PEN1
 10
6.8689999999999989
 20
2.423
 30
0.0
 11
6.8609999999999998
 21
2.3969999999999989
 31
0.0
  0
LINE
  5
21E
  8
PEN1
 10
6.8609999999999998
 20
2.3969999999999989
 30
0.0
 11
6.8760000000000003
 21
2.379999999999999
 31
0.0
  0
LINE
  5
21F
  8
PEN1
 10
6.8760000000000003
 20
2.379999999999999
 30
0.0
 11
6.8570000000000002
 21
2.3500000000000001
 31
0.0
  0
LINE
  5
220
  8
PEN1
 10
6.8570000000000002
 20
2.3500000000000001
 30
0.0
 11
6.891
 21
2.3650000000000002
 31
0.0
  0
LINE
  5
221
  8
PEN1
 10
6.891
 20
2.3650000000000002
 30
0.0
 11
6.9119999999999999
 21
2.3860000000000001
 31
0.0
  0
LINE
  5
222
  8
PEN1
 10
6.9119999999999999
 20
2.3860000000000001
 30
0.0
 11
6.9100000000000001
 21
2.4100000000000001
 31
0.0
  0
LINE
  5
223
  8
PEN1
 10
6.9100000000000001
 20
2.4100000000000001
 30
0.0
 11
6.9260000000000002
 21
2.395
 31
0.0
  0
LINE
  5
224
  8
PEN1
 10
6.9260000000000002
 20
2.395
 30
0.0
 11
6.9400000000000004
 21
2.415999999999999
 31
0.0
  0
LINE
  5
225
  8
PEN1
 10
6.9400000000000004
 20
2.415999999999999
 30
0.0
 11
6.9529999999999994
 21
2.3980000000000001
 31
0.0
  0
LINE
  5
226
  8
PEN1
 10
6.9529999999999994
 20
2.3980000000000001
 30
0.0
 11
6.9169999999999998
 21
2.3700000000000001
 31
0.0
  0
LINE
  5
227
  8
PEN1
 10
6.9169999999999998
 20
2.3700000000000001
 30
0.0
 11
7.0190000000000001
 21
2.3929999999999998
 31
0.0
  0
LINE
  5
228
  8
PEN1
 10
7.0190000000000001
 20
2.3929999999999998
 30
0.0
 11
7.04
 21
2.4140000000000001
 31
0.0
  0
LINE
  5
229
  8
PEN1
 10
7.04
 20
2.4140000000000001
 30
0.0
 11
7.052999999999999
 21
2.4060000000000001
 31
0.0
  0
LINE
  5
22A
  8
PEN1
 10
7.052999999999999
 20
2.4060000000000001
 30
0.0
 11
7.0910000000000002
 21
2.415
 31
0.0
  0
LINE
  5
22B
  8
PEN1
 10
7.0910000000000002
 20
2.415
 30
0.0
 11
7.1100000000000003
 21
2.403
 31
0.0
  0
LINE
  5
22C
  8
PEN1
 10
7.1100000000000003
 20
2.403
 30
0.0
 11
7.0410000000000004
 21
2.395
 31
0.0
  0
LINE
  5
22D
  8
PEN1
 10
7.0410000000000004
 20
2.395
 30
0.0
 11
7.0620000000000003
 21
2.387999999999999
 31
0.0
  0
LINE
  5
22E
  8
PEN1
 10
7.0620000000000003
 20
2.387999999999999
 30
0.0
 11
7.1399999999999988
 21
2.3709999999999991
 31
0.0
  0
LINE
  5
22F
  8
PEN1
 10
7.1399999999999988
 20
2.3709999999999991
 30
0.0
 11
7.1879999999999988
 21
2.3450000000000002
 31
0.0
  0
LINE
  5
230
  8
PEN1
 10
7.1879999999999988
 20
2.3450000000000002
 30
0.0
 11
7.1749999999999989
 21
2.3819999999999988
 31
0.0
  0
LINE
  5
231
  8
PEN1
 10
7.1749999999999989
 20
2.3819999999999988
 30
0.0
 11
7.1970000000000001
 21
2.3530000000000002
 31
0.0
  0
LINE
  5
232
  8
PEN1
 10
7.1970000000000001
 20
2.3530000000000002
 30
0.0
 11
7.2300000000000004
 21
2.3490000000000002
 31
0.0
  0
LINE
  5
233
  8
PEN1
 10
7.2300000000000004
 20
2.3490000000000002
 30
0.0
 11
7.202
 21
2.339999999999999
 31
0.0
  0
LINE
  5
234
  8
PEN1
 10
7.202
 20
2.339999999999999
 30
0.0
 11
7.2560000000000002
 21
2.3119999999999989
 31
0.0
  0
LINE
  5
235
  8
PEN1
 10
7.2560000000000002
 20
2.3119999999999989
 30
0.0
 11
7.2750000000000004
 21
2.2879999999999998
 31
0.0
  0
LINE
  5
236
  8
PEN1
 10
7.2750000000000004
 20
2.2879999999999998
 30
0.0
 11
7.274
 21
2.262
 31
0.0
  0
LINE
  5
237
  8
PEN1
 10
7.274
 20
2.262
 30
0.0
 11
7.2529999999999992
 21
2.294
 31
0.0
  0
LINE
  5
238
  8
PEN1
 10
7.2529999999999992
 20
2.294
 30
0.0
 11
7.2649999999999988
 21
2.2530000000000001
 31
0.0
  0
LINE
  5
239
  8
PEN1
 10
7.2649999999999988
 20
2.2530000000000001
 30
0.0
 11
7.3070000000000004
 21
2.2690000000000001
 31
0.0
  0
LINE
  5
23A
  8
PEN1
 10
7.3070000000000004
 20
2.2690000000000001
 30
0.0
 11
7.3349999999999991
 21
2.270999999999999
 31
0.0
  0
LINE
  5
23B
  8
PEN1
 10
7.3349999999999991
 20
2.270999999999999
 30
0.0
 11
7.3520000000000003
 21
2.29
 31
0.0
  0
LINE
  5
23C
  8
PEN1
 10
7.3520000000000003
 20
2.29
 30
0.0
 11
7.3600000000000003
 21
2.278
 31
0.0
  0
LINE
  5
23D
  8
PEN1
 10
7.3600000000000003
 20
2.278
 30
0.0
 11
7.4160000000000004
 21
2.319999999999999
 31
0.0
  0
LINE
  5
23E
  8
PEN1
 10
7.4160000000000004
 20
2.319999999999999
 30
0.0
 11
7.4529999999999994
 21
2.3220000000000001
 31
0.0
  0
LINE
  5
23F
  8
PEN1
 10
7.4529999999999994
 20
2.3220000000000001
 30
0.0
 11
7.4400000000000004
 21
2.335999999999999
 31
0.0
  0
LINE
  5
240
  8
PEN1
 10
7.4400000000000004
 20
2.335999999999999
 30
0.0
 11
7.464999999999999
 21
2.3690000000000002
 31
0.0
  0
LINE
  5
241
  8
PEN1
 10
7.464999999999999
 20
2.3690000000000002
 30
0.0
 11
7.5199999999999987
 21
2.371999999999999
 31
0.0
  0
LINE
  5
242
  8
PEN1
 10
7.5199999999999987
 20
2.371999999999999
 30
0.0
 11
7.5779999999999994
 21
2.343999999999999
 31
0.0
  0
LINE
  5
243
  8
PEN1
 10
7.5779999999999994
 20
2.343999999999999
 30
0.0
 11
7.6109999999999998
 21
2.302
 31
0.0
  0
LINE
  5
244
  8
PEN1
 10
7.6109999999999998
 20
2.302
 30
0.0
 11
7.6389999999999993
 21
2.2930000000000001
 31
0.0
  0
LINE
  5
245
  8
PEN1
 10
7.6389999999999993
 20
2.2930000000000001
 30
0.0
 11
7.6470000000000002
 21
2.262
 31
0.0
  0
LINE
  5
246
  8
PEN1
 10
7.6470000000000002
 20
2.262
 30
0.0
 11
7.6829999999999989
 21
2.2440000000000002
 31
0.0
  0
LINE
  5
247
  8
PEN1
 10
7.6829999999999989
 20
2.2440000000000002
 30
0.0
 11
7.6970000000000001
 21
2.2210000000000001
 31
0.0
  0
LINE
  5
248
  8
PEN1
 10
7.6970000000000001
 20
2.2210000000000001
 30
0.0
 11
7.7160000000000002
 21
2.2019999999999991
 31
0.0
  0
LINE
  5
249
  8
PEN1
 10
7.7160000000000002
 20
2.2019999999999991
 30
0.0
 11
7.766
 21
2.2000000000000002
 31
0.0
  0
LINE
  5
24A
  8
PEN1
 10
7.766
 20
2.2000000000000002
 30
0.0
 11
7.7850000000000001
 21
2.1669999999999989
 31
0.0
  0
LINE
  5
24B
  8
PEN1
 10
7.7850000000000001
 20
2.1669999999999989
 30
0.0
 11
7.8120000000000003
 21
2.1040000000000001
 31
0.0
  0
LINE
  5
24C
  8
PEN1
 10
7.8120000000000003
 20
2.1040000000000001
 30
0.0
 11
7.7969999999999997
 21
1.986999999999999
 31
0.0
  0
LINE
  5
24D
  8
PEN1
 10
7.7969999999999997
 20
1.986999999999999
 30
0.0
 11
7.8010000000000002
 21
1.915
 31
0.0
  0
LINE
  5
24E
  8
PEN1
 10
7.8010000000000002
 20
1.915
 30
0.0
 11
7.8319999999999999
 21
1.8929999999999989
 31
0.0
  0
LINE
  5
24F
  8
PEN1
 10
7.8319999999999999
 20
1.8929999999999989
 30
0.0
 11
7.8379999999999992
 21
1.9269999999999989
 31
0.0
  0
LINE
  5
250
  8
PEN1
 10
7.8379999999999992
 20
1.9269999999999989
 30
0.0
 11
7.8170000000000002
 21
1.9379999999999999
 31
0.0
  0
LINE
  5
251
  8
PEN1
 10
7.8170000000000002
 20
1.9379999999999999
 30
0.0
 11
7.8200000000000003
 21
1.9619999999999991
 31
0.0
  0
LINE
  5
252
  8
PEN1
 10
7.8200000000000003
 20
1.9619999999999991
 30
0.0
 11
7.8289999999999988
 21
1.9559999999999991
 31
0.0
  0
LINE
  5
253
  8
PEN1
 10
7.8289999999999988
 20
1.9559999999999991
 30
0.0
 11
7.8520000000000003
 21
1.948
 31
0.0
  0
LINE
  5
254
  8
PEN1
 10
7.8520000000000003
 20
1.948
 30
0.0
 11
7.8579999999999988
 21
1.925
 31
0.0
  0
LINE
  5
255
  8
PEN1
 10
7.8579999999999988
 20
1.925
 30
0.0
 11
7.8719999999999999
 21
1.950999999999999
 31
0.0
  0
LINE
  5
256
  8
PEN1
 10
7.8719999999999999
 20
1.950999999999999
 30
0.0
 11
7.8849999999999989
 21
1.9279999999999999
 31
0.0
  0
LINE
  5
257
  8
PEN1
 10
7.8849999999999989
 20
1.9279999999999999
 30
0.0
 11
7.8419999999999996
 21
1.853
 31
0.0
  0
LINE
  5
258
  8
PEN1
 10
7.8419999999999996
 20
1.853
 30
0.0
 11
7.839999999999999
 21
1.8400000000000001
 31
0.0
  0
LINE
  5
259
  8
PEN1
 10
7.839999999999999
 20
1.8400000000000001
 30
0.0
 11
7.8650000000000002
 21
1.825
 31
0.0
  0
LINE
  5
25A
  8
PEN1
 10
7.8650000000000002
 20
1.825
 30
0.0
 11
7.8889999999999993
 21
1.766
 31
0.0
  0
LINE
  5
25B
  8
PEN1
 10
7.8889999999999993
 20
1.766
 30
0.0
 11
7.919999999999999
 21
1.7359999999999991
 31
0.0
  0
LINE
  5
25C
  8
PEN1
 10
7.919999999999999
 20
1.7359999999999991
 30
0.0
 11
7.9349999999999987
 21
1.7150000000000001
 31
0.0
  0
LINE
  5
25D
  8
PEN1
 10
7.9349999999999987
 20
1.7150000000000001
 30
0.0
 11
7.9589999999999987
 21
1.7150000000000001
 31
0.0
  0
LINE
  5
25E
  8
PEN1
 10
7.9589999999999987
 20
1.7150000000000001
 30
0.0
 11
7.9340000000000002
 21
1.75
 31
0.0
  0
LINE
  5
25F
  8
PEN1
 10
7.9340000000000002
 20
1.75
 30
0.0
 11
7.9539999999999988
 21
1.7439999999999991
 31
0.0
  0
LINE
  5
260
  8
PEN1
 10
7.9539999999999988
 20
1.7439999999999991
 30
0.0
 11
7.9779999999999989
 21
1.750999999999999
 31
0.0
  0
LINE
  5
261
  8
PEN1
 10
7.9779999999999989
 20
1.750999999999999
 30
0.0
 11
7.9660000000000002
 21
1.7359999999999991
 31
0.0
  0
LINE
  5
262
  8
PEN1
 10
7.9660000000000002
 20
1.7359999999999991
 30
0.0
 11
7.9759999999999991
 21
1.7050000000000001
 31
0.0
  0
LINE
  5
263
  8
PEN1
 10
7.9759999999999991
 20
1.7050000000000001
 30
0.0
 11
7.9870000000000001
 21
1.663
 31
0.0
  0
LINE
  5
264
  8
PEN1
 10
7.9870000000000001
 20
1.663
 30
0.0
 11
8.0250000000000004
 21
1.645
 31
0.0
  0
LINE
  5
265
  8
PEN1
 10
8.0250000000000004
 20
1.645
 30
0.0
 11
8.0339999999999971
 21
1.6189999999999991
 31
0.0
  0
LINE
  5
266
  8
PEN1
 10
8.0339999999999971
 20
1.6189999999999991
 30
0.0
 11
8.0660000000000007
 21
1.5389999999999999
 31
0.0
  0
LINE
  5
267
  8
PEN1
 10
8.0660000000000007
 20
1.5389999999999999
 30
0.0
 11
8.1059999999999999
 21
1.5389999999999999
 31
0.0
  0
LINE
  5
268
  8
PEN1
 10
8.1059999999999999
 20
1.5389999999999999
 30
0.0
 11
8.141
 21
1.52
 31
0.0
  0
LINE
  5
269
  8
PEN1
 10
8.141
 20
1.52
 30
0.0
 11
8.1989999999999998
 21
1.4419999999999991
 31
0.0
  0
LINE
  5
26A
  8
PEN1
 10
8.1989999999999998
 20
1.4419999999999991
 30
0.0
 11
8.2469999999999999
 21
1.4339999999999999
 31
0.0
  0
LINE
  5
26B
  8
PEN1
 10
8.2469999999999999
 20
1.4339999999999999
 30
0.0
 11
8.2479999999999993
 21
1.419
 31
0.0
  0
LINE
  5
26C
  8
PEN1
 10
8.2479999999999993
 20
1.419
 30
0.0
 11
8.2360000000000007
 21
1.409999999999999
 31
0.0
  0
LINE
  5
26D
  8
PEN1
 10
8.2360000000000007
 20
1.409999999999999
 30
0.0
 11
8.1989999999999998
 21
1.425
 31
0.0
  0
LINE
  5
26E
  8
PEN1
 10
8.1989999999999998
 20
1.425
 30
0.0
 11
8.2110000000000003
 21
1.391999999999999
 31
0.0
  0
LINE
  5
26F
  8
PEN1
 10
8.2110000000000003
 20
1.391999999999999
 30
0.0
 11
8.2560000000000002
 21
1.4039999999999999
 31
0.0
  0
LINE
  5
270
  8
PEN1
 10
8.2560000000000002
 20
1.4039999999999999
 30
0.0
 11
8.2929999999999993
 21
1.405
 31
0.0
  0
LINE
  5
271
  8
PEN1
 10
8.2929999999999993
 20
1.405
 30
0.0
 11
8.3129999999999988
 21
1.425
 31
0.0
  0
LINE
  5
272
  8
PEN1
 10
8.3129999999999988
 20
1.425
 30
0.0
 11
8.3439999999999994
 21
1.4269999999999989
 31
0.0
  0
LINE
  5
273
  8
PEN1
 10
8.3439999999999994
 20
1.4269999999999989
 30
0.0
 11
8.3620000000000001
 21
1.4619999999999991
 31
0.0
  0
LINE
  5
274
  8
PEN1
 10
8.3620000000000001
 20
1.4619999999999991
 30
0.0
 11
8.3550000000000004
 21
1.5099999999999989
 31
0.0
  0
LINE
  5
275
  8
PEN1
 10
8.3550000000000004
 20
1.5099999999999989
 30
0.0
 11
8.3710000000000004
 21
1.5640000000000001
 31
0.0
  0
LINE
  5
276
  8
PEN1
 10
8.3710000000000004
 20
1.5640000000000001
 30
0.0
 11
8.386000000000001
 21
1.5580000000000001
 31
0.0
  0
LINE
  5
277
  8
PEN1
 10
8.386000000000001
 20
1.5580000000000001
 30
0.0
 11
8.3719999999999999
 21
1.748
 31
0.0
  0
LINE
  5
278
  8
PEN1
 10
8.3719999999999999
 20
1.748
 30
0.0
 11
8.3550000000000004
 21
1.804999999999999
 31
0.0
  0
LINE
  5
279
  8
PEN1
 10
8.3550000000000004
 20
1.804999999999999
 30
0.0
 11
8.1859999999999982
 21
2.0800000000000001
 31
0.0
  0
LINE
  5
27A
  8
PEN1
 10
8.1859999999999982
 20
2.0800000000000001
 30
0.0
 11
8.1470000000000002
 21
2.169
 31
0.0
  0
LINE
  5
27B
  8
PEN1
 10
8.1470000000000002
 20
2.169
 30
0.0
 11
8.1639999999999997
 21
2.169
 31
0.0
  0
LINE
  5
27C
  8
PEN1
 10
8.1639999999999997
 20
2.169
 30
0.0
 11
8.0540000000000003
 21
2.3450000000000002
 31
0.0
  0
LINE
  5
27D
  8
PEN1
 10
8.0540000000000003
 20
2.3450000000000002
 30
0.0
 11
7.9779999999999989
 21
2.528
 31
0.0
  0
LINE
  5
27E
  8
PEN1
 10
7.9779999999999989
 20
2.528
 30
0.0
 11
7.972999999999999
 21
2.5600000000000001
 31
0.0
  0
LINE
  5
27F
  8
PEN1
 10
7.972999999999999
 20
2.5600000000000001
 30
0.0
 11
7.9529999999999994
 21
2.5649999999999991
 31
0.0
  0
LINE
  5
280
  8
PEN1
 10
7.9529999999999994
 20
2.5649999999999991
 30
0.0
 11
7.8810000000000002
 21
2.5779999999999998
 31
0.0
  0
LINE
  5
281
  8
PEN1
 10
7.8810000000000002
 20
2.5779999999999998
 30
0.0
 11
7.8609999999999998
 21
2.5550000000000002
 31
0.0
  0
LINE
  5
282
  8
PEN1
 10
7.8609999999999998
 20
2.5550000000000002
 30
0.0
 11
7.8729999999999993
 21
2.4750000000000001
 31
0.0
  0
LINE
  5
283
  8
PEN1
 10
7.8729999999999993
 20
2.4750000000000001
 30
0.0
 11
7.8419999999999996
 21
2.4780000000000002
 31
0.0
  0
LINE
  5
284
  8
PEN1
 10
7.8419999999999996
 20
2.4780000000000002
 30
0.0
 11
7.8360000000000003
 21
2.5139999999999998
 31
0.0
  0
LINE
  5
285
  8
PEN1
 10
7.8360000000000003
 20
2.5139999999999998
 30
0.0
 11
7.3410000000000002
 21
2.484999999999999
 31
0.0
  0
LINE
  5
286
  8
PEN1
 10
7.3410000000000002
 20
2.484999999999999
 30
0.0
 11
7.306
 21
2.5430000000000001
 31
0.0
  0
LINE
  5
287
  8
PEN1
 10
7.306
 20
2.5430000000000001
 30
0.0
 11
6.827
 21
2.4990000000000001
 31
0.0
  0
LINE
  5
288
  8
PEN1
 10
8.1150000000000002
 20
1.2490000000000001
 30
0.0
 11
8.1150000000000002
 21
1.2490000000000001
 31
0.0
  0
LINE
  5
289
  8
PEN1
 10
8.1150000000000002
 20
1.2490000000000001
 30
0.0
 11
8.1199999999999992
 21
1.2789999999999999
 31
0.0
  0
LINE
  5
28A
  8
PEN1
 10
8.1199999999999992
 20
1.2789999999999999
 30
0.0
 11
8.1470000000000002
 21
1.2829999999999999
 31
0.0
  0
LINE
  5
28B
  8
PEN1
 10
8.1470000000000002
 20
1.2829999999999999
 30
0.0
 11
8.1500000000000004
 21
1.304
 31
0.0
  0
LINE
  5
28C
  8
PEN1
 10
8.1500000000000004
 20
1.304
 30
0.0
 11
8.1939999999999991
 21
1.280999999999999
 31
0.0
  0
LINE
  5
28D
  8
PEN1
 10
8.1939999999999991
 20
1.280999999999999
 30
0.0
 11
8.1509999999999998
 21
1.2669999999999999
 31
0.0
  0
LINE
  5
28E
  8
PEN1
 10
8.1509999999999998
 20
1.2669999999999999
 30
0.0
 11
8.1300000000000008
 21
1.272999999999999
 31
0.0
  0
LINE
  5
28F
  8
PEN1
 10
8.1300000000000008
 20
1.272999999999999
 30
0.0
 11
8.1370000000000005
 21
1.2589999999999999
 31
0.0
  0
LINE
  5
290
  8
PEN1
 10
8.1370000000000005
 20
1.2589999999999999
 30
0.0
 11
8.1150000000000002
 21
1.2490000000000001
 31
0.0
  0
LINE
  5
291
  8
PEN1
 10
8.2260000000000009
 20
1.296999999999999
 30
0.0
 11
8.2260000000000009
 21
1.296999999999999
 31
0.0
  0
LINE
  5
292
  8
PEN1
 10
8.2260000000000009
 20
1.296999999999999
 30
0.0
 11
8.2360000000000007
 21
1.294999999999999
 31
0.0
  0
LINE
  5
293
  8
PEN1
 10
8.2360000000000007
 20
1.294999999999999
 30
0.0
 11
8.2899999999999991
 21
1.3349999999999991
 31
0.0
  0
LINE
  5
294
  8
PEN1
 10
8.2899999999999991
 20
1.3349999999999991
 30
0.0
 11
8.2420000000000009
 21
1.3069999999999991
 31
0.0
  0
LINE
  5
295
  8
PEN1
 10
8.2420000000000009
 20
1.3069999999999991
 30
0.0
 11
8.2260000000000009
 21
1.296999999999999
 31
0.0
  0
LINE
  5
296
  8
PEN1
 10
8.3339999999999996
 20
1.3769999999999989
 30
0.0
 11
8.3339999999999996
 21
1.3769999999999989
 31
0.0
  0
LINE
  5
297
  8
PEN1
 10
8.3339999999999996
 20
1.3769999999999989
 30
0.0
 11
8.3559999999999999
 21
1.403
 31
0.0
  0
LINE
  5
298
  8
PEN1
 10
8.3559999999999999
 20
1.403
 30
0.0
 11
8.3770000000000007
 21
1.458
 31
0.0
  0
LINE
  5
299
  8
PEN1
 10
8.3770000000000007
 20
1.458
 30
0.0
 11
8.3629999999999995
 21
1.4330000000000001
 31
0.0
  0
LINE
  5
29A
  8
PEN1
 10
8.3629999999999995
 20
1.4330000000000001
 30
0.0
 11
8.3339999999999996
 21
1.3769999999999989
 31
0.0
  0
LINE
  5
29B
  8
PEN1
 10
7.105999999999999
 20
3.3939999999999988
 30
0.0
 11
7.105999999999999
 21
3.3939999999999988
 31
0.0
  0
LINE
  5
29C
  8
PEN1
 10
7.105999999999999
 20
3.3939999999999988
 30
0.0
 11
7.2290000000000001
 21
2.9439999999999991
 31
0.0
  0
LINE
  5
29D
  8
PEN1
 10
7.2290000000000001
 20
2.9439999999999991
 30
0.0
 11
7.2750000000000004
 21
2.8679999999999999
 31
0.0
  0
LINE
  5
29E
  8
PEN1
 10
7.2750000000000004
 20
2.8679999999999999
 30
0.0
 11
7.2919999999999998
 21
2.8119999999999989
 31
0.0
  0
LINE
  5
29F
  8
PEN1
 10
7.2919999999999998
 20
2.8119999999999989
 30
0.0
 11
7.2720000000000002
 21
2.7719999999999989
 31
0.0
  0
LINE
  5
2A0
  8
PEN1
 10
7.2720000000000002
 20
2.7719999999999989
 30
0.0
 11
7.2649999999999988
 21
2.7119999999999989
 31
0.0
  0
LINE
  5
2A1
  8
PEN1
 10
7.2649999999999988
 20
2.7119999999999989
 30
0.0
 11
7.306
 21
2.5430000000000001
 31
0.0
  0
LINE
  5
2A2
  8
PEN1
 10
7.306
 20
2.5430000000000001
 30
0.0
 11
7.3410000000000002
 21
2.484999999999999
 31
0.0
  0
LINE
  5
2A3
  8
PEN1
 10
7.3410000000000002
 20
2.484999999999999
 30
0.0
 11
7.8360000000000003
 21
2.5139999999999998
 31
0.0
  0
LINE
  5
2A4
  8
PEN1
 10
7.8360000000000003
 20
2.5139999999999998
 30
0.0
 11
7.8419999999999996
 21
2.4780000000000002
 31
0.0
  0
LINE
  5
2A5
  8
PEN1
 10
7.8419999999999996
 20
2.4780000000000002
 30
0.0
 11
7.8729999999999993
 21
2.4750000000000001
 31
0.0
  0
LINE
  5
2A6
  8
PEN1
 10
7.8729999999999993
 20
2.4750000000000001
 30
0.0
 11
7.8609999999999998
 21
2.5550000000000002
 31
0.0
  0
LINE
  5
2A7
  8
PEN1
 10
7.8609999999999998
 20
2.5550000000000002
 30
0.0
 11
7.8810000000000002
 21
2.5779999999999998
 31
0.0
  0
LINE
  5
2A8
  8
PEN1
 10
7.8810000000000002
 20
2.5779999999999998
 30
0.0
 11
7.9529999999999994
 21
2.5649999999999991
 31
0.0
  0
LINE
  5
2A9
  8
PEN1
 10
7.9529999999999994
 20
2.5649999999999991
 30
0.0
 11
7.964999999999999
 21
2.621
 31
0.0
  0
LINE
  5
2AA
  8
PEN1
 10
7.964999999999999
 20
2.621
 30
0.0
 11
7.9529999999999994
 21
2.625
 31
0.0
  0
LINE
  5
2AB
  8
PEN1
 10
7.9529999999999994
 20
2.625
 30
0.0
 11
7.9699999999999989
 21
2.6389999999999989
 31
0.0
  0
LINE
  5
2AC
  8
PEN1
 10
7.9699999999999989
 20
2.6389999999999989
 30
0.0
 11
7.9429999999999987
 21
2.653999999999999
 31
0.0
  0
LINE
  5
2AD
  8
PEN1
 10
7.9429999999999987
 20
2.653999999999999
 30
0.0
 11
7.9579999999999993
 21
2.6719999999999988
 31
0.0
  0
LINE
  5
2AE
  8
PEN1
 10
7.9579999999999993
 20
2.6719999999999988
 30
0.0
 11
7.9550000000000001
 21
2.698999999999999
 31
0.0
  0
LINE
  5
2AF
  8
PEN1
 10
7.9550000000000001
 20
2.698999999999999
 30
0.0
 11
7.9870000000000001
 21
2.7200000000000002
 31
0.0
  0
LINE
  5
2B0
  8
PEN1
 10
7.9870000000000001
 20
2.7200000000000002
 30
0.0
 11
7.9759999999999991
 21
2.7489999999999992
 31
0.0
  0
LINE
  5
2B1
  8
PEN1
 10
7.9759999999999991
 20
2.7489999999999992
 30
0.0
 11
7.992
 21
2.758999999999999
 31
0.0
  0
LINE
  5
2B2
  8
PEN1
 10
7.992
 20
2.758999999999999
 30
0.0
 11
8.0
 21
2.7839999999999989
 31
0.0
  0
LINE
  5
2B3
  8
PEN1
 10
8.0
 20
2.7839999999999989
 30
0.0
 11
7.9859999999999998
 21
2.7930000000000001
 31
0.0
  0
LINE
  5
2B4
  8
PEN1
 10
7.9859999999999998
 20
2.7930000000000001
 30
0.0
 11
8.011000000000001
 21
2.8130000000000002
 31
0.0
  0
LINE
  5
2B5
  8
PEN1
 10
8.011000000000001
 20
2.8130000000000002
 30
0.0
 11
7.9989999999999988
 21
2.8300000000000001
 31
0.0
  0
LINE
  5
2B6
  8
PEN1
 10
7.9989999999999988
 20
2.8300000000000001
 30
0.0
 11
8.0190000000000001
 21
2.8300000000000001
 31
0.0
  0
LINE
  5
2B7
  8
PEN1
 10
8.0190000000000001
 20
2.8300000000000001
 30
0.0
 11
8.0399999999999991
 21
2.8589999999999991
 31
0.0
  0
LINE
  5
2B8
  8
PEN1
 10
8.0399999999999991
 20
2.8589999999999991
 30
0.0
 11
8.032
 21
2.8679999999999999
 31
0.0
  0
LINE
  5
2B9
  8
PEN1
 10
8.032
 20
2.8679999999999999
 30
0.0
 11
8.0009999999999994
 21
2.8739999999999992
 31
0.0
  0
LINE
  5
2BA
  8
PEN1
 10
8.0009999999999994
 20
2.8739999999999992
 30
0.0
 11
7.9790000000000001
 21
2.9009999999999998
 31
0.0
  0
LINE
  5
2BB
  8
PEN1
 10
7.9790000000000001
 20
2.9009999999999998
 30
0.0
 11
7.9420000000000002
 21
2.9670000000000001
 31
0.0
  0
LINE
  5
2BC
  8
PEN1
 10
7.9420000000000002
 20
2.9670000000000001
 30
0.0
 11
7.9219999999999997
 21
2.976
 31
0.0
  0
LINE
  5
2BD
  8
PEN1
 10
7.9219999999999997
 20
2.976
 30
0.0
 11
7.8789999999999987
 21
3.0649999999999991
 31
0.0
  0
LINE
  5
2BE
  8
PEN1
 10
7.8789999999999987
 20
3.0649999999999991
 30
0.0
 11
7.8189999999999991
 21
3.101999999999999
 31
0.0
  0
LINE
  5
2BF
  8
PEN1
 10
7.8189999999999991
 20
3.101999999999999
 30
0.0
 11
7.7759999999999989
 21
3.161999999999999
 31
0.0
  0
LINE
  5
2C0
  8
PEN1
 10
7.7759999999999989
 20
3.161999999999999
 30
0.0
 11
7.6710000000000003
 21
3.2379999999999991
 31
0.0
  0
LINE
  5
2C1
  8
PEN1
 10
7.6710000000000003
 20
3.2379999999999991
 30
0.0
 11
7.6210000000000004
 21
3.3069999999999991
 31
0.0
  0
LINE
  5
2C2
  8
PEN1
 10
7.6210000000000004
 20
3.3069999999999991
 30
0.0
 11
7.5079999999999991
 21
3.379999999999999
 31
0.0
  0
LINE
  5
2C3
  8
PEN1
 10
7.5079999999999991
 20
3.379999999999999
 30
0.0
 11
7.5439999999999987
 21
3.4479999999999991
 31
0.0
  0
LINE
  5
2C4
  8
PEN1
 10
7.5439999999999987
 20
3.4479999999999991
 30
0.0
 11
7.3319999999999999
 21
3.423
 31
0.0
  0
LINE
  5
2C5
  8
PEN1
 10
7.3319999999999999
 20
3.423
 30
0.0
 11
7.105999999999999
 21
3.3939999999999988
 31
0.0
  0
LINE
  5
2C6
  8
PEN1
 10
2.919999999999999
 20
2.0830000000000002
 30
0.0
 11
2.919999999999999
 21
2.0830000000000002
 31
0.0
  0
LINE
  5
2C7
  8
PEN1
 10
2.919999999999999
 20
2.0830000000000002
 30
0.0
 11
2.956999999999999
 21
2.048
 31
0.0
  0
LINE
  5
2C8
  8
PEN1
 10
2.956999999999999
 20
2.048
 30
0.0
 11
2.9780000000000002
 21
2.048999999999999
 31
0.0
  0
LINE
  5
2C9
  8
PEN1
 10
2.9780000000000002
 20
2.048999999999999
 30
0.0
 11
3.0110000000000001
 21
2.0689999999999991
 31
0.0
  0
LINE
  5
2CA
  8
PEN1
 10
3.0110000000000001
 20
2.0689999999999991
 30
0.0
 11
3.0209999999999999
 21
2.1129999999999991
 31
0.0
  0
LINE
  5
2CB
  8
PEN1
 10
3.0209999999999999
 20
2.1129999999999991
 30
0.0
 11
2.9980000000000002
 21
2.129999999999999
 31
0.0
  0
LINE
  5
2CC
  8
PEN1
 10
2.9980000000000002
 20
2.129999999999999
 30
0.0
 11
2.968999999999999
 21
2.125
 31
0.0
  0
LINE
  5
2CD
  8
PEN1
 10
2.968999999999999
 20
2.125
 30
0.0
 11
2.919999999999999
 21
2.0830000000000002
 31
0.0
  0
LINE
  5
2CE
  8
PEN1
 10
3.2289999999999992
 20
1.9859999999999991
 30
0.0
 11
3.2289999999999992
 21
1.9859999999999991
 31
0.0
  0
LINE
  5
2CF
  8
PEN1
 10
3.2289999999999992
 20
1.9859999999999991
 30
0.0
 11
3.254999999999999
 21
1.9279999999999999
 31
0.0
  0
LINE
  5
2D0
  8
PEN1
 10
3.254999999999999
 20
1.9279999999999999
 30
0.0
 11
3.2810000000000001
 21
1.929
 31
0.0
  0
LINE
  5
2D1
  8
PEN1
 10
3.2810000000000001
 20
1.929
 30
0.0
 11
3.2839999999999989
 21
1.9459999999999991
 31
0.0
  0
LINE
  5
2D2
  8
PEN1
 10
3.2839999999999989
 20
1.9459999999999991
 30
0.0
 11
3.3180000000000001
 21
1.911999999999999
 31
0.0
  0
LINE
  5
2D3
  8
PEN1
 10
3.3180000000000001
 20
1.911999999999999
 30
0.0
 11
3.3460000000000001
 21
1.9169999999999989
 31
0.0
  0
LINE
  5
2D4
  8
PEN1
 10
3.3460000000000001
 20
1.9169999999999989
 30
0.0
 11
3.339999999999999
 21
1.95
 31
0.0
  0
LINE
  5
2D5
  8
PEN1
 10
3.339999999999999
 20
1.95
 30
0.0
 11
3.3130000000000002
 21
1.958
 31
0.0
  0
LINE
  5
2D6
  8
PEN1
 10
3.3130000000000002
 20
1.958
 30
0.0
 11
3.2909999999999999
 21
2.0110000000000001
 31
0.0
  0
LINE
  5
2D7
  8
PEN1
 10
3.2909999999999999
 20
2.0110000000000001
 30
0.0
 11
3.2289999999999992
 21
1.9859999999999991
 31
0.0
  0
LINE
  5
2D8
  8
PEN1
 10
3.4169999999999989
 20
1.879999999999999
 30
0.0
 11
3.4169999999999989
 21
1.879999999999999
 31
0.0
  0
LINE
  5
2D9
  8
PEN1
 10
3.4169999999999989
 20
1.879999999999999
 30
0.0
 11
3.4300000000000002
 21
1.9069999999999989
 31
0.0
  0
LINE
  5
2DA
  8
PEN1
 10
3.4300000000000002
 20
1.9069999999999989
 30
0.0
 11
3.536999999999999
 21
1.8949999999999989
 31
0.0
  0
LINE
  5
2DB
  8
PEN1
 10
3.536999999999999
 20
1.8949999999999989
 30
0.0
 11
3.5139999999999989
 21
1.875
 31
0.0
  0
LINE
  5
2DC
  8
PEN1
 10
3.5139999999999989
 20
1.875
 30
0.0
 11
3.4169999999999989
 21
1.879999999999999
 31
0.0
  0
LINE
  5
2DD
  8
PEN1
 10
3.4700000000000002
 20
1.841
 30
0.0
 11
3.4700000000000002
 21
1.841
 31
0.0
  0
LINE
  5
2DE
  8
PEN1
 10
3.4700000000000002
 20
1.841
 30
0.0
 11
3.4879999999999991
 21
1.806
 31
0.0
  0
LINE
  5
2DF
  8
PEN1
 10
3.4879999999999991
 20
1.806
 30
0.0
 11
3.5179999999999998
 21
1.8200000000000001
 31
0.0
  0
LINE
  5
2E0
  8
PEN1
 10
3.5179999999999998
 20
1.8200000000000001
 30
0.0
 11
3.5030000000000001
 21
1.841
 31
0.0
  0
LINE
  5
2E1
  8
PEN1
 10
3.5030000000000001
 20
1.841
 30
0.0
 11
3.4700000000000002
 21
1.841
 31
0.0
  0
LINE
  5
2E2
  8
PEN1
 10
3.5409999999999999
 20
1.8469999999999991
 30
0.0
 11
3.5409999999999999
 21
1.8469999999999991
 31
0.0
  0
LINE
  5
2E3
  8
PEN1
 10
3.5409999999999999
 20
1.8469999999999991
 30
0.0
 11
3.5609999999999999
 21
1.871
 31
0.0
  0
LINE
  5
2E4
  8
PEN1
 10
3.5609999999999999
 20
1.871
 30
0.0
 11
3.581999999999999
 21
1.8469999999999991
 31
0.0
  0
LINE
  5
2E5
  8
PEN1
 10
3.581999999999999
 20
1.8469999999999991
 30
0.0
 11
3.633
 21
1.851999999999999
 31
0.0
  0
LINE
  5
2E6
  8
PEN1
 10
3.633
 20
1.851999999999999
 30
0.0
 11
3.6909999999999998
 21
1.8119999999999989
 31
0.0
  0
LINE
  5
2E7
  8
PEN1
 10
3.6909999999999998
 20
1.8119999999999989
 30
0.0
 11
3.6689999999999992
 21
1.7929999999999999
 31
0.0
  0
LINE
  5
2E8
  8
PEN1
 10
3.6689999999999992
 20
1.7929999999999999
 30
0.0
 11
3.601
 21
1.78
 31
0.0
  0
LINE
  5
2E9
  8
PEN1
 10
3.601
 20
1.78
 30
0.0
 11
3.5880000000000001
 21
1.8209999999999991
 31
0.0
  0
LINE
  5
2EA
  8
PEN1
 10
3.5880000000000001
 20
1.8209999999999991
 30
0.0
 11
3.5619999999999989
 21
1.8209999999999991
 31
0.0
  0
LINE
  5
2EB
  8
PEN1
 10
3.5619999999999989
 20
1.8209999999999991
 30
0.0
 11
3.5409999999999999
 21
1.8469999999999991
 31
0.0
  0
LINE
  5
2EC
  8
PEN1
 10
3.6749999999999989
 20
1.595999999999999
 30
0.0
 11
3.6749999999999989
 21
1.595999999999999
 31
0.0
  0
LINE
  5
2ED
  8
PEN1
 10
3.6749999999999989
 20
1.595999999999999
 30
0.0
 11
3.7089999999999992
 21
1.516999999999999
 31
0.0
  0
LINE
  5
2EE
  8
PEN1
 10
3.7089999999999992
 20
1.516999999999999
 30
0.0
 11
3.7039999999999988
 21
1.4539999999999991
 31
0.0
  0
LINE
  5
2EF
  8
PEN1
 10
3.7039999999999988
 20
1.4539999999999991
 30
0.0
 11
3.7559999999999998
 21
1.423
 31
0.0
  0
LINE
  5
2F0
  8
PEN1
 10
3.7559999999999998
 20
1.423
 30
0.0
 11
3.786
 21
1.470999999999999
 31
0.0
  0
LINE
  5
2F1
  8
PEN1
 10
3.786
 20
1.470999999999999
 30
0.0
 11
3.8929999999999998
 21
1.514999999999999
 31
0.0
  0
LINE
  5
2F2
  8
PEN1
 10
3.8929999999999998
 20
1.514999999999999
 30
0.0
 11
3.9269999999999992
 21
1.55
 31
0.0
  0
LINE
  5
2F3
  8
PEN1
 10
3.9269999999999992
 20
1.55
 30
0.0
 11
3.839
 21
1.649999999999999
 31
0.0
  0
LINE
  5
2F4
  8
PEN1
 10
3.839
 20
1.649999999999999
 30
0.0
 11
3.7160000000000002
 21
1.708
 31
0.0
  0
LINE
  5
2F5
  8
PEN1
 10
3.7160000000000002
 20
1.708
 30
0.0
 11
3.7050000000000001
 21
1.6899999999999991
 31
0.0
  0
LINE
  5
2F6
  8
PEN1
 10
3.7050000000000001
 20
1.6899999999999991
 30
0.0
 11
3.7200000000000002
 21
1.6479999999999999
 31
0.0
  0
LINE
  5
2F7
  8
PEN1
 10
3.7200000000000002
 20
1.6479999999999999
 30
0.0
 11
3.6749999999999989
 21
1.595999999999999
 31
0.0
  0
LINE
  5
2F8
  8
PEN1
 10
1.9330000000000001
 20
5.230999999999999
 30
0.0
 11
1.9330000000000001
 21
5.230999999999999
 31
0.0
  0
LINE
  5
2F9
  8
PEN1
 10
1.9330000000000001
 20
5.230999999999999
 30
0.0
 11
2.0150000000000001
 21
5.5849999999999991
 31
0.0
  0
LINE
  5
2FA
  8
PEN1
 10
2.0150000000000001
 20
5.5849999999999991
 30
0.0
 11
2.056
 21
5.6789999999999994
 31
0.0
  0
LINE
  5
2FB
  8
PEN1
 10
2.056
 20
5.6789999999999994
 30
0.0
 11
2.0190000000000001
 21
5.7240000000000002
 31
0.0
  0
LINE
  5
2FC
  8
PEN1
 10
2.0190000000000001
 20
5.7240000000000002
 30
0.0
 11
2.028
 21
5.7649999999999988
 31
0.0
  0
LINE
  5
2FD
  8
PEN1
 10
2.028
 20
5.7649999999999988
 30
0.0
 11
2.093999999999999
 21
5.827
 31
0.0
  0
LINE
  5
2FE
  8
PEN1
 10
2.093999999999999
 20
5.827
 30
0.0
 11
2.145999999999999
 21
5.9100000000000001
 31
0.0
  0
LINE
  5
2FF
  8
PEN1
 10
2.145999999999999
 20
5.9100000000000001
 30
0.0
 11
2.1939999999999991
 21
5.9829999999999988
 31
0.0
  0
LINE
  5
300
  8
PEN1
 10
2.1939999999999991
 20
5.9829999999999988
 30
0.0
 11
2.157999999999999
 21
6.0369999999999999
 31
0.0
  0
LINE
  5
301
  8
PEN1
 10
2.157999999999999
 20
6.0369999999999999
 30
0.0
 11
2.1429999999999998
 21
6.073999999999999
 31
0.0
  0
LINE
  5
302
  8
PEN1
 10
2.1429999999999998
 20
6.073999999999999
 30
0.0
 11
2.149
 21
6.1660000000000004
 31
0.0
  0
LINE
  5
303
  8
PEN1
 10
2.149
 20
6.1660000000000004
 30
0.0
 11
2.274
 21
6.7050000000000001
 31
0.0
  0
LINE
  5
304
  8
PEN1
 10
2.274
 20
6.7050000000000001
 30
0.0
 11
2.411999999999999
 21
6.6739999999999986
 31
0.0
  0
LINE
  5
305
  8
PEN1
 10
2.411999999999999
 20
6.6739999999999986
 30
0.0
 11
2.3660000000000001
 21
6.464999999999999
 31
0.0
  0
LINE
  5
306
  8
PEN1
 10
2.3660000000000001
 20
6.464999999999999
 30
0.0
 11
2.395999999999999
 21
6.3899999999999988
 31
0.0
  0
LINE
  5
307
  8
PEN1
 10
2.395999999999999
 20
6.3899999999999988
 30
0.0
 11
2.399
 21
6.3429999999999991
 31
0.0
  0
LINE
  5
308
  8
PEN1
 10
2.399
 20
6.3429999999999991
 30
0.0
 11
2.383
 21
6.3349999999999991
 31
0.0
  0
LINE
  5
309
  8
PEN1
 10
2.383
 20
6.3349999999999991
 30
0.0
 11
2.4359999999999991
 21
6.2839999999999989
 31
0.0
  0
LINE
  5
30A
  8
PEN1
 10
2.4359999999999991
 20
6.2839999999999989
 30
0.0
 11
2.4900000000000002
 21
6.1509999999999989
 31
0.0
  0
LINE
  5
30B
  8
PEN1
 10
2.4900000000000002
 20
6.1509999999999989
 30
0.0
 11
2.508999999999999
 21
6.1559999999999997
 31
0.0
  0
LINE
  5
30C
  8
PEN1
 10
2.508999999999999
 20
6.1559999999999997
 30
0.0
 11
2.5110000000000001
 21
6.1360000000000001
 31
0.0
  0
LINE
  5
30D
  8
PEN1
 10
2.5110000000000001
 20
6.1360000000000001
 30
0.0
 11
2.536999999999999
 21
6.1289999999999987
 31
0.0
  0
LINE
  5
30E
  8
PEN1
 10
2.536999999999999
 20
6.1289999999999987
 30
0.0
 11
2.556
 21
6.1260000000000003
 31
0.0
  0
LINE
  5
30F
  8
PEN1
 10
2.556
 20
6.1260000000000003
 30
0.0
 11
2.508
 21
6.028999999999999
 31
0.0
  0
LINE
  5
310
  8
PEN1
 10
2.508
 20
6.028999999999999
 30
0.0
 11
2.516
 21
5.964999999999999
 31
0.0
  0
LINE
  5
311
  8
PEN1
 10
2.516
 20
5.964999999999999
 30
0.0
 11
2.476999999999999
 21
5.9029999999999987
 31
0.0
  0
LINE
  5
312
  8
PEN1
 10
2.476999999999999
 20
5.9029999999999987
 30
0.0
 11
2.504
 21
5.875
 31
0.0
  0
LINE
  5
313
  8
PEN1
 10
2.504
 20
5.875
 30
0.0
 11
2.573999999999999
 21
5.9139999999999988
 31
0.0
  0
LINE
  5
314
  8
PEN1
 10
2.573999999999999
 20
5.9139999999999988
 30
0.0
 11
2.6239999999999992
 21
5.7029999999999994
 31
0.0
  0
LINE
  5
315
  8
PEN1
 10
2.6239999999999992
 20
5.7029999999999994
 30
0.0
 11
2.6560000000000001
 21
5.6920000000000002
 31
0.0
  0
LINE
  5
316
  8
PEN1
 10
2.6560000000000001
 20
5.6920000000000002
 30
0.0
 11
2.661999999999999
 21
5.6279999999999992
 31
0.0
  0
LINE
  5
317
  8
PEN1
 10
2.661999999999999
 20
5.6279999999999992
 30
0.0
 11
2.6889999999999992
 21
5.6009999999999991
 31
0.0
  0
LINE
  5
318
  8
PEN1
 10
2.6889999999999992
 20
5.6009999999999991
 30
0.0
 11
2.7080000000000002
 21
5.625
 31
0.0
  0
LINE
  5
319
  8
PEN1
 10
2.7080000000000002
 20
5.625
 30
0.0
 11
2.7539999999999991
 21
5.6040000000000001
 31
0.0
  0
LINE
  5
31A
  8
PEN1
 10
2.7539999999999991
 20
5.6040000000000001
 30
0.0
 11
2.782999999999999
 21
5.6269999999999998
 31
0.0
  0
LINE
  5
31B
  8
PEN1
 10
2.782999999999999
 20
5.6269999999999998
 30
0.0
 11
2.8769999999999989
 21
5.6079999999999988
 31
0.0
  0
LINE
  5
31C
  8
PEN1
 10
2.8769999999999989
 20
5.6079999999999988
 30
0.0
 11
2.8999999999999999
 21
5.6029999999999989
 31
0.0
  0
LINE
  5
31D
  8
PEN1
 10
2.8999999999999999
 20
5.6029999999999989
 30
0.0
 11
2.9209999999999998
 21
5.6449999999999987
 31
0.0
  0
LINE
  5
31E
  8
PEN1
 10
2.9209999999999998
 20
5.6449999999999987
 30
0.0
 11
2.9609999999999999
 21
5.577
 31
0.0
  0
LINE
  5
31F
  8
PEN1
 10
2.9609999999999999
 20
5.577
 30
0.0
 11
2.8730000000000002
 21
5.0419999999999989
 31
0.0
  0
LINE
  5
320
  8
PEN1
 10
2.8730000000000002
 20
5.0419999999999989
 30
0.0
 11
2.4009999999999989
 21
5.1289999999999987
 31
0.0
  0
LINE
  5
321
  8
PEN1
 10
2.4009999999999989
 20
5.1289999999999987
 30
0.0
 11
1.9330000000000001
 21
5.230999999999999
 31
0.0
  0
LINE
  5
322
  8
PEN1
 10
6.0199999999999987
 20
4.4610000000000003
 30
0.0
 11
6.0199999999999987
 21
4.4610000000000003
 31
0.0
  0
LINE
  5
323
  8
PEN1
 10
6.0199999999999987
 20
4.4610000000000003
 30
0.0
 11
6.032
 21
4.4980000000000002
 31
0.0
  0
LINE
  5
324
  8
PEN1
 10
6.032
 20
4.4980000000000002
 30
0.0
 11
6.0779999999999994
 21
4.5730000000000004
 31
0.0
  0
LINE
  5
325
  8
PEN1
 10
6.0779999999999994
 20
4.5730000000000004
 30
0.0
 11
6.1020000000000003
 21
4.6529999999999996
 31
0.0
  0
LINE
  5
326
  8
PEN1
 10
6.1020000000000003
 20
4.6529999999999996
 30
0.0
 11
6.0789999999999988
 21
4.7119999999999989
 31
0.0
  0
LINE
  5
327
  8
PEN1
 10
6.0789999999999988
 20
4.7119999999999989
 30
0.0
 11
6.1950000000000003
 21
4.8019999999999987
 31
0.0
  0
LINE
  5
328
  8
PEN1
 10
6.1950000000000003
 20
4.8019999999999987
 30
0.0
 11
6.2189999999999994
 21
4.847999999999999
 31
0.0
  0
LINE
  5
329
  8
PEN1
 10
6.2189999999999994
 20
4.847999999999999
 30
0.0
 11
6.2189999999999994
 21
4.8710000000000004
 31
0.0
  0
LINE
  5
32A
  8
PEN1
 10
6.2189999999999994
 20
4.8710000000000004
 30
0.0
 11
6.1349999999999989
 21
4.9689999999999994
 31
0.0
  0
LINE
  5
32B
  8
PEN1
 10
6.1349999999999989
 20
4.9689999999999994
 30
0.0
 11
6.5869999999999997
 21
4.9980000000000002
 31
0.0
  0
LINE
  5
32C
  8
PEN1
 10
6.5869999999999997
 20
4.9980000000000002
 30
0.0
 11
6.597999999999999
 21
4.9239999999999986
 31
0.0
  0
LINE
  5
32D
  8
PEN1
 10
6.597999999999999
 20
4.9239999999999986
 30
0.0
 11
6.6440000000000001
 21
4.8360000000000003
 31
0.0
  0
LINE
  5
32E
  8
PEN1
 10
6.6440000000000001
 20
4.8360000000000003
 30
0.0
 11
6.6829999999999989
 21
4.3710000000000004
 31
0.0
  0
LINE
  5
32F
  8
PEN1
 10
6.6829999999999989
 20
4.3710000000000004
 30
0.0
 11
6.6739999999999986
 21
4.2750000000000004
 31
0.0
  0
LINE
  5
330
  8
PEN1
 10
6.6739999999999986
 20
4.2750000000000004
 30
0.0
 11
6.6950000000000003
 21
4.2179999999999991
 31
0.0
  0
LINE
  5
331
  8
PEN1
 10
6.6950000000000003
 20
4.2179999999999991
 30
0.0
 11
6.6689999999999987
 21
4.1130000000000004
 31
0.0
  0
LINE
  5
332
  8
PEN1
 10
6.6689999999999987
 20
4.1130000000000004
 30
0.0
 11
6.6339999999999986
 21
4.0659999999999989
 31
0.0
  0
LINE
  5
333
  8
PEN1
 10
6.6339999999999986
 20
4.0659999999999989
 30
0.0
 11
6.617
 21
3.9910000000000001
 31
0.0
  0
LINE
  5
334
  8
PEN1
 10
6.617
 20
3.9910000000000001
 30
0.0
 11
6.6329999999999991
 21
3.968999999999999
 31
0.0
  0
LINE
  5
335
  8
PEN1
 10
6.6329999999999991
 20
3.968999999999999
 30
0.0
 11
6.6189999999999989
 21
3.9219999999999988
 31
0.0
  0
LINE
  5
336
  8
PEN1
 10
6.6189999999999989
 20
3.9219999999999988
 30
0.0
 11
6.6279999999999992
 21
3.9060000000000001
 31
0.0
  0
LINE
  5
337
  8
PEN1
 10
6.6279999999999992
 20
3.9060000000000001
 30
0.0
 11
6.573999999999999
 21
3.883999999999999
 31
0.0
  0
LINE
  5
338
  8
PEN1
 10
6.573999999999999
 20
3.883999999999999
 30
0.0
 11
6.5629999999999988
 21
3.8069999999999999
 31
0.0
  0
LINE
  5
339
  8
PEN1
 10
6.5629999999999988
 20
3.8069999999999999
 30
0.0
 11
6.4859999999999998
 21
3.8349999999999991
 31
0.0
  0
LINE
  5
33A
  8
PEN1
 10
6.4859999999999998
 20
3.8349999999999991
 30
0.0
 11
6.4459999999999997
 21
3.7959999999999998
 31
0.0
  0
LINE
  5
33B
  8
PEN1
 10
6.4459999999999997
 20
3.7959999999999998
 30
0.0
 11
6.4479999999999986
 21
3.7810000000000001
 31
0.0
  0
LINE
  5
33C
  8
PEN1
 10
6.4479999999999986
 20
3.7810000000000001
 30
0.0
 11
6.4219999999999997
 21
3.782999999999999
 31
0.0
  0
LINE
  5
33D
  8
PEN1
 10
6.4219999999999997
 20
3.782999999999999
 30
0.0
 11
6.3949999999999987
 21
3.8339999999999992
 31
0.0
  0
LINE
  5
33E
  8
PEN1
 10
6.3949999999999987
 20
3.8339999999999992
 30
0.0
 11
6.3810000000000002
 21
3.903999999999999
 31
0.0
  0
LINE
  5
33F
  8
PEN1
 10
6.3810000000000002
 20
3.903999999999999
 30
0.0
 11
6.3520000000000003
 21
3.9510000000000001
 31
0.0
  0
LINE
  5
340
  8
PEN1
 10
6.3520000000000003
 20
3.9510000000000001
 30
0.0
 11
6.3070000000000004
 21
3.968999999999999
 31
0.0
  0
LINE
  5
341
  8
PEN1
 10
6.3070000000000004
 20
3.968999999999999
 30
0.0
 11
6.25
 21
4.0139999999999993
 31
0.0
  0
LINE
  5
342
  8
PEN1
 10
6.25
 20
4.0139999999999993
 30
0.0
 11
6.230999999999999
 21
4.0759999999999996
 31
0.0
  0
LINE
  5
343
  8
PEN1
 10
6.230999999999999
 20
4.0759999999999996
 30
0.0
 11
6.262999999999999
 21
4.1710000000000003
 31
0.0
  0
LINE
  5
344
  8
PEN1
 10
6.262999999999999
 20
4.1710000000000003
 30
0.0
 11
6.2359999999999998
 21
4.1900000000000004
 31
0.0
  0
LINE
  5
345
  8
PEN1
 10
6.2359999999999998
 20
4.1900000000000004
 30
0.0
 11
6.1689999999999987
 21
4.1890000000000001
 31
0.0
  0
LINE
  5
346
  8
PEN1
 10
6.1689999999999987
 20
4.1890000000000001
 30
0.0
 11
6.157
 21
4.25
 31
0.0
  0
LINE
  5
347
  8
PEN1
 10
6.157
 20
4.25
 30
0.0
 11
6.0460000000000003
 21
4.363999999999999
 31
0.0
  0
LINE
  5
348
  8
PEN1
 10
6.0460000000000003
 20
4.363999999999999
 30
0.0
 11
6.0199999999999987
 21
4.4610000000000003
 31
0.0
  0
LINE
  5
349
  8
PEN1
 10
6.617
 20
3.9910000000000001
 30
0.0
 11
6.617
 21
3.9910000000000001
 31
0.0
  0
LINE
  5
34A
  8
PEN1
 10
6.617
 20
3.9910000000000001
 30
0.0
 11
6.6329999999999991
 21
3.968999999999999
 31
0.0
  0
LINE
  5
34B
  8
PEN1
 10
6.6329999999999991
 20
3.968999999999999
 30
0.0
 11
6.649
 21
3.9950000000000001
 31
0.0
  0
LINE
  5
34C
  8
PEN1
 10
6.649
 20
3.9950000000000001
 30
0.0
 11
6.7259999999999991
 21
4.008
 31
0.0
  0
LINE
  5
34D
  8
PEN1
 10
6.7259999999999991
 20
4.008
 30
0.0
 11
6.7529999999999992
 21
4.0010000000000003
 31
0.0
  0
LINE
  5
34E
  8
PEN1
 10
6.7529999999999992
 20
4.0010000000000003
 30
0.0
 11
6.8349999999999991
 21
4.0300000000000002
 31
0.0
  0
LINE
  5
34F
  8
PEN1
 10
6.8349999999999991
 20
4.0300000000000002
 30
0.0
 11
6.863999999999999
 21
4.0039999999999987
 31
0.0
  0
LINE
  5
350
  8
PEN1
 10
6.863999999999999
 20
4.0039999999999987
 30
0.0
 11
6.891
 21
4.0659999999999989
 31
0.0
  0
LINE
  5
351
  8
PEN1
 10
6.891
 20
4.0659999999999989
 30
0.0
 11
6.9169999999999998
 21
4.0810000000000004
 31
0.0
  0
LINE
  5
352
  8
PEN1
 10
6.9169999999999998
 20
4.0810000000000004
 30
0.0
 11
6.9779999999999989
 21
4.0469999999999988
 31
0.0
  0
LINE
  5
353
  8
PEN1
 10
6.9779999999999989
 20
4.0469999999999988
 30
0.0
 11
6.9859999999999998
 21
4.0860000000000003
 31
0.0
  0
LINE
  5
354
  8
PEN1
 10
6.9859999999999998
 20
4.0860000000000003
 30
0.0
 11
7.0519999999999996
 21
4.1680000000000001
 31
0.0
  0
LINE
  5
355
  8
PEN1
 10
7.0519999999999996
 20
4.1680000000000001
 30
0.0
 11
7.0659999999999989
 21
4.2169999999999987
 31
0.0
  0
LINE
  5
356
  8
PEN1
 10
7.0659999999999989
 20
4.2169999999999987
 30
0.0
 11
7.089999999999999
 21
4.2099999999999991
 31
0.0
  0
LINE
  5
357
  8
PEN1
 10
7.089999999999999
 20
4.2099999999999991
 30
0.0
 11
7.1509999999999989
 21
4.2530000000000001
 31
0.0
  0
LINE
  5
358
  8
PEN1
 10
7.1509999999999989
 20
4.2530000000000001
 30
0.0
 11
7.1339999999999986
 21
4.2880000000000003
 31
0.0
  0
LINE
  5
359
  8
PEN1
 10
7.1339999999999986
 20
4.2880000000000003
 30
0.0
 11
7.1429999999999989
 21
4.3079999999999989
 31
0.0
  0
LINE
  5
35A
  8
PEN1
 10
7.1429999999999989
 20
4.3079999999999989
 30
0.0
 11
7.0829999999999993
 21
4.8730000000000002
 31
0.0
  0
LINE
  5
35B
  8
PEN1
 10
7.0829999999999993
 20
4.8730000000000002
 30
0.0
 11
7.0759999999999996
 21
4.8869999999999987
 31
0.0
  0
LINE
  5
35C
  8
PEN1
 10
7.0759999999999996
 20
4.8869999999999987
 30
0.0
 11
6.7569999999999997
 21
4.8520000000000003
 31
0.0
  0
LINE
  5
35D
  8
PEN1
 10
6.7569999999999997
 20
4.8520000000000003
 30
0.0
 11
6.6959999999999997
 21
4.8159999999999989
 31
0.0
  0
LINE
  5
35E
  8
PEN1
 10
6.6959999999999997
 20
4.8159999999999989
 30
0.0
 11
6.6440000000000001
 21
4.8360000000000003
 31
0.0
  0
LINE
  5
35F
  8
PEN1
 10
6.6440000000000001
 20
4.8360000000000003
 30
0.0
 11
6.6829999999999989
 21
4.3710000000000004
 31
0.0
  0
LINE
  5
360
  8
PEN1
 10
6.6829999999999989
 20
4.3710000000000004
 30
0.0
 11
6.6739999999999986
 21
4.2750000000000004
 31
0.0
  0
LINE
  5
361
  8
PEN1
 10
6.6739999999999986
 20
4.2750000000000004
 30
0.0
 11
6.6950000000000003
 21
4.2179999999999991
 31
0.0
  0
LINE
  5
362
  8
PEN1
 10
6.6950000000000003
 20
4.2179999999999991
 30
0.0
 11
6.6689999999999987
 21
4.1130000000000004
 31
0.0
  0
LINE
  5
363
  8
PEN1
 10
6.6689999999999987
 20
4.1130000000000004
 30
0.0
 11
6.6339999999999986
 21
4.0659999999999989
 31
0.0
  0
LINE
  5
364
  8
PEN1
 10
6.6339999999999986
 20
4.0659999999999989
 30
0.0
 11
6.617
 21
3.9910000000000001
 31
0.0
  0
LINE
  5
365
  8
PEN1
 10
5.1900000000000004
 20
5.1669999999999998
 30
0.0
 11
5.1900000000000004
 21
5.1669999999999998
 31
0.0
  0
LINE
  5
366
  8
PEN1
 10
5.1900000000000004
 20
5.1669999999999998
 30
0.0
 11
5.1929999999999987
 21
5.113999999999999
 31
0.0
  0
LINE
  5
367
  8
PEN1
 10
5.1929999999999987
 20
5.113999999999999
 30
0.0
 11
5.2119999999999997
 21
5.0750000000000002
 31
0.0
  0
LINE
  5
368
  8
PEN1
 10
5.2119999999999997
 20
5.0750000000000002
 30
0.0
 11
5.198999999999999
 21
5.036999999999999
 31
0.0
  0
LINE
  5
369
  8
PEN1
 10
5.198999999999999
 20
5.036999999999999
 30
0.0
 11
5.2110000000000003
 21
4.9429999999999996
 31
0.0
  0
LINE
  5
36A
  8
PEN1
 10
5.2110000000000003
 20
4.9429999999999996
 30
0.0
 11
5.2589999999999986
 21
4.8079999999999989
 31
0.0
  0
LINE
  5
36B
  8
PEN1
 10
5.2589999999999986
 20
4.8079999999999989
 30
0.0
 11
5.2599999999999989
 21
4.766
 31
0.0
  0
LINE
  5
36C
  8
PEN1
 10
5.2599999999999989
 20
4.766
 30
0.0
 11
5.2919999999999998
 21
4.7039999999999988
 31
0.0
  0
LINE
  5
36D
  8
PEN1
 10
5.2919999999999998
 20
4.7039999999999988
 30
0.0
 11
5.3070000000000004
 21
4.5999999999999988
 31
0.0
  0
LINE
  5
36E
  8
PEN1
 10
5.3070000000000004
 20
4.5999999999999988
 30
0.0
 11
5.2999999999999989
 21
4.5689999999999991
 31
0.0
  0
LINE
  5
36F
  8
PEN1
 10
5.2999999999999989
 20
4.5689999999999991
 30
0.0
 11
5.3189999999999991
 21
4.5350000000000001
 31
0.0
  0
LINE
  5
370
  8
PEN1
 10
5.3189999999999991
 20
4.5350000000000001
 30
0.0
 11
5.9820000000000002
 21
4.5489999999999986
 31
0.0
  0
LINE
  5
371
  8
PEN1
 10
5.9820000000000002
 20
4.5489999999999986
 30
0.0
 11
6.032
 21
4.4980000000000002
 31
0.0
  0
LINE
  5
372
  8
PEN1
 10
6.032
 20
4.4980000000000002
 30
0.0
 11
6.0779999999999994
 21
4.5730000000000004
 31
0.0
  0
LINE
  5
373
  8
PEN1
 10
6.0779999999999994
 20
4.5730000000000004
 30
0.0
 11
6.1020000000000003
 21
4.6529999999999996
 31
0.0
  0
LINE
  5
374
  8
PEN1
 10
6.1020000000000003
 20
4.6529999999999996
 30
0.0
 11
6.0789999999999988
 21
4.7119999999999989
 31
0.0
  0
LINE
  5
375
  8
PEN1
 10
6.0789999999999988
 20
4.7119999999999989
 30
0.0
 11
6.1950000000000003
 21
4.8019999999999987
 31
0.0
  0
LINE
  5
376
  8
PEN1
 10
6.1950000000000003
 20
4.8019999999999987
 30
0.0
 11
6.2189999999999994
 21
4.847999999999999
 31
0.0
  0
LINE
  5
377
  8
PEN1
 10
6.2189999999999994
 20
4.847999999999999
 30
0.0
 11
6.2189999999999994
 21
4.8710000000000004
 31
0.0
  0
LINE
  5
378
  8
PEN1
 10
6.2189999999999994
 20
4.8710000000000004
 30
0.0
 11
6.1349999999999989
 21
4.9689999999999994
 31
0.0
  0
LINE
  5
379
  8
PEN1
 10
6.1349999999999989
 20
4.9689999999999994
 30
0.0
 11
6.0489999999999986
 21
5.0709999999999997
 31
0.0
  0
LINE
  5
37A
  8
PEN1
 10
6.0489999999999986
 20
5.0709999999999997
 30
0.0
 11
6.032
 21
5.181
 31
0.0
  0
LINE
  5
37B
  8
PEN1
 10
6.032
 20
5.181
 30
0.0
 11
5.2139999999999986
 21
5.165
 31
0.0
  0
LINE
  5
37C
  8
PEN1
 10
5.2139999999999986
 20
5.165
 30
0.0
 11
5.1900000000000004
 21
5.1669999999999998
 31
0.0
  0
LINE
  5
37D
  8
PEN1
 10
4.2339999999999991
 20
3.7839999999999989
 30
0.0
 11
4.2339999999999991
 21
3.7839999999999989
 31
0.0
  0
LINE
  5
37E
  8
PEN1
 10
4.2339999999999991
 20
3.7839999999999989
 30
0.0
 11
4.2779999999999996
 21
4.4409999999999989
 31
0.0
  0
LINE
  5
37F
  8
PEN1
 10
4.2779999999999996
 20
4.4409999999999989
 30
0.0
 11
4.754999999999999
 21
4.4130000000000003
 31
0.0
  0
LINE
  5
380
  8
PEN1
 10
4.754999999999999
 20
4.4130000000000003
 30
0.0
 11
5.387999999999999
 21
4.4059999999999997
 31
0.0
  0
LINE
  5
381
  8
PEN1
 10
5.387999999999999
 20
4.4059999999999997
 30
0.0
 11
5.4219999999999997
 21
4.375
 31
0.0
  0
LINE
  5
382
  8
PEN1
 10
5.4219999999999997
 20
4.375
 30
0.0
 11
5.4429999999999987
 21
4.3819999999999988
 31
0.0
  0
LINE
  5
383
  8
PEN1
 10
5.4429999999999987
 20
4.3819999999999988
 30
0.0
 11
5.4619999999999997
 21
4.3650000000000002
 31
0.0
  0
LINE
  5
384
  8
PEN1
 10
5.4619999999999997
 20
4.3650000000000002
 30
0.0
 11
5.464999999999999
 21
4.347999999999999
 31
0.0
  0
LINE
  5
385
  8
PEN1
 10
5.464999999999999
 20
4.347999999999999
 30
0.0
 11
5.4470000000000001
 21
4.3469999999999986
 31
0.0
  0
LINE
  5
386
  8
PEN1
 10
5.4470000000000001
 20
4.3469999999999986
 30
0.0
 11
5.4249999999999989
 21
4.3010000000000002
 31
0.0
  0
LINE
  5
387
  8
PEN1
 10
5.4249999999999989
 20
4.3010000000000002
 30
0.0
 11
5.4749999999999988
 21
4.2290000000000001
 31
0.0
  0
LINE
  5
388
  8
PEN1
 10
5.4749999999999988
 20
4.2290000000000001
 30
0.0
 11
5.5139999999999993
 21
4.2169999999999987
 31
0.0
  0
LINE
  5
389
  8
PEN1
 10
5.5139999999999993
 20
4.2169999999999987
 30
0.0
 11
5.5089999999999986
 21
3.7509999999999999
 31
0.0
  0
LINE
  5
38A
  8
PEN1
 10
5.5089999999999986
 20
3.7509999999999999
 30
0.0
 11
4.9630000000000001
 21
3.7489999999999992
 31
0.0
  0
LINE
  5
38B
  8
PEN1
 10
4.9630000000000001
 20
3.7489999999999992
 30
0.0
 11
4.2339999999999991
 21
3.7839999999999989
 31
0.0
  0
LINE
  5
38C
  8
PEN1
 10
6.4160000000000004
 20
3.669999999999999
 30
0.0
 11
6.4160000000000004
 21
3.669999999999999
 31
0.0
  0
LINE
  5
38D
  8
PEN1
 10
6.4160000000000004
 20
3.669999999999999
 30
0.0
 11
6.4269999999999996
 21
3.7010000000000001
 31
0.0
  0
LINE
  5
38E
  8
PEN1
 10
6.4269999999999996
 20
3.7010000000000001
 30
0.0
 11
6.4560000000000004
 21
3.7050000000000001
 31
0.0
  0
LINE
  5
38F
  8
PEN1
 10
6.4560000000000004
 20
3.7050000000000001
 30
0.0
 11
6.4639999999999986
 21
3.774999999999999
 31
0.0
  0
LINE
  5
390
  8
PEN1
 10
6.4639999999999986
 20
3.774999999999999
 30
0.0
 11
6.4479999999999986
 21
3.7810000000000001
 31
0.0
  0
LINE
  5
391
  8
PEN1
 10
6.4479999999999986
 20
3.7810000000000001
 30
0.0
 11
6.4459999999999997
 21
3.7959999999999998
 31
0.0
  0
LINE
  5
392
  8
PEN1
 10
6.4459999999999997
 20
3.7959999999999998
 30
0.0
 11
6.4859999999999998
 21
3.8349999999999991
 31
0.0
  0
LINE
  5
393
  8
PEN1
 10
6.4859999999999998
 20
3.8349999999999991
 30
0.0
 11
6.5629999999999988
 21
3.8069999999999999
 31
0.0
  0
LINE
  5
394
  8
PEN1
 10
6.5629999999999988
 20
3.8069999999999999
 30
0.0
 11
6.573999999999999
 21
3.883999999999999
 31
0.0
  0
LINE
  5
395
  8
PEN1
 10
6.573999999999999
 20
3.883999999999999
 30
0.0
 11
6.6279999999999992
 21
3.9060000000000001
 31
0.0
  0
LINE
  5
396
  8
PEN1
 10
6.6279999999999992
 20
3.9060000000000001
 30
0.0
 11
6.6189999999999989
 21
3.9219999999999988
 31
0.0
  0
LINE
  5
397
  8
PEN1
 10
6.6189999999999989
 20
3.9219999999999988
 30
0.0
 11
6.6329999999999991
 21
3.968999999999999
 31
0.0
  0
LINE
  5
398
  8
PEN1
 10
6.6329999999999991
 20
3.968999999999999
 30
0.0
 11
6.649
 21
3.9950000000000001
 31
0.0
  0
LINE
  5
399
  8
PEN1
 10
6.649
 20
3.9950000000000001
 30
0.0
 11
6.7259999999999991
 21
4.008
 31
0.0
  0
LINE
  5
39A
  8
PEN1
 10
6.7259999999999991
 20
4.008
 30
0.0
 11
6.7529999999999992
 21
4.0010000000000003
 31
0.0
  0
LINE
  5
39B
  8
PEN1
 10
6.7529999999999992
 20
4.0010000000000003
 30
0.0
 11
6.8349999999999991
 21
4.0300000000000002
 31
0.0
  0
LINE
  5
39C
  8
PEN1
 10
6.8349999999999991
 20
4.0300000000000002
 30
0.0
 11
6.863999999999999
 21
4.0039999999999987
 31
0.0
  0
LINE
  5
39D
  8
PEN1
 10
6.863999999999999
 20
4.0039999999999987
 30
0.0
 11
6.891
 21
4.0659999999999989
 31
0.0
  0
LINE
  5
39E
  8
PEN1
 10
6.891
 20
4.0659999999999989
 30
0.0
 11
6.9169999999999998
 21
4.0810000000000004
 31
0.0
  0
LINE
  5
39F
  8
PEN1
 10
6.9169999999999998
 20
4.0810000000000004
 30
0.0
 11
6.9779999999999989
 21
4.0469999999999988
 31
0.0
  0
LINE
  5
3A0
  8
PEN1
 10
6.9779999999999989
 20
4.0469999999999988
 30
0.0
 11
6.9859999999999998
 21
4.0860000000000003
 31
0.0
  0
LINE
  5
3A1
  8
PEN1
 10
6.9859999999999998
 20
4.0860000000000003
 30
0.0
 11
7.0519999999999996
 21
4.1680000000000001
 31
0.0
  0
LINE
  5
3A2
  8
PEN1
 10
7.0519999999999996
 20
4.1680000000000001
 30
0.0
 11
7.0659999999999989
 21
4.2169999999999987
 31
0.0
  0
LINE
  5
3A3
  8
PEN1
 10
7.0659999999999989
 20
4.2169999999999987
 30
0.0
 11
7.089999999999999
 21
4.2099999999999991
 31
0.0
  0
LINE
  5
3A4
  8
PEN1
 10
7.089999999999999
 20
4.2099999999999991
 30
0.0
 11
7.1509999999999989
 21
4.2530000000000001
 31
0.0
  0
LINE
  5
3A5
  8
PEN1
 10
7.1509999999999989
 20
4.2530000000000001
 30
0.0
 11
7.1339999999999986
 21
4.2880000000000003
 31
0.0
  0
LINE
  5
3A6
  8
PEN1
 10
7.1339999999999986
 20
4.2880000000000003
 30
0.0
 11
7.1429999999999989
 21
4.3079999999999989
 31
0.0
  0
LINE
  5
3A7
  8
PEN1
 10
7.1429999999999989
 20
4.3079999999999989
 30
0.0
 11
7.1950000000000003
 21
4.3109999999999991
 31
0.0
  0
LINE
  5
3A8
  8
PEN1
 10
7.1950000000000003
 20
4.3109999999999991
 30
0.0
 11
7.2300000000000004
 21
4.298
 31
0.0
  0
LINE
  5
3A9
  8
PEN1
 10
7.2300000000000004
 20
4.298
 30
0.0
 11
7.2489999999999988
 21
4.2599999999999989
 31
0.0
  0
LINE
  5
3AA
  8
PEN1
 10
7.2489999999999988
 20
4.2599999999999989
 30
0.0
 11
7.3049999999999988
 21
4.2510000000000003
 31
0.0
  0
LINE
  5
3AB
  8
PEN1
 10
7.3049999999999988
 20
4.2510000000000003
 30
0.0
 11
7.339999999999999
 21
4.2320000000000002
 31
0.0
  0
LINE
  5
3AC
  8
PEN1
 10
7.339999999999999
 20
4.2320000000000002
 30
0.0
 11
7.4169999999999998
 21
4.2359999999999998
 31
0.0
  0
LINE
  5
3AD
  8
PEN1
 10
7.4169999999999998
 20
4.2359999999999998
 30
0.0
 11
7.4539999999999988
 21
4.2599999999999989
 31
0.0
  0
LINE
  5
3AE
  8
PEN1
 10
7.4539999999999988
 20
4.2599999999999989
 30
0.0
 11
7.5369999999999999
 21
4.2060000000000004
 31
0.0
  0
LINE
  5
3AF
  8
PEN1
 10
7.5369999999999999
 20
4.2060000000000004
 30
0.0
 11
7.5670000000000002
 21
4.1009999999999991
 31
0.0
  0
LINE
  5
3B0
  8
PEN1
 10
7.5670000000000002
 20
4.1009999999999991
 30
0.0
 11
7.6009999999999991
 21
4.0640000000000001
 31
0.0
  0
LINE
  5
3B1
  8
PEN1
 10
7.6009999999999991
 20
4.0640000000000001
 30
0.0
 11
7.6660000000000004
 21
4.0270000000000001
 31
0.0
  0
LINE
  5
3B2
  8
PEN1
 10
7.6660000000000004
 20
4.0270000000000001
 30
0.0
 11
7.6179999999999994
 21
3.968999999999999
 31
0.0
  0
LINE
  5
3B3
  8
PEN1
 10
7.6179999999999994
 20
3.968999999999999
 30
0.0
 11
7.577
 21
3.9389999999999992
 31
0.0
  0
LINE
  5
3B4
  8
PEN1
 10
7.577
 20
3.9389999999999992
 30
0.0
 11
7.532
 21
3.8849999999999989
 31
0.0
  0
LINE
  5
3B5
  8
PEN1
 10
7.532
 20
3.8849999999999989
 30
0.0
 11
7.5309999999999997
 21
3.8669999999999991
 31
0.0
  0
LINE
  5
3B6
  8
PEN1
 10
7.5309999999999997
 20
3.8669999999999991
 30
0.0
 11
7.407
 21
3.7850000000000001
 31
0.0
  0
LINE
  5
3B7
  8
PEN1
 10
7.407
 20
3.7850000000000001
 30
0.0
 11
6.7179999999999991
 21
3.7210000000000001
 31
0.0
  0
LINE
  5
3B8
  8
PEN1
 10
6.7179999999999991
 20
3.7210000000000001
 30
0.0
 11
6.6449999999999987
 21
3.7239999999999989
 31
0.0
  0
LINE
  5
3B9
  8
PEN1
 10
6.6449999999999987
 20
3.7239999999999989
 30
0.0
 11
6.6479999999999988
 21
3.6859999999999999
 31
0.0
  0
LINE
  5
3BA
  8
PEN1
 10
6.6479999999999988
 20
3.6859999999999999
 30
0.0
 11
6.4160000000000004
 21
3.669999999999999
 31
0.0
  0
LINE
  5
3BB
  8
PEN1
 10
5.6229999999999993
 20
2.8809999999999998
 30
0.0
 11
5.6229999999999993
 21
2.8809999999999998
 31
0.0
  0
LINE
  5
3BC
  8
PEN1
 10
5.6229999999999993
 20
2.8809999999999998
 30
0.0
 11
5.6339999999999986
 21
2.653
 31
0.0
  0
LINE
  5
3BD
  8
PEN1
 10
5.6339999999999986
 20
2.653
 30
0.0
 11
5.6600000000000001
 21
2.6239999999999992
 31
0.0
  0
LINE
  5
3BE
  8
PEN1
 10
5.6600000000000001
 20
2.6239999999999992
 30
0.0
 11
5.669999999999999
 21
2.5649999999999991
 31
0.0
  0
LINE
  5
3BF
  8
PEN1
 10
5.669999999999999
 20
2.5649999999999991
 30
0.0
 11
5.722999999999999
 21
2.4839999999999991
 31
0.0
  0
LINE
  5
3C0
  8
PEN1
 10
5.722999999999999
 20
2.4839999999999991
 30
0.0
 11
5.7210000000000001
 21
2.4140000000000001
 31
0.0
  0
LINE
  5
3C1
  8
PEN1
 10
5.7210000000000001
 20
2.4140000000000001
 30
0.0
 11
5.6900000000000004
 21
2.3490000000000002
 31
0.0
  0
LINE
  5
3C2
  8
PEN1
 10
5.6900000000000004
 20
2.3490000000000002
 30
0.0
 11
5.6920000000000002
 21
2.3130000000000002
 31
0.0
  0
LINE
  5
3C3
  8
PEN1
 10
5.6920000000000002
 20
2.3130000000000002
 30
0.0
 11
5.702
 21
2.274999999999999
 31
0.0
  0
LINE
  5
3C4
  8
PEN1
 10
5.702
 20
2.274999999999999
 30
0.0
 11
5.6970000000000001
 21
2.2370000000000001
 31
0.0
  0
LINE
  5
3C5
  8
PEN1
 10
5.6970000000000001
 20
2.2370000000000001
 30
0.0
 11
5.6799999999999988
 21
2.2130000000000001
 31
0.0
  0
LINE
  5
3C6
  8
PEN1
 10
5.6799999999999988
 20
2.2130000000000001
 30
0.0
 11
5.6559999999999997
 21
2.1840000000000002
 31
0.0
  0
LINE
  5
3C7
  8
PEN1
 10
5.6559999999999997
 20
2.1840000000000002
 30
0.0
 11
5.6719999999999997
 21
2.165
 31
0.0
  0
LINE
  5
3C8
  8
PEN1
 10
5.6719999999999997
 20
2.165
 30
0.0
 11
5.802999999999999
 21
2.1819999999999991
 31
0.0
  0
LINE
  5
3C9
  8
PEN1
 10
5.802999999999999
 20
2.1819999999999991
 30
0.0
 11
5.907
 21
2.1389999999999998
 31
0.0
  0
LINE
  5
3CA
  8
PEN1
 10
5.907
 20
2.1389999999999998
 30
0.0
 11
6.0079999999999991
 21
2.145
 31
0.0
  0
LINE
  5
3CB
  8
PEN1
 10
6.0079999999999991
 20
2.145
 30
0.0
 11
5.9950000000000001
 21
2.173999999999999
 31
0.0
  0
LINE
  5
3CC
  8
PEN1
 10
5.9950000000000001
 20
2.173999999999999
 30
0.0
 11
6.0270000000000001
 21
2.198999999999999
 31
0.0
  0
LINE
  5
3CD
  8
PEN1
 10
6.0270000000000001
 20
2.198999999999999
 30
0.0
 11
6.0970000000000004
 21
2.1840000000000002
 31
0.0
  0
LINE
  5
3CE
  8
PEN1
 10
6.0970000000000004
 20
2.1840000000000002
 30
0.0
 11
6.1089999999999991
 21
2.133999999999999
 31
0.0
  0
LINE
  5
3CF
  8
PEN1
 10
6.1089999999999991
 20
2.133999999999999
 30
0.0
 11
6.1279999999999992
 21
2.141
 31
0.0
  0
LINE
  5
3D0
  8
PEN1
 10
6.1279999999999992
 20
2.141
 30
0.0
 11
6.1579999999999986
 21
2.129
 31
0.0
  0
LINE
  5
3D1
  8
PEN1
 10
6.1579999999999986
 20
2.129
 30
0.0
 11
6.1870000000000003
 21
2.0979999999999999
 31
0.0
  0
LINE
  5
3D2
  8
PEN1
 10
6.1870000000000003
 20
2.0979999999999999
 30
0.0
 11
6.1939999999999991
 21
2.0709999999999988
 31
0.0
  0
LINE
  5
3D3
  8
PEN1
 10
6.1939999999999991
 20
2.0709999999999988
 30
0.0
 11
6.2240000000000002
 21
2.0669999999999988
 31
0.0
  0
LINE
  5
3D4
  8
PEN1
 10
6.2240000000000002
 20
2.0669999999999988
 30
0.0
 11
6.2519999999999998
 21
2.0469999999999988
 31
0.0
  0
LINE
  5
3D5
  8
PEN1
 10
6.2519999999999998
 20
2.0469999999999988
 30
0.0
 11
6.2759999999999989
 21
2.056
 31
0.0
  0
LINE
  5
3D6
  8
PEN1
 10
6.2759999999999989
 20
2.056
 30
0.0
 11
6.2960000000000003
 21
2.0790000000000002
 31
0.0
  0
LINE
  5
3D7
  8
PEN1
 10
6.2960000000000003
 20
2.0790000000000002
 30
0.0
 11
6.2939999999999987
 21
2.0979999999999999
 31
0.0
  0
LINE
  5
3D8
  8
PEN1
 10
6.2939999999999987
 20
2.0979999999999999
 30
0.0
 11
6.3229999999999986
 21
2.0729999999999991
 31
0.0
  0
LINE
  5
3D9
  8
PEN1
 10
6.3229999999999986
 20
2.0729999999999991
 30
0.0
 11
6.3389999999999986
 21
2.0950000000000002
 31
0.0
  0
LINE
  5
3DA
  8
PEN1
 10
6.3389999999999986
 20
2.0950000000000002
 30
0.0
 11
6.3589999999999991
 21
2.052
 31
0.0
  0
LINE
  5
3DB
  8
PEN1
 10
6.3589999999999991
 20
2.052
 30
0.0
 11
6.3899999999999988
 21
2.0729999999999991
 31
0.0
  0
LINE
  5
3DC
  8
PEN1
 10
6.3899999999999988
 20
2.0729999999999991
 30
0.0
 11
6.4009999999999989
 21
2.085999999999999
 31
0.0
  0
LINE
  5
3DD
  8
PEN1
 10
6.4009999999999989
 20
2.085999999999999
 30
0.0
 11
6.3899999999999988
 21
2.0979999999999999
 31
0.0
  0
LINE
  5
3DE
  8
PEN1
 10
6.3899999999999988
 20
2.0979999999999999
 30
0.0
 11
6.3920000000000003
 21
2.137
 31
0.0
  0
LINE
  5
3DF
  8
PEN1
 10
6.3920000000000003
 20
2.137
 30
0.0
 11
6.4029999999999987
 21
2.137
 31
0.0
  0
LINE
  5
3E0
  8
PEN1
 10
6.4029999999999987
 20
2.137
 30
0.0
 11
6.4299999999999988
 21
2.133999999999999
 31
0.0
  0
LINE
  5
3E1
  8
PEN1
 10
6.4299999999999988
 20
2.133999999999999
 30
0.0
 11
6.4370000000000003
 21
2.1080000000000001
 31
0.0
  0
LINE
  5
3E2
  8
PEN1
 10
6.4370000000000003
 20
2.1080000000000001
 30
0.0
 11
6.4669999999999996
 21
2.109999999999999
 31
0.0
  0
LINE
  5
3E3
  8
PEN1
 10
6.4669999999999996
 20
2.109999999999999
 30
0.0
 11
6.4939999999999989
 21
2.0909999999999989
 31
0.0
  0
LINE
  5
3E4
  8
PEN1
 10
6.4939999999999989
 20
2.0909999999999989
 30
0.0
 11
6.5
 21
2.0960000000000001
 31
0.0
  0
LINE
  5
3E5
  8
PEN1
 10
6.5
 20
2.0960000000000001
 30
0.0
 11
6.5110000000000001
 21
2.0769999999999991
 31
0.0
  0
LINE
  5
3E6
  8
PEN1
 10
6.5110000000000001
 20
2.0769999999999991
 30
0.0
 11
6.5309999999999997
 21
2.0649999999999991
 31
0.0
  0
LINE
  5
3E7
  8
PEN1
 10
6.5309999999999997
 20
2.0649999999999991
 30
0.0
 11
6.5220000000000002
 21
2.0350000000000001
 31
0.0
  0
LINE
  5
3E8
  8
PEN1
 10
6.5220000000000002
 20
2.0350000000000001
 30
0.0
 11
6.5479999999999992
 21
2.0630000000000002
 31
0.0
  0
LINE
  5
3E9
  8
PEN1
 10
6.5479999999999992
 20
2.0630000000000002
 30
0.0
 11
6.5670000000000002
 21
2.0459999999999989
 31
0.0
  0
LINE
  5
3EA
  8
PEN1
 10
6.5670000000000002
 20
2.0459999999999989
 30
0.0
 11
6.5659999999999989
 21
2.0669999999999988
 31
0.0
  0
LINE
  5
3EB
  8
PEN1
 10
6.5659999999999989
 20
2.0669999999999988
 30
0.0
 11
6.5889999999999986
 21
2.0729999999999991
 31
0.0
  0
LINE
  5
3EC
  8
PEN1
 10
6.5889999999999986
 20
2.0729999999999991
 30
0.0
 11
6.589999999999999
 21
2.0880000000000001
 31
0.0
  0
LINE
  5
3ED
  8
PEN1
 10
6.589999999999999
 20
2.0880000000000001
 30
0.0
 11
6.5650000000000004
 21
2.0920000000000001
 31
0.0
  0
LINE
  5
3EE
  8
PEN1
 10
6.5650000000000004
 20
2.0920000000000001
 30
0.0
 11
6.5510000000000002
 21
2.1080000000000001
 31
0.0
  0
LINE
  5
3EF
  8
PEN1
 10
6.5510000000000002
 20
2.1080000000000001
 30
0.0
 11
6.528999999999999
 21
2.1049999999999991
 31
0.0
  0
LINE
  5
3F0
  8
PEN1
 10
6.528999999999999
 20
2.1049999999999991
 30
0.0
 11
6.5190000000000001
 21
2.125
 31
0.0
  0
LINE
  5
3F1
  8
PEN1
 10
6.5190000000000001
 20
2.125
 30
0.0
 11
6.4939999999999989
 21
2.125
 31
0.0
  0
LINE
  5
3F2
  8
PEN1
 10
6.4939999999999989
 20
2.125
 30
0.0
 11
6.4710000000000001
 21
2.169
 31
0.0
  0
LINE
  5
3F3
  8
PEN1
 10
6.4710000000000001
 20
2.169
 30
0.0
 11
6.4850000000000003
 21
2.1800000000000002
 31
0.0
  0
LINE
  5
3F4
  8
PEN1
 10
6.4850000000000003
 20
2.1800000000000002
 30
0.0
 11
6.504999999999999
 21
2.1909999999999989
 31
0.0
  0
LINE
  5
3F5
  8
PEN1
 10
6.504999999999999
 20
2.1909999999999989
 30
0.0
 11
6.5099999999999989
 21
2.2130000000000001
 31
0.0
  0
LINE
  5
3F6
  8
PEN1
 10
6.5099999999999989
 20
2.2130000000000001
 30
0.0
 11
6.5259999999999989
 21
2.2159999999999989
 31
0.0
  0
LINE
  5
3F7
  8
PEN1
 10
6.5259999999999989
 20
2.2159999999999989
 30
0.0
 11
6.5510000000000002
 21
2.2400000000000002
 31
0.0
  0
LINE
  5
3F8
  8
PEN1
 10
6.5510000000000002
 20
2.2400000000000002
 30
0.0
 11
6.5429999999999993
 21
2.2480000000000002
 31
0.0
  0
LINE
  5
3F9
  8
PEN1
 10
6.5429999999999993
 20
2.2480000000000002
 30
0.0
 11
6.5439999999999987
 21
2.2930000000000001
 31
0.0
  0
LINE
  5
3FA
  8
PEN1
 10
6.5439999999999987
 20
2.2930000000000001
 30
0.0
 11
6.5149999999999988
 21
2.270999999999999
 31
0.0
  0
LINE
  5
3FB
  8
PEN1
 10
6.5149999999999988
 20
2.270999999999999
 30
0.0
 11
6.4870000000000001
 21
2.266999999999999
 31
0.0
  0
LINE
  5
3FC
  8
PEN1
 10
6.4870000000000001
 20
2.266999999999999
 30
0.0
 11
6.4619999999999997
 21
2.2280000000000002
 31
0.0
  0
LINE
  5
3FD
  8
PEN1
 10
6.4619999999999997
 20
2.2280000000000002
 30
0.0
 11
6.4229999999999992
 21
2.2480000000000002
 31
0.0
  0
LINE
  5
3FE
  8
PEN1
 10
6.4229999999999992
 20
2.2480000000000002
 30
0.0
 11
6.4299999999999988
 21
2.2639999999999998
 31
0.0
  0
LINE
  5
3FF
  8
PEN1
 10
6.4299999999999988
 20
2.2639999999999998
 30
0.0
 11
6.4470000000000001
 21
2.27
 31
0.0
  0
LINE
  5
400
  8
PEN1
 10
6.4470000000000001
 20
2.27
 30
0.0
 11
6.4479999999999986
 21
2.262999999999999
 31
0.0
  0
LINE
  5
401
  8
PEN1
 10
6.4479999999999986
 20
2.262999999999999
 30
0.0
 11
6.4589999999999987
 21
2.286
 31
0.0
  0
LINE
  5
402
  8
PEN1
 10
6.4589999999999987
 20
2.286
 30
0.0
 11
6.4439999999999991
 21
2.278999999999999
 31
0.0
  0
LINE
  5
403
  8
PEN1
 10
6.4439999999999991
 20
2.278999999999999
 30
0.0
 11
6.4370000000000003
 21
2.2890000000000001
 31
0.0
  0
LINE
  5
404
  8
PEN1
 10
6.4370000000000003
 20
2.2890000000000001
 30
0.0
 11
6.4329999999999989
 21
2.278
 31
0.0
  0
LINE
  5
405
  8
PEN1
 10
6.4329999999999989
 20
2.278
 30
0.0
 11
6.4139999999999988
 21
2.286999999999999
 31
0.0
  0
LINE
  5
406
  8
PEN1
 10
6.4139999999999988
 20
2.286999999999999
 30
0.0
 11
6.3970000000000002
 21
2.2639999999999998
 31
0.0
  0
LINE
  5
407
  8
PEN1
 10
6.3970000000000002
 20
2.2639999999999998
 30
0.0
 11
6.3679999999999994
 21
2.258
 31
0.0
  0
LINE
  5
408
  8
PEN1
 10
6.3679999999999994
 20
2.258
 30
0.0
 11
6.3150000000000004
 21
2.27
 31
0.0
  0
LINE
  5
409
  8
PEN1
 10
6.3150000000000004
 20
2.27
 30
0.0
 11
6.3109999999999991
 21
2.2839999999999998
 31
0.0
  0
LINE
  5
40A
  8
PEN1
 10
6.3109999999999991
 20
2.2839999999999998
 30
0.0
 11
6.3439999999999994
 21
2.331999999999999
 31
0.0
  0
LINE
  5
40B
  8
PEN1
 10
6.3439999999999994
 20
2.331999999999999
 30
0.0
 11
6.3760000000000003
 21
2.3300000000000001
 31
0.0
  0
LINE
  5
40C
  8
PEN1
 10
6.3760000000000003
 20
2.3300000000000001
 30
0.0
 11
6.395999999999999
 21
2.3090000000000002
 31
0.0
  0
LINE
  5
40D
  8
PEN1
 10
6.395999999999999
 20
2.3090000000000002
 30
0.0
 11
6.4779999999999989
 21
2.294
 31
0.0
  0
LINE
  5
40E
  8
PEN1
 10
6.4779999999999989
 20
2.294
 30
0.0
 11
6.4179999999999993
 21
2.395999999999999
 31
0.0
  0
LINE
  5
40F
  8
PEN1
 10
6.4179999999999993
 20
2.395999999999999
 30
0.0
 11
6.427999999999999
 21
2.468999999999999
 31
0.0
  0
LINE
  5
410
  8
PEN1
 10
6.427999999999999
 20
2.468999999999999
 30
0.0
 11
6.0810000000000004
 21
2.4550000000000001
 31
0.0
  0
LINE
  5
411
  8
PEN1
 10
6.0810000000000004
 20
2.4550000000000001
 30
0.0
 11
6.0829999999999993
 21
2.4950000000000001
 31
0.0
  0
LINE
  5
412
  8
PEN1
 10
6.0829999999999993
 20
2.4950000000000001
 30
0.0
 11
6.1219999999999999
 21
2.6150000000000002
 31
0.0
  0
LINE
  5
413
  8
PEN1
 10
6.1219999999999999
 20
2.6150000000000002
 30
0.0
 11
6.1820000000000004
 21
2.6960000000000002
 31
0.0
  0
LINE
  5
414
  8
PEN1
 10
6.1820000000000004
 20
2.6960000000000002
 30
0.0
 11
6.1629999999999994
 21
2.718999999999999
 31
0.0
  0
LINE
  5
415
  8
PEN1
 10
6.1629999999999994
 20
2.718999999999999
 30
0.0
 11
6.169999999999999
 21
2.7969999999999988
 31
0.0
  0
LINE
  5
416
  8
PEN1
 10
6.169999999999999
 20
2.7969999999999988
 30
0.0
 11
6.1399999999999988
 21
2.887999999999999
 31
0.0
  0
LINE
  5
417
  8
PEN1
 10
6.1399999999999988
 20
2.887999999999999
 30
0.0
 11
5.6229999999999993
 21
2.8809999999999998
 31
0.0
  0
LINE
  5
418
  8
PEN1
 10
9.0570000000000004
 20
6.0379999999999994
 30
0.0
 11
9.0570000000000004
 21
6.0379999999999994
 31
0.0
  0
LINE
  5
419
  8
PEN1
 10
9.0570000000000004
 20
6.0379999999999994
 30
0.0
 11
9.0939999999999994
 21
6.0359999999999996
 31
0.0
  0
LINE
  5
41A
  8
PEN1
 10
9.0939999999999994
 20
6.0359999999999996
 30
0.0
 11
9.0970000000000013
 21
6.0999999999999988
 31
0.0
  0
LINE
  5
41B
  8
PEN1
 10
9.0970000000000013
 20
6.0999999999999988
 30
0.0
 11
9.141
 21
6.1900000000000004
 31
0.0
  0
LINE
  5
41C
  8
PEN1
 10
9.141
 20
6.1900000000000004
 30
0.0
 11
9.1210000000000004
 21
6.2539999999999987
 31
0.0
  0
LINE
  5
41D
  8
PEN1
 10
9.1210000000000004
 20
6.2539999999999987
 30
0.0
 11
9.1389999999999993
 21
6.339999999999999
 31
0.0
  0
LINE
  5
41E
  8
PEN1
 10
9.1389999999999993
 20
6.339999999999999
 30
0.0
 11
9.1370000000000005
 21
6.3729999999999993
 31
0.0
  0
LINE
  5
41F
  8
PEN1
 10
9.1370000000000005
 20
6.3729999999999993
 30
0.0
 11
9.2089999999999996
 21
6.5629999999999988
 31
0.0
  0
LINE
  5
420
  8
PEN1
 10
9.2089999999999996
 20
6.5629999999999988
 30
0.0
 11
9.2289999999999992
 21
6.5629999999999988
 31
0.0
  0
LINE
  5
421
  8
PEN1
 10
9.2289999999999992
 20
6.5629999999999988
 30
0.0
 11
9.2389999999999972
 21
6.5250000000000004
 31
0.0
  0
LINE
  5
422
  8
PEN1
 10
9.2389999999999972
 20
6.5250000000000004
 30
0.0
 11
9.3290000000000006
 21
6.5590000000000002
 31
0.0
  0
LINE
  5
423
  8
PEN1
 10
9.3290000000000006
 20
6.5590000000000002
 30
0.0
 11
9.3300000000000001
 21
6.5729999999999986
 31
0.0
  0
LINE
  5
424
  8
PEN1
 10
9.3300000000000001
 20
6.5729999999999986
 30
0.0
 11
9.3550000000000004
 21
6.5800000000000001
 31
0.0
  0
LINE
  5
425
  8
PEN1
 10
9.3550000000000004
 20
6.5800000000000001
 30
0.0
 11
9.402000000000001
 21
6.5570000000000004
 31
0.0
  0
LINE
  5
426
  8
PEN1
 10
9.402000000000001
 20
6.5570000000000004
 30
0.0
 11
9.4370000000000012
 21
6.5259999999999989
 31
0.0
  0
LINE
  5
427
  8
PEN1
 10
9.4370000000000012
 20
6.5259999999999989
 30
0.0
 11
9.5190000000000001
 21
6.25
 31
0.0
  0
LINE
  5
428
  8
PEN1
 10
9.5190000000000001
 20
6.25
 30
0.0
 11
9.5739999999999998
 21
6.2489999999999988
 31
0.0
  0
LINE
  5
429
  8
PEN1
 10
9.5739999999999998
 20
6.2489999999999988
 30
0.0
 11
9.5830000000000002
 21
6.2329999999999988
 31
0.0
  0
LINE
  5
42A
  8
PEN1
 10
9.5830000000000002
 20
6.2329999999999988
 30
0.0
 11
9.5749999999999993
 21
6.2220000000000004
 31
0.0
  0
LINE
  5
42B
  8
PEN1
 10
9.5749999999999993
 20
6.2220000000000004
 30
0.0
 11
9.6159999999999997
 21
6.1589999999999989
 31
0.0
  0
LINE
  5
42C
  8
PEN1
 10
9.6159999999999997
 20
6.1589999999999989
 30
0.0
 11
9.6259999999999994
 21
6.1729999999999992
 31
0.0
  0
LINE
  5
42D
  8
PEN1
 10
9.6259999999999994
 20
6.1729999999999992
 30
0.0
 11
9.6699999999999982
 21
6.1310000000000002
 31
0.0
  0
LINE
  5
42E
  8
PEN1
 10
9.6699999999999982
 20
6.1310000000000002
 30
0.0
 11
9.6539999999999981
 21
6.1210000000000004
 31
0.0
  0
LINE
  5
42F
  8
PEN1
 10
9.6539999999999981
 20
6.1210000000000004
 30
0.0
 11
9.657
 21
6.1089999999999991
 31
0.0
  0
LINE
  5
430
  8
PEN1
 10
9.657
 20
6.1089999999999991
 30
0.0
 11
9.6859999999999982
 21
6.1100000000000003
 31
0.0
  0
LINE
  5
431
  8
PEN1
 10
9.6859999999999982
 20
6.1100000000000003
 30
0.0
 11
9.6649999999999991
 21
6.0570000000000004
 31
0.0
  0
LINE
  5
432
  8
PEN1
 10
9.6649999999999991
 20
6.0570000000000004
 30
0.0
 11
9.6389999999999993
 21
6.0629999999999988
 31
0.0
  0
LINE
  5
433
  8
PEN1
 10
9.6389999999999993
 20
6.0629999999999988
 30
0.0
 11
9.6159999999999997
 21
6.0429999999999993
 31
0.0
  0
LINE
  5
434
  8
PEN1
 10
9.6159999999999997
 20
6.0429999999999993
 30
0.0
 11
9.6180000000000003
 21
6.0220000000000002
 31
0.0
  0
LINE
  5
435
  8
PEN1
 10
9.6180000000000003
 20
6.0220000000000002
 30
0.0
 11
9.5999999999999996
 21
6.0099999999999989
 31
0.0
  0
LINE
  5
436
  8
PEN1
 10
9.5999999999999996
 20
6.0099999999999989
 30
0.0
 11
9.5779999999999994
 21
6.016
 31
0.0
  0
LINE
  5
437
  8
PEN1
 10
9.5779999999999994
 20
6.016
 30
0.0
 11
9.5790000000000006
 21
5.9839999999999991
 31
0.0
  0
LINE
  5
438
  8
PEN1
 10
9.5790000000000006
 20
5.9839999999999991
 30
0.0
 11
9.5629999999999988
 21
5.9929999999999994
 31
0.0
  0
LINE
  5
439
  8
PEN1
 10
9.5629999999999988
 20
5.9929999999999994
 30
0.0
 11
9.5570000000000004
 21
5.9560000000000004
 31
0.0
  0
LINE
  5
43A
  8
PEN1
 10
9.5570000000000004
 20
5.9560000000000004
 30
0.0
 11
9.5279999999999987
 21
5.9879999999999987
 31
0.0
  0
LINE
  5
43B
  8
PEN1
 10
9.5279999999999987
 20
5.9879999999999987
 30
0.0
 11
9.5050000000000008
 21
5.9579999999999993
 31
0.0
  0
LINE
  5
43C
  8
PEN1
 10
9.5050000000000008
 20
5.9579999999999993
 30
0.0
 11
9.4789999999999992
 21
5.9459999999999997
 31
0.0
  0
LINE
  5
43D
  8
PEN1
 10
9.4789999999999992
 20
5.9459999999999997
 30
0.0
 11
9.4729999999999972
 21
5.915
 31
0.0
  0
LINE
  5
43E
  8
PEN1
 10
9.4729999999999972
 20
5.915
 30
0.0
 11
9.4459999999999997
 21
5.9219999999999997
 31
0.0
  0
LINE
  5
43F
  8
PEN1
 10
9.4459999999999997
 20
5.9219999999999997
 30
0.0
 11
9.4570000000000007
 21
5.948999999999999
 31
0.0
  0
LINE
  5
440
  8
PEN1
 10
9.4570000000000007
 20
5.948999999999999
 30
0.0
 11
9.4370000000000012
 21
5.972999999999999
 31
0.0
  0
LINE
  5
441
  8
PEN1
 10
9.4370000000000012
 20
5.972999999999999
 30
0.0
 11
9.4169999999999998
 21
5.9340000000000002
 31
0.0
  0
LINE
  5
442
  8
PEN1
 10
9.4169999999999998
 20
5.9340000000000002
 30
0.0
 11
9.4239999999999995
 21
5.8540000000000001
 31
0.0
  0
LINE
  5
443
  8
PEN1
 10
9.4239999999999995
 20
5.8540000000000001
 30
0.0
 11
9.4109999999999996
 21
5.8349999999999991
 31
0.0
  0
LINE
  5
444
  8
PEN1
 10
9.4109999999999996
 20
5.8349999999999991
 30
0.0
 11
9.3929999999999971
 21
5.8319999999999999
 31
0.0
  0
LINE
  5
445
  8
PEN1
 10
9.3929999999999971
 20
5.8319999999999999
 30
0.0
 11
9.3780000000000001
 21
5.8360000000000003
 31
0.0
  0
LINE
  5
446
  8
PEN1
 10
9.3780000000000001
 20
5.8360000000000003
 30
0.0
 11
9.3570000000000011
 21
5.7869999999999999
 31
0.0
  0
LINE
  5
447
  8
PEN1
 10
9.3570000000000011
 20
5.7869999999999999
 30
0.0
 11
9.3300000000000001
 21
5.7889999999999988
 31
0.0
  0
LINE
  5
448
  8
PEN1
 10
9.3300000000000001
 20
5.7889999999999988
 30
0.0
 11
9.3330000000000002
 21
5.7489999999999988
 31
0.0
  0
LINE
  5
449
  8
PEN1
 10
9.3330000000000002
 20
5.7489999999999988
 30
0.0
 11
9.3149999999999995
 21
5.778999999999999
 31
0.0
  0
LINE
  5
44A
  8
PEN1
 10
9.3149999999999995
 20
5.778999999999999
 30
0.0
 11
9.2739999999999991
 21
5.7460000000000004
 31
0.0
  0
LINE
  5
44B
  8
PEN1
 10
9.2739999999999991
 20
5.7460000000000004
 30
0.0
 11
9.2670000000000012
 21
5.7210000000000001
 31
0.0
  0
LINE
  5
44C
  8
PEN1
 10
9.2670000000000012
 20
5.7210000000000001
 30
0.0
 11
9.2810000000000006
 21
5.7039999999999988
 31
0.0
  0
LINE
  5
44D
  8
PEN1
 10
9.2810000000000006
 20
5.7039999999999988
 30
0.0
 11
9.2629999999999981
 21
5.6939999999999991
 31
0.0
  0
LINE
  5
44E
  8
PEN1
 10
9.2629999999999981
 20
5.6939999999999991
 30
0.0
 11
9.266
 21
5.665
 31
0.0
  0
LINE
  5
44F
  8
PEN1
 10
9.266
 20
5.665
 30
0.0
 11
9.2479999999999993
 21
5.6429999999999989
 31
0.0
  0
LINE
  5
450
  8
PEN1
 10
9.2479999999999993
 20
5.6429999999999989
 30
0.0
 11
9.2430000000000003
 21
5.5819999999999999
 31
0.0
  0
LINE
  5
451
  8
PEN1
 10
9.2430000000000003
 20
5.5819999999999999
 30
0.0
 11
9.2320000000000011
 21
5.5819999999999999
 31
0.0
  0
LINE
  5
452
  8
PEN1
 10
9.2320000000000011
 20
5.5819999999999999
 30
0.0
 11
9.1739999999999995
 21
5.6639999999999988
 31
0.0
  0
LINE
  5
453
  8
PEN1
 10
9.1739999999999995
 20
5.6639999999999988
 30
0.0
 11
9.0570000000000004
 21
6.0379999999999994
 31
0.0
  0
LINE
  5
454
  8
PEN1
 10
8.0030000000000001
 20
4.5640000000000001
 30
0.0
 11
8.0030000000000001
 21
4.5640000000000001
 31
0.0
  0
LINE
  5
455
  8
PEN1
 10
8.0030000000000001
 20
4.5640000000000001
 30
0.0
 11
8.0229999999999997
 21
4.4530000000000003
 31
0.0
  0
LINE
  5
456
  8
PEN1
 10
8.0229999999999997
 20
4.4530000000000003
 30
0.0
 11
8.0809999999999995
 21
4.5229999999999988
 31
0.0
  0
LINE
  5
457
  8
PEN1
 10
8.0809999999999995
 20
4.5229999999999988
 30
0.0
 11
8.1739999999999995
 21
4.5489999999999986
 31
0.0
  0
LINE
  5
458
  8
PEN1
 10
8.1739999999999995
 20
4.5489999999999986
 30
0.0
 11
8.1920000000000002
 21
4.5780000000000003
 31
0.0
  0
LINE
  5
459
  8
PEN1
 10
8.1920000000000002
 20
4.5780000000000003
 30
0.0
 11
8.2430000000000003
 21
4.5839999999999987
 31
0.0
  0
LINE
  5
45A
  8
PEN1
 10
8.2430000000000003
 20
4.5839999999999987
 30
0.0
 11
8.2850000000000001
 21
4.5650000000000004
 31
0.0
  0
LINE
  5
45B
  8
PEN1
 10
8.2850000000000001
 20
4.5650000000000004
 30
0.0
 11
8.3089999999999993
 21
4.5309999999999997
 31
0.0
  0
LINE
  5
45C
  8
PEN1
 10
8.3089999999999993
 20
4.5309999999999997
 30
0.0
 11
8.3539999999999992
 21
4.5179999999999989
 31
0.0
  0
LINE
  5
45D
  8
PEN1
 10
8.3539999999999992
 20
4.5179999999999989
 30
0.0
 11
8.3800000000000008
 21
4.4850000000000003
 31
0.0
  0
LINE
  5
45E
  8
PEN1
 10
8.3800000000000008
 20
4.4850000000000003
 30
0.0
 11
8.4199999999999982
 21
4.4669999999999987
 31
0.0
  0
LINE
  5
45F
  8
PEN1
 10
8.4199999999999982
 20
4.4669999999999987
 30
0.0
 11
8.4379999999999988
 21
4.4770000000000003
 31
0.0
  0
LINE
  5
460
  8
PEN1
 10
8.4379999999999988
 20
4.4770000000000003
 30
0.0
 11
8.4480000000000004
 21
4.4560000000000004
 31
0.0
  0
LINE
  5
461
  8
PEN1
 10
8.4480000000000004
 20
4.4560000000000004
 30
0.0
 11
8.4390000000000001
 21
4.4400000000000004
 31
0.0
  0
LINE
  5
462
  8
PEN1
 10
8.4390000000000001
 20
4.4400000000000004
 30
0.0
 11
8.4370000000000012
 21
4.415
 31
0.0
  0
LINE
  5
463
  8
PEN1
 10
8.4370000000000012
 20
4.415
 30
0.0
 11
8.4089999999999971
 21
4.3659999999999997
 31
0.0
  0
LINE
  5
464
  8
PEN1
 10
8.4089999999999971
 20
4.3659999999999997
 30
0.0
 11
8.4199999999999982
 21
4.3330000000000002
 31
0.0
  0
LINE
  5
465
  8
PEN1
 10
8.4199999999999982
 20
4.3330000000000002
 30
0.0
 11
8.4540000000000006
 21
4.347999999999999
 31
0.0
  0
LINE
  5
466
  8
PEN1
 10
8.4540000000000006
 20
4.347999999999999
 30
0.0
 11
8.4559999999999995
 21
4.363999999999999
 31
0.0
  0
LINE
  5
467
  8
PEN1
 10
8.4559999999999995
 20
4.363999999999999
 30
0.0
 11
8.4829999999999988
 21
4.3310000000000004
 31
0.0
  0
LINE
  5
468
  8
PEN1
 10
8.4829999999999988
 20
4.3310000000000004
 30
0.0
 11
8.4889999999999972
 21
4.3469999999999986
 31
0.0
  0
LINE
  5
469
  8
PEN1
 10
8.4889999999999972
 20
4.3469999999999986
 30
0.0
 11
8.5069999999999997
 21
4.3230000000000004
 31
0.0
  0
LINE
  5
46A
  8
PEN1
 10
8.5069999999999997
 20
4.3230000000000004
 30
0.0
 11
8.516
 21
4.3349999999999991
 31
0.0
  0
LINE
  5
46B
  8
PEN1
 10
8.516
 20
4.3349999999999991
 30
0.0
 11
8.5459999999999994
 21
4.3220000000000001
 31
0.0
  0
LINE
  5
46C
  8
PEN1
 10
8.5459999999999994
 20
4.3220000000000001
 30
0.0
 11
8.5629999999999988
 21
4.3289999999999988
 31
0.0
  0
LINE
  5
46D
  8
PEN1
 10
8.5629999999999988
 20
4.3289999999999988
 30
0.0
 11
8.5899999999999999
 21
4.3010000000000002
 31
0.0
  0
LINE
  5
46E
  8
PEN1
 10
8.5899999999999999
 20
4.3010000000000002
 30
0.0
 11
8.5689999999999991
 21
4.3429999999999991
 31
0.0
  0
LINE
  5
46F
  8
PEN1
 10
8.5689999999999991
 20
4.3429999999999991
 30
0.0
 11
8.5150000000000006
 21
4.383
 31
0.0
  0
LINE
  5
470
  8
PEN1
 10
8.5150000000000006
 20
4.383
 30
0.0
 11
8.5660000000000007
 21
4.3579999999999997
 31
0.0
  0
LINE
  5
471
  8
PEN1
 10
8.5660000000000007
 20
4.3579999999999997
 30
0.0
 11
8.5350000000000001
 21
4.4000000000000004
 31
0.0
  0
LINE
  5
472
  8
PEN1
 10
8.5350000000000001
 20
4.4000000000000004
 30
0.0
 11
8.5259999999999998
 21
4.4370000000000003
 31
0.0
  0
LINE
  5
473
  8
PEN1
 10
8.5259999999999998
 20
4.4370000000000003
 30
0.0
 11
8.5299999999999994
 21
4.5229999999999988
 31
0.0
  0
LINE
  5
474
  8
PEN1
 10
8.5299999999999994
 20
4.5229999999999988
 30
0.0
 11
8.4979999999999993
 21
4.5419999999999989
 31
0.0
  0
LINE
  5
475
  8
PEN1
 10
8.4979999999999993
 20
4.5419999999999989
 30
0.0
 11
8.5629999999999988
 21
4.597999999999999
 31
0.0
  0
LINE
  5
476
  8
PEN1
 10
8.5629999999999988
 20
4.597999999999999
 30
0.0
 11
8.5649999999999995
 21
4.6319999999999988
 31
0.0
  0
LINE
  5
477
  8
PEN1
 10
8.5649999999999995
 20
4.6319999999999988
 30
0.0
 11
8.6010000000000009
 21
4.629999999999999
 31
0.0
  0
LINE
  5
478
  8
PEN1
 10
8.6010000000000009
 20
4.629999999999999
 30
0.0
 11
8.5929999999999982
 21
4.5990000000000002
 31
0.0
  0
LINE
  5
479
  8
PEN1
 10
8.5929999999999982
 20
4.5990000000000002
 30
0.0
 11
8.5679999999999996
 21
4.5880000000000001
 31
0.0
  0
LINE
  5
47A
  8
PEN1
 10
8.5679999999999996
 20
4.5880000000000001
 30
0.0
 11
8.5549999999999997
 21
4.5539999999999994
 31
0.0
  0
LINE
  5
47B
  8
PEN1
 10
8.5549999999999997
 20
4.5539999999999994
 30
0.0
 11
8.5629999999999988
 21
4.524
 31
0.0
  0
LINE
  5
47C
  8
PEN1
 10
8.5629999999999988
 20
4.524
 30
0.0
 11
8.5800000000000001
 21
4.5359999999999996
 31
0.0
  0
LINE
  5
47D
  8
PEN1
 10
8.5800000000000001
 20
4.5359999999999996
 30
0.0
 11
8.5709999999999997
 21
4.5
 31
0.0
  0
LINE
  5
47E
  8
PEN1
 10
8.5709999999999997
 20
4.5
 30
0.0
 11
8.5779999999999994
 21
4.4820000000000002
 31
0.0
  0
LINE
  5
47F
  8
PEN1
 10
8.5779999999999994
 20
4.4820000000000002
 30
0.0
 11
8.5830000000000002
 21
4.4639999999999986
 31
0.0
  0
LINE
  5
480
  8
PEN1
 10
8.5830000000000002
 20
4.4639999999999986
 30
0.0
 11
8.5660000000000007
 21
4.472999999999999
 31
0.0
  0
LINE
  5
481
  8
PEN1
 10
8.5660000000000007
 20
4.472999999999999
 30
0.0
 11
8.5600000000000005
 21
4.4470000000000001
 31
0.0
  0
LINE
  5
482
  8
PEN1
 10
8.5600000000000005
 20
4.4470000000000001
 30
0.0
 11
8.5970000000000013
 21
4.4550000000000001
 31
0.0
  0
LINE
  5
483
  8
PEN1
 10
8.5970000000000013
 20
4.4550000000000001
 30
0.0
 11
8.5939999999999994
 21
4.4370000000000003
 31
0.0
  0
LINE
  5
484
  8
PEN1
 10
8.5939999999999994
 20
4.4370000000000003
 30
0.0
 11
8.6129999999999995
 21
4.4239999999999986
 31
0.0
  0
LINE
  5
485
  8
PEN1
 10
8.6129999999999995
 20
4.4239999999999986
 30
0.0
 11
8.5769999999999982
 21
4.4249999999999989
 31
0.0
  0
LINE
  5
486
  8
PEN1
 10
8.5769999999999982
 20
4.4249999999999989
 30
0.0
 11
8.5879999999999992
 21
4.3710000000000004
 31
0.0
  0
LINE
  5
487
  8
PEN1
 10
8.5879999999999992
 20
4.3710000000000004
 30
0.0
 11
8.6289999999999996
 21
4.3499999999999988
 31
0.0
  0
LINE
  5
488
  8
PEN1
 10
8.6289999999999996
 20
4.3499999999999988
 30
0.0
 11
8.6500000000000004
 21
4.3760000000000003
 31
0.0
  0
LINE
  5
489
  8
PEN1
 10
8.6500000000000004
 20
4.3760000000000003
 30
0.0
 11
8.652000000000001
 21
4.331999999999999
 31
0.0
  0
LINE
  5
48A
  8
PEN1
 10
8.652000000000001
 20
4.331999999999999
 30
0.0
 11
8.677999999999999
 21
4.3410000000000002
 31
0.0
  0
LINE
  5
48B
  8
PEN1
 10
8.677999999999999
 20
4.3410000000000002
 30
0.0
 11
8.6649999999999991
 21
4.3220000000000001
 31
0.0
  0
LINE
  5
48C
  8
PEN1
 10
8.6649999999999991
 20
4.3220000000000001
 30
0.0
 11
8.6839999999999993
 21
4.3220000000000001
 31
0.0
  0
LINE
  5
48D
  8
PEN1
 10
8.6839999999999993
 20
4.3220000000000001
 30
0.0
 11
8.6679999999999993
 21
4.298
 31
0.0
  0
LINE
  5
48E
  8
PEN1
 10
8.6679999999999993
 20
4.298
 30
0.0
 11
8.6750000000000007
 21
4.2910000000000004
 31
0.0
  0
LINE
  5
48F
  8
PEN1
 10
8.6750000000000007
 20
4.2910000000000004
 30
0.0
 11
8.7100000000000009
 21
4.3069999999999986
 31
0.0
  0
LINE
  5
490
  8
PEN1
 10
8.7100000000000009
 20
4.3069999999999986
 30
0.0
 11
8.7530000000000001
 21
4.3300000000000001
 31
0.0
  0
LINE
  5
491
  8
PEN1
 10
8.7530000000000001
 20
4.3300000000000001
 30
0.0
 11
8.7670000000000012
 21
4.3810000000000002
 31
0.0
  0
LINE
  5
492
  8
PEN1
 10
8.7670000000000012
 20
4.3810000000000002
 30
0.0
 11
8.7720000000000002
 21
4.3509999999999991
 31
0.0
  0
LINE
  5
493
  8
PEN1
 10
8.7720000000000002
 20
4.3509999999999991
 30
0.0
 11
8.7670000000000012
 21
4.3360000000000003
 31
0.0
  0
LINE
  5
494
  8
PEN1
 10
8.7670000000000012
 20
4.3360000000000003
 30
0.0
 11
8.7569999999999997
 21
4.3099999999999987
 31
0.0
  0
LINE
  5
495
  8
PEN1
 10
8.7569999999999997
 20
4.3099999999999987
 30
0.0
 11
8.761000000000001
 21
4.2939999999999987
 31
0.0
  0
LINE
  5
496
  8
PEN1
 10
8.761000000000001
 20
4.2939999999999987
 30
0.0
 11
8.777000000000001
 21
4.3369999999999989
 31
0.0
  0
LINE
  5
497
  8
PEN1
 10
8.777000000000001
 20
4.3369999999999989
 30
0.0
 11
8.7839999999999971
 21
4.4329999999999989
 31
0.0
  0
LINE
  5
498
  8
PEN1
 10
8.7839999999999971
 20
4.4329999999999989
 30
0.0
 11
8.7360000000000007
 21
4.423
 31
0.0
  0
LINE
  5
499
  8
PEN1
 10
8.7360000000000007
 20
4.423
 30
0.0
 11
8.6750000000000007
 21
4.4109999999999996
 31
0.0
  0
LINE
  5
49A
  8
PEN1
 10
8.6750000000000007
 20
4.4109999999999996
 30
0.0
 11
8.6709999999999994
 21
4.4319999999999986
 31
0.0
  0
LINE
  5
49B
  8
PEN1
 10
8.6709999999999994
 20
4.4319999999999986
 30
0.0
 11
8.6039999999999992
 21
4.6789999999999994
 31
0.0
  0
LINE
  5
49C
  8
PEN1
 10
8.6039999999999992
 20
4.6789999999999994
 30
0.0
 11
8.0030000000000001
 21
4.5640000000000001
 31
0.0
  0
LINE
  5
49D
  8
PEN1
 10
8.8589999999999982
 20
5.4119999999999999
 30
0.0
 11
8.8589999999999982
 21
5.4119999999999999
 31
0.0
  0
LINE
  5
49E
  8
PEN1
 10
8.8589999999999982
 20
5.4119999999999999
 30
0.0
 11
8.8599999999999994
 21
5.2560000000000002
 31
0.0
  0
LINE
  5
49F
  8
PEN1
 10
8.8599999999999994
 20
5.2560000000000002
 30
0.0
 11
9.1280000000000001
 21
5.3129999999999988
 31
0.0
  0
LINE
  5
4A0
  8
PEN1
 10
9.1280000000000001
 20
5.3129999999999988
 30
0.0
 11
9.1739999999999995
 21
5.3289999999999988
 31
0.0
  0
LINE
  5
4A1
  8
PEN1
 10
9.1739999999999995
 20
5.3289999999999988
 30
0.0
 11
9.1929999999999996
 21
5.3250000000000002
 31
0.0
  0
LINE
  5
4A2
  8
PEN1
 10
9.1929999999999996
 20
5.3250000000000002
 30
0.0
 11
9.2129999999999992
 21
5.282
 31
0.0
  0
LINE
  5
4A3
  8
PEN1
 10
9.2129999999999992
 20
5.282
 30
0.0
 11
9.2430000000000003
 21
5.2770000000000001
 31
0.0
  0
LINE
  5
4A4
  8
PEN1
 10
9.2430000000000003
 20
5.2770000000000001
 30
0.0
 11
9.261000000000001
 21
5.2409999999999997
 31
0.0
  0
LINE
  5
4A5
  8
PEN1
 10
9.261000000000001
 20
5.2409999999999997
 30
0.0
 11
9.2789999999999981
 21
5.2379999999999987
 31
0.0
  0
LINE
  5
4A6
  8
PEN1
 10
9.2789999999999981
 20
5.2379999999999987
 30
0.0
 11
9.2870000000000008
 21
5.2639999999999993
 31
0.0
  0
LINE
  5
4A7
  8
PEN1
 10
9.2870000000000008
 20
5.2639999999999993
 30
0.0
 11
9.3010000000000002
 21
5.2729999999999988
 31
0.0
  0
LINE
  5
4A8
  8
PEN1
 10
9.3010000000000002
 20
5.2729999999999988
 30
0.0
 11
9.3089999999999993
 21
5.2999999999999989
 31
0.0
  0
LINE
  5
4A9
  8
PEN1
 10
9.3089999999999993
 20
5.2999999999999989
 30
0.0
 11
9.3170000000000002
 21
5.3019999999999996
 31
0.0
  0
LINE
  5
4AA
  8
PEN1
 10
9.3170000000000002
 20
5.3019999999999996
 30
0.0
 11
9.3300000000000001
 21
5.2610000000000001
 31
0.0
  0
LINE
  5
4AB
  8
PEN1
 10
9.3300000000000001
 20
5.2610000000000001
 30
0.0
 11
9.3559999999999999
 21
5.270999999999999
 31
0.0
  0
LINE
  5
4AC
  8
PEN1
 10
9.3559999999999999
 20
5.270999999999999
 30
0.0
 11
9.3620000000000001
 21
5.2879999999999994
 31
0.0
  0
LINE
  5
4AD
  8
PEN1
 10
9.3620000000000001
 20
5.2879999999999994
 30
0.0
 11
9.3970000000000002
 21
5.306
 31
0.0
  0
LINE
  5
4AE
  8
PEN1
 10
9.3970000000000002
 20
5.306
 30
0.0
 11
9.4190000000000005
 21
5.3120000000000003
 31
0.0
  0
LINE
  5
4AF
  8
PEN1
 10
9.4190000000000005
 20
5.3120000000000003
 30
0.0
 11
9.4339999999999993
 21
5.2979999999999992
 31
0.0
  0
LINE
  5
4B0
  8
PEN1
 10
9.4339999999999993
 20
5.2979999999999992
 30
0.0
 11
9.4290000000000003
 21
5.3379999999999992
 31
0.0
  0
LINE
  5
4B1
  8
PEN1
 10
9.4290000000000003
 20
5.3379999999999992
 30
0.0
 11
9.4009999999999998
 21
5.3869999999999996
 31
0.0
  0
LINE
  5
4B2
  8
PEN1
 10
9.4009999999999998
 20
5.3869999999999996
 30
0.0
 11
9.3840000000000003
 21
5.3949999999999987
 31
0.0
  0
LINE
  5
4B3
  8
PEN1
 10
9.3840000000000003
 20
5.3949999999999987
 30
0.0
 11
9.3659999999999997
 21
5.3929999999999989
 31
0.0
  0
LINE
  5
4B4
  8
PEN1
 10
9.3659999999999997
 20
5.3929999999999989
 30
0.0
 11
9.3689999999999998
 21
5.3819999999999997
 31
0.0
  0
LINE
  5
4B5
  8
PEN1
 10
9.3689999999999998
 20
5.3819999999999997
 30
0.0
 11
9.3800000000000008
 21
5.3819999999999997
 31
0.0
  0
LINE
  5
4B6
  8
PEN1
 10
9.3800000000000008
 20
5.3819999999999997
 30
0.0
 11
9.3940000000000001
 21
5.3810000000000002
 31
0.0
  0
LINE
  5
4B7
  8
PEN1
 10
9.3940000000000001
 20
5.3810000000000002
 30
0.0
 11
9.4079999999999995
 21
5.3650000000000002
 31
0.0
  0
LINE
  5
4B8
  8
PEN1
 10
9.4079999999999995
 20
5.3650000000000002
 30
0.0
 11
9.4130000000000003
 21
5.3470000000000004
 31
0.0
  0
LINE
  5
4B9
  8
PEN1
 10
9.4130000000000003
 20
5.3470000000000004
 30
0.0
 11
9.4039999999999981
 21
5.3300000000000001
 31
0.0
  0
LINE
  5
4BA
  8
PEN1
 10
9.4039999999999981
 20
5.3300000000000001
 30
0.0
 11
9.3589999999999982
 21
5.3109999999999991
 31
0.0
  0
LINE
  5
4BB
  8
PEN1
 10
9.3589999999999982
 20
5.3109999999999991
 30
0.0
 11
9.3350000000000009
 21
5.3200000000000003
 31
0.0
  0
LINE
  5
4BC
  8
PEN1
 10
9.3350000000000009
 20
5.3200000000000003
 30
0.0
 11
9.3230000000000004
 21
5.3470000000000004
 31
0.0
  0
LINE
  5
4BD
  8
PEN1
 10
9.3230000000000004
 20
5.3470000000000004
 30
0.0
 11
9.3010000000000002
 21
5.3509999999999991
 31
0.0
  0
LINE
  5
4BE
  8
PEN1
 10
9.3010000000000002
 20
5.3509999999999991
 30
0.0
 11
9.3059999999999992
 21
5.3659999999999997
 31
0.0
  0
LINE
  5
4BF
  8
PEN1
 10
9.3059999999999992
 20
5.3659999999999997
 30
0.0
 11
9.282
 21
5.3970000000000002
 31
0.0
  0
LINE
  5
4C0
  8
PEN1
 10
9.282
 20
5.3970000000000002
 30
0.0
 11
9.2520000000000007
 21
5.4089999999999989
 31
0.0
  0
LINE
  5
4C1
  8
PEN1
 10
9.2520000000000007
 20
5.4089999999999989
 30
0.0
 11
9.25
 21
5.3949999999999987
 31
0.0
  0
LINE
  5
4C2
  8
PEN1
 10
9.25
 20
5.3949999999999987
 30
0.0
 11
9.2309999999999999
 21
5.4000000000000004
 31
0.0
  0
LINE
  5
4C3
  8
PEN1
 10
9.2309999999999999
 20
5.4000000000000004
 30
0.0
 11
9.2249999999999996
 21
5.4179999999999993
 31
0.0
  0
LINE
  5
4C4
  8
PEN1
 10
9.2249999999999996
 20
5.4179999999999993
 30
0.0
 11
9.2289999999999992
 21
5.4349999999999987
 31
0.0
  0
LINE
  5
4C5
  8
PEN1
 10
9.2289999999999992
 20
5.4349999999999987
 30
0.0
 11
9.2460000000000004
 21
5.4500000000000002
 31
0.0
  0
LINE
  5
4C6
  8
PEN1
 10
9.2460000000000004
 20
5.4500000000000002
 30
0.0
 11
9.2409999999999997
 21
5.4629999999999992
 31
0.0
  0
LINE
  5
4C7
  8
PEN1
 10
9.2409999999999997
 20
5.4629999999999992
 30
0.0
 11
9.2650000000000006
 21
5.480999999999999
 31
0.0
  0
LINE
  5
4C8
  8
PEN1
 10
9.2650000000000006
 20
5.480999999999999
 30
0.0
 11
9.2400000000000002
 21
5.5019999999999998
 31
0.0
  0
LINE
  5
4C9
  8
PEN1
 10
9.2400000000000002
 20
5.5019999999999998
 30
0.0
 11
9.2289999999999992
 21
5.5300000000000002
 31
0.0
  0
LINE
  5
4CA
  8
PEN1
 10
9.2289999999999992
 20
5.5300000000000002
 30
0.0
 11
9.1750000000000007
 21
5.4879999999999987
 31
0.0
  0
LINE
  5
4CB
  8
PEN1
 10
9.1750000000000007
 20
5.4879999999999987
 30
0.0
 11
8.9839999999999982
 21
5.4390000000000001
 31
0.0
  0
LINE
  5
4CC
  8
PEN1
 10
8.9839999999999982
 20
5.4390000000000001
 30
0.0
 11
8.8589999999999982
 21
5.4119999999999999
 31
0.0
  0
LINE
  5
4CD
  8
PEN1
 10
9.3189999999999991
 20
5.2050000000000001
 30
0.0
 11
9.3189999999999991
 21
5.2050000000000001
 31
0.0
  0
LINE
  5
4CE
  8
PEN1
 10
9.3189999999999991
 20
5.2050000000000001
 30
0.0
 11
9.3410000000000011
 21
5.2479999999999993
 31
0.0
  0
LINE
  5
4CF
  8
PEN1
 10
9.3410000000000011
 20
5.2479999999999993
 30
0.0
 11
9.3710000000000004
 21
5.2290000000000001
 31
0.0
  0
LINE
  5
4D0
  8
PEN1
 10
9.3710000000000004
 20
5.2290000000000001
 30
0.0
 11
9.3189999999999991
 21
5.2050000000000001
 31
0.0
  0
LINE
  5
4D1
  8
PEN1
 10
9.4160000000000004
 20
5.222999999999999
 30
0.0
 11
9.4160000000000004
 21
5.222999999999999
 31
0.0
  0
LINE
  5
4D2
  8
PEN1
 10
9.4160000000000004
 20
5.222999999999999
 30
0.0
 11
9.4390000000000001
 21
5.2539999999999987
 31
0.0
  0
LINE
  5
4D3
  8
PEN1
 10
9.4390000000000001
 20
5.2539999999999987
 30
0.0
 11
9.4570000000000007
 21
5.230999999999999
 31
0.0
  0
LINE
  5
4D4
  8
PEN1
 10
9.4570000000000007
 20
5.230999999999999
 30
0.0
 11
9.4160000000000004
 21
5.222999999999999
 31
0.0
  0
LINE
  5
4D5
  8
PEN1
 10
6.1239999999999988
 20
5.8499999999999988
 30
0.0
 11
6.1239999999999988
 21
5.8499999999999988
 31
0.0
  0
LINE
  5
4D6
  8
PEN1
 10
6.1239999999999988
 20
5.8499999999999988
 30
0.0
 11
6.2009999999999996
 21
5.7960000000000003
 31
0.0
  0
LINE
  5
4D7
  8
PEN1
 10
6.2009999999999996
 20
5.7960000000000003
 30
0.0
 11
6.3899999999999988
 21
5.7469999999999999
 31
0.0
  0
LINE
  5
4D8
  8
PEN1
 10
6.3899999999999988
 20
5.7469999999999999
 30
0.0
 11
6.4770000000000003
 21
5.7359999999999998
 31
0.0
  0
LINE
  5
4D9
  8
PEN1
 10
6.4770000000000003
 20
5.7359999999999998
 30
0.0
 11
6.4900000000000002
 21
5.7060000000000004
 31
0.0
  0
LINE
  5
4DA
  8
PEN1
 10
6.4900000000000002
 20
5.7060000000000004
 30
0.0
 11
6.524
 21
5.6950000000000003
 31
0.0
  0
LINE
  5
4DB
  8
PEN1
 10
6.524
 20
5.6950000000000003
 30
0.0
 11
6.5729999999999986
 21
5.5629999999999988
 31
0.0
  0
LINE
  5
4DC
  8
PEN1
 10
6.5729999999999986
 20
5.5629999999999988
 30
0.0
 11
6.6159999999999997
 21
5.665
 31
0.0
  0
LINE
  5
4DD
  8
PEN1
 10
6.6159999999999997
 20
5.665
 30
0.0
 11
6.625
 21
5.6890000000000001
 31
0.0
  0
LINE
  5
4DE
  8
PEN1
 10
6.625
 20
5.6890000000000001
 30
0.0
 11
6.6389999999999993
 21
5.7039999999999988
 31
0.0
  0
LINE
  5
4DF
  8
PEN1
 10
6.6389999999999993
 20
5.7039999999999988
 30
0.0
 11
6.637999999999999
 21
5.7210000000000001
 31
0.0
  0
LINE
  5
4E0
  8
PEN1
 10
6.637999999999999
 20
5.7210000000000001
 30
0.0
 11
6.653999999999999
 21
5.7479999999999993
 31
0.0
  0
LINE
  5
4E1
  8
PEN1
 10
6.653999999999999
 20
5.7479999999999993
 30
0.0
 11
6.6579999999999986
 21
5.7460000000000004
 31
0.0
  0
LINE
  5
4E2
  8
PEN1
 10
6.6579999999999986
 20
5.7460000000000004
 30
0.0
 11
6.6529999999999987
 21
5.7300000000000004
 31
0.0
  0
LINE
  5
4E3
  8
PEN1
 10
6.6529999999999987
 20
5.7300000000000004
 30
0.0
 11
6.6559999999999997
 21
5.7009999999999996
 31
0.0
  0
LINE
  5
4E4
  8
PEN1
 10
6.6559999999999997
 20
5.7009999999999996
 30
0.0
 11
6.6739999999999986
 21
5.7089999999999987
 31
0.0
  0
LINE
  5
4E5
  8
PEN1
 10
6.6739999999999986
 20
5.7089999999999987
 30
0.0
 11
6.6820000000000004
 21
5.7400000000000002
 31
0.0
  0
LINE
  5
4E6
  8
PEN1
 10
6.6820000000000004
 20
5.7400000000000002
 30
0.0
 11
6.7029999999999994
 21
5.7370000000000001
 31
0.0
  0
LINE
  5
4E7
  8
PEN1
 10
6.7029999999999994
 20
5.7370000000000001
 30
0.0
 11
6.7160000000000002
 21
5.7510000000000003
 31
0.0
  0
LINE
  5
4E8
  8
PEN1
 10
6.7160000000000002
 20
5.7510000000000003
 30
0.0
 11
6.7189999999999994
 21
5.7429999999999994
 31
0.0
  0
LINE
  5
4E9
  8
PEN1
 10
6.7189999999999994
 20
5.7429999999999994
 30
0.0
 11
6.6959999999999997
 21
5.6959999999999997
 31
0.0
  0
LINE
  5
4EA
  8
PEN1
 10
6.6959999999999997
 20
5.6959999999999997
 30
0.0
 11
6.7119999999999997
 21
5.6890000000000001
 31
0.0
  0
LINE
  5
4EB
  8
PEN1
 10
6.7119999999999997
 20
5.6890000000000001
 30
0.0
 11
6.7259999999999991
 21
5.7179999999999991
 31
0.0
  0
LINE
  5
4EC
  8
PEN1
 10
6.7259999999999991
 20
5.7179999999999991
 30
0.0
 11
6.7479999999999993
 21
5.7300000000000004
 31
0.0
  0
LINE
  5
4ED
  8
PEN1
 10
6.7479999999999993
 20
5.7300000000000004
 30
0.0
 11
6.7589999999999986
 21
5.7649999999999988
 31
0.0
  0
LINE
  5
4EE
  8
PEN1
 10
6.7589999999999986
 20
5.7649999999999988
 30
0.0
 11
6.8170000000000002
 21
5.7750000000000004
 31
0.0
  0
LINE
  5
4EF
  8
PEN1
 10
6.8170000000000002
 20
5.7750000000000004
 30
0.0
 11
6.8449999999999989
 21
5.7779999999999987
 31
0.0
  0
LINE
  5
4F0
  8
PEN1
 10
6.8449999999999989
 20
5.7779999999999987
 30
0.0
 11
6.8869999999999996
 21
5.8090000000000002
 31
0.0
  0
LINE
  5
4F1
  8
PEN1
 10
6.8869999999999996
 20
5.8090000000000002
 30
0.0
 11
6.9500000000000002
 21
5.7989999999999986
 31
0.0
  0
LINE
  5
4F2
  8
PEN1
 10
6.9500000000000002
 20
5.7989999999999986
 30
0.0
 11
6.992
 21
5.7690000000000001
 31
0.0
  0
LINE
  5
4F3
  8
PEN1
 10
6.992
 20
5.7690000000000001
 30
0.0
 11
6.9950000000000001
 21
5.8070000000000004
 31
0.0
  0
LINE
  5
4F4
  8
PEN1
 10
6.9950000000000001
 20
5.8070000000000004
 30
0.0
 11
7.0170000000000003
 21
5.8079999999999989
 31
0.0
  0
LINE
  5
4F5
  8
PEN1
 10
7.0170000000000003
 20
5.8079999999999989
 30
0.0
 11
7.0689999999999991
 21
5.8039999999999994
 31
0.0
  0
LINE
  5
4F6
  8
PEN1
 10
7.0689999999999991
 20
5.8039999999999994
 30
0.0
 11
7.1109999999999998
 21
5.8150000000000004
 31
0.0
  0
LINE
  5
4F7
  8
PEN1
 10
7.1109999999999998
 20
5.8150000000000004
 30
0.0
 11
7.056
 21
5.8490000000000002
 31
0.0
  0
LINE
  5
4F8
  8
PEN1
 10
7.056
 20
5.8490000000000002
 30
0.0
 11
7.044999999999999
 21
5.903999999999999
 31
0.0
  0
LINE
  5
4F9
  8
PEN1
 10
7.044999999999999
 20
5.903999999999999
 30
0.0
 11
7.0019999999999998
 21
5.8929999999999989
 31
0.0
  0
LINE
  5
4FA
  8
PEN1
 10
7.0019999999999998
 20
5.8929999999999989
 30
0.0
 11
6.9870000000000001
 21
5.903999999999999
 31
0.0
  0
LINE
  5
4FB
  8
PEN1
 10
6.9870000000000001
 20
5.903999999999999
 30
0.0
 11
6.9689999999999994
 21
5.8929999999999989
 31
0.0
  0
LINE
  5
4FC
  8
PEN1
 10
6.9689999999999994
 20
5.8929999999999989
 30
0.0
 11
6.9439999999999991
 21
5.899
 31
0.0
  0
LINE
  5
4FD
  8
PEN1
 10
6.9439999999999991
 20
5.899
 30
0.0
 11
6.9320000000000004
 21
5.9009999999999989
 31
0.0
  0
LINE
  5
4FE
  8
PEN1
 10
6.9320000000000004
 20
5.9009999999999989
 30
0.0
 11
6.927999999999999
 21
5.9320000000000004
 31
0.0
  0
LINE
  5
4FF
  8
PEN1
 10
6.927999999999999
 20
5.9320000000000004
 30
0.0
 11
6.9370000000000003
 21
5.9619999999999997
 31
0.0
  0
LINE
  5
500
  8
PEN1
 10
6.9370000000000003
 20
5.9619999999999997
 30
0.0
 11
6.8940000000000001
 21
5.9529999999999994
 31
0.0
  0
LINE
  5
501
  8
PEN1
 10
6.8940000000000001
 20
5.9529999999999994
 30
0.0
 11
6.8550000000000004
 21
5.9329999999999989
 31
0.0
  0
LINE
  5
502
  8
PEN1
 10
6.8550000000000004
 20
5.9329999999999989
 30
0.0
 11
6.754999999999999
 21
5.9189999999999987
 31
0.0
  0
LINE
  5
503
  8
PEN1
 10
6.754999999999999
 20
5.9189999999999987
 30
0.0
 11
6.6900000000000004
 21
5.8589999999999991
 31
0.0
  0
LINE
  5
504
  8
PEN1
 10
6.6900000000000004
 20
5.8589999999999991
 30
0.0
 11
6.677999999999999
 21
5.8719999999999999
 31
0.0
  0
LINE
  5
505
  8
PEN1
 10
6.677999999999999
 20
5.8719999999999999
 30
0.0
 11
6.6579999999999986
 21
5.8629999999999987
 31
0.0
  0
LINE
  5
506
  8
PEN1
 10
6.6579999999999986
 20
5.8629999999999987
 30
0.0
 11
6.6329999999999991
 21
5.8810000000000002
 31
0.0
  0
LINE
  5
507
  8
PEN1
 10
6.6329999999999991
 20
5.8810000000000002
 30
0.0
 11
6.617
 21
5.875
 31
0.0
  0
LINE
  5
508
  8
PEN1
 10
6.617
 20
5.875
 30
0.0
 11
6.5819999999999999
 21
5.8689999999999989
 31
0.0
  0
LINE
  5
509
  8
PEN1
 10
6.5819999999999999
 20
5.8689999999999989
 30
0.0
 11
6.532
 21
5.9370000000000003
 31
0.0
  0
LINE
  5
50A
  8
PEN1
 10
6.532
 20
5.9370000000000003
 30
0.0
 11
6.472999999999999
 21
5.948999999999999
 31
0.0
  0
LINE
  5
50B
  8
PEN1
 10
6.472999999999999
 20
5.948999999999999
 30
0.0
 11
6.4560000000000004
 21
5.9450000000000003
 31
0.0
  0
LINE
  5
50C
  8
PEN1
 10
6.4560000000000004
 20
5.9450000000000003
 30
0.0
 11
6.4439999999999991
 21
5.9289999999999994
 31
0.0
  0
LINE
  5
50D
  8
PEN1
 10
6.4439999999999991
 20
5.9289999999999994
 30
0.0
 11
6.4539999999999988
 21
5.9579999999999993
 31
0.0
  0
LINE
  5
50E
  8
PEN1
 10
6.4539999999999988
 20
5.9579999999999993
 30
0.0
 11
6.4260000000000002
 21
5.9349999999999987
 31
0.0
  0
LINE
  5
50F
  8
PEN1
 10
6.4260000000000002
 20
5.9349999999999987
 30
0.0
 11
6.4139999999999988
 21
5.9109999999999996
 31
0.0
  0
LINE
  5
510
  8
PEN1
 10
6.4139999999999988
 20
5.9109999999999996
 30
0.0
 11
6.4160000000000004
 21
5.952
 31
0.0
  0
LINE
  5
511
  8
PEN1
 10
6.4160000000000004
 20
5.952
 30
0.0
 11
6.4439999999999991
 21
6.0099999999999989
 31
0.0
  0
LINE
  5
512
  8
PEN1
 10
6.4439999999999991
 20
6.0099999999999989
 30
0.0
 11
6.4790000000000001
 21
6.0510000000000002
 31
0.0
  0
LINE
  5
513
  8
PEN1
 10
6.4790000000000001
 20
6.0510000000000002
 30
0.0
 11
6.512999999999999
 21
6.0620000000000003
 31
0.0
  0
LINE
  5
514
  8
PEN1
 10
6.512999999999999
 20
6.0620000000000003
 30
0.0
 11
6.5079999999999991
 21
6.0709999999999997
 31
0.0
  0
LINE
  5
515
  8
PEN1
 10
6.5079999999999991
 20
6.0709999999999997
 30
0.0
 11
6.4500000000000002
 21
6.0659999999999989
 31
0.0
  0
LINE
  5
516
  8
PEN1
 10
6.4500000000000002
 20
6.0659999999999989
 30
0.0
 11
6.4139999999999988
 21
6.0460000000000003
 31
0.0
  0
LINE
  5
517
  8
PEN1
 10
6.4139999999999988
 20
6.0460000000000003
 30
0.0
 11
6.4020000000000001
 21
6.0259999999999989
 31
0.0
  0
LINE
  5
518
  8
PEN1
 10
6.4020000000000001
 20
6.0259999999999989
 30
0.0
 11
6.3570000000000002
 21
5.9909999999999997
 31
0.0
  0
LINE
  5
519
  8
PEN1
 10
6.3570000000000002
 20
5.9909999999999997
 30
0.0
 11
6.3389999999999986
 21
5.9610000000000003
 31
0.0
  0
LINE
  5
51A
  8
PEN1
 10
6.3389999999999986
 20
5.9610000000000003
 30
0.0
 11
6.3070000000000004
 21
5.952
 31
0.0
  0
LINE
  5
51B
  8
PEN1
 10
6.3070000000000004
 20
5.952
 30
0.0
 11
6.294999999999999
 21
5.9329999999999989
 31
0.0
  0
LINE
  5
51C
  8
PEN1
 10
6.294999999999999
 20
5.9329999999999989
 30
0.0
 11
6.274
 21
5.9219999999999997
 31
0.0
  0
LINE
  5
51D
  8
PEN1
 10
6.274
 20
5.9219999999999997
 30
0.0
 11
6.214999999999999
 21
5.9119999999999999
 31
0.0
  0
LINE
  5
51E
  8
PEN1
 10
6.214999999999999
 20
5.9119999999999999
 30
0.0
 11
6.202
 21
5.899
 31
0.0
  0
LINE
  5
51F
  8
PEN1
 10
6.202
 20
5.899
 30
0.0
 11
6.1739999999999986
 21
5.8739999999999988
 31
0.0
  0
LINE
  5
520
  8
PEN1
 10
6.1739999999999986
 20
5.8739999999999988
 30
0.0
 11
6.1239999999999988
 21
5.8499999999999988
 31
0.0
  0
LINE
  5
521
  8
PEN1
 10
6.7569999999999997
 20
4.8520000000000003
 30
0.0
 11
6.7569999999999997
 21
4.8520000000000003
 31
0.0
  0
LINE
  5
522
  8
PEN1
 10
6.7569999999999997
 20
4.8520000000000003
 30
0.0
 11
6.8209999999999997
 21
4.9619999999999989
 31
0.0
  0
LINE
  5
523
  8
PEN1
 10
6.8209999999999997
 20
4.9619999999999989
 30
0.0
 11
6.8329999999999993
 21
5.0019999999999989
 31
0.0
  0
LINE
  5
524
  8
PEN1
 10
6.8329999999999993
 20
5.0019999999999989
 30
0.0
 11
6.8369999999999997
 21
5.0789999999999988
 31
0.0
  0
LINE
  5
525
  8
PEN1
 10
6.8369999999999997
 20
5.0789999999999988
 30
0.0
 11
6.8220000000000001
 21
5.153999999999999
 31
0.0
  0
LINE
  5
526
  8
PEN1
 10
6.8220000000000001
 20
5.153999999999999
 30
0.0
 11
6.7839999999999989
 21
5.2259999999999991
 31
0.0
  0
LINE
  5
527
  8
PEN1
 10
6.7839999999999989
 20
5.2259999999999991
 30
0.0
 11
6.7670000000000003
 21
5.2670000000000003
 31
0.0
  0
LINE
  5
528
  8
PEN1
 10
6.7670000000000003
 20
5.2670000000000003
 30
0.0
 11
6.778999999999999
 21
5.302999999999999
 31
0.0
  0
LINE
  5
529
  8
PEN1
 10
6.778999999999999
 20
5.302999999999999
 30
0.0
 11
6.7610000000000001
 21
5.3490000000000002
 31
0.0
  0
LINE
  5
52A
  8
PEN1
 10
6.7610000000000001
 20
5.3490000000000002
 30
0.0
 11
6.7800000000000002
 21
5.3810000000000002
 31
0.0
  0
LINE
  5
52B
  8
PEN1
 10
6.7800000000000002
 20
5.3810000000000002
 30
0.0
 11
6.794999999999999
 21
5.4589999999999987
 31
0.0
  0
LINE
  5
52C
  8
PEN1
 10
6.794999999999999
 20
5.4589999999999987
 30
0.0
 11
6.7910000000000004
 21
5.4960000000000004
 31
0.0
  0
LINE
  5
52D
  8
PEN1
 10
6.7910000000000004
 20
5.4960000000000004
 30
0.0
 11
6.8159999999999989
 21
5.5179999999999989
 31
0.0
  0
LINE
  5
52E
  8
PEN1
 10
6.8159999999999989
 20
5.5179999999999989
 30
0.0
 11
6.8129999999999988
 21
5.5429999999999993
 31
0.0
  0
LINE
  5
52F
  8
PEN1
 10
6.8129999999999988
 20
5.5429999999999993
 30
0.0
 11
6.8529999999999989
 21
5.5620000000000003
 31
0.0
  0
LINE
  5
530
  8
PEN1
 10
6.8529999999999989
 20
5.5620000000000003
 30
0.0
 11
6.8869999999999996
 21
5.6179999999999994
 31
0.0
  0
LINE
  5
531
  8
PEN1
 10
6.8869999999999996
 20
5.6179999999999994
 30
0.0
 11
6.8819999999999997
 21
5.5259999999999989
 31
0.0
  0
LINE
  5
532
  8
PEN1
 10
6.8819999999999997
 20
5.5259999999999989
 30
0.0
 11
6.9100000000000001
 21
5.544999999999999
 31
0.0
  0
LINE
  5
533
  8
PEN1
 10
6.9100000000000001
 20
5.544999999999999
 30
0.0
 11
6.9089999999999989
 21
5.6200000000000001
 31
0.0
  0
LINE
  5
534
  8
PEN1
 10
6.9089999999999989
 20
5.6200000000000001
 30
0.0
 11
6.9470000000000001
 21
5.6619999999999999
 31
0.0
  0
LINE
  5
535
  8
PEN1
 10
6.9470000000000001
 20
5.6619999999999999
 30
0.0
 11
6.972999999999999
 21
5.6669999999999998
 31
0.0
  0
LINE
  5
536
  8
PEN1
 10
6.972999999999999
 20
5.6669999999999998
 30
0.0
 11
6.9509999999999996
 21
5.6799999999999988
 31
0.0
  0
LINE
  5
537
  8
PEN1
 10
6.9509999999999996
 20
5.6799999999999988
 30
0.0
 11
6.9429999999999987
 21
5.7060000000000004
 31
0.0
  0
LINE
  5
538
  8
PEN1
 10
6.9429999999999987
 20
5.7060000000000004
 30
0.0
 11
6.9579999999999993
 21
5.7439999999999989
 31
0.0
  0
LINE
  5
539
  8
PEN1
 10
6.9579999999999993
 20
5.7439999999999989
 30
0.0
 11
6.992
 21
5.7560000000000002
 31
0.0
  0
LINE
  5
53A
  8
PEN1
 10
6.992
 20
5.7560000000000002
 30
0.0
 11
7.0700000000000003
 21
5.7329999999999988
 31
0.0
  0
LINE
  5
53B
  8
PEN1
 10
7.0700000000000003
 20
5.7329999999999988
 30
0.0
 11
7.0990000000000002
 21
5.7039999999999988
 31
0.0
  0
LINE
  5
53C
  8
PEN1
 10
7.0990000000000002
 20
5.7039999999999988
 30
0.0
 11
7.1909999999999989
 21
5.6840000000000002
 31
0.0
  0
LINE
  5
53D
  8
PEN1
 10
7.1909999999999989
 20
5.6840000000000002
 30
0.0
 11
7.2089999999999987
 21
5.6550000000000002
 31
0.0
  0
LINE
  5
53E
  8
PEN1
 10
7.2089999999999987
 20
5.6550000000000002
 30
0.0
 11
7.2350000000000003
 21
5.6229999999999993
 31
0.0
  0
LINE
  5
53F
  8
PEN1
 10
7.2350000000000003
 20
5.6229999999999993
 30
0.0
 11
7.2110000000000003
 21
5.6239999999999988
 31
0.0
  0
LINE
  5
540
  8
PEN1
 10
7.2110000000000003
 20
5.6239999999999988
 30
0.0
 11
7.2079999999999993
 21
5.6050000000000004
 31
0.0
  0
LINE
  5
541
  8
PEN1
 10
7.2079999999999993
 20
5.6050000000000004
 30
0.0
 11
7.2359999999999998
 21
5.5700000000000003
 31
0.0
  0
LINE
  5
542
  8
PEN1
 10
7.2359999999999998
 20
5.5700000000000003
 30
0.0
 11
7.242
 21
5.5089999999999986
 31
0.0
  0
LINE
  5
543
  8
PEN1
 10
7.242
 20
5.5089999999999986
 30
0.0
 11
7.242
 21
5.4710000000000001
 31
0.0
  0
LINE
  5
544
  8
PEN1
 10
7.242
 20
5.4710000000000001
 30
0.0
 11
7.2139999999999986
 21
5.4269999999999996
 31
0.0
  0
LINE
  5
545
  8
PEN1
 10
7.2139999999999986
 20
5.4269999999999996
 30
0.0
 11
7.2110000000000003
 21
5.403999999999999
 31
0.0
  0
LINE
  5
546
  8
PEN1
 10
7.2110000000000003
 20
5.403999999999999
 30
0.0
 11
7.1749999999999989
 21
5.3860000000000001
 31
0.0
  0
LINE
  5
547
  8
PEN1
 10
7.1749999999999989
 20
5.3860000000000001
 30
0.0
 11
7.1669999999999998
 21
5.3659999999999997
 31
0.0
  0
LINE
  5
548
  8
PEN1
 10
7.1669999999999998
 20
5.3659999999999997
 30
0.0
 11
7.1710000000000003
 21
5.3200000000000003
 31
0.0
  0
LINE
  5
549
  8
PEN1
 10
7.1710000000000003
 20
5.3200000000000003
 30
0.0
 11
7.2099999999999991
 21
5.2999999999999989
 31
0.0
  0
LINE
  5
54A
  8
PEN1
 10
7.2099999999999991
 20
5.2999999999999989
 30
0.0
 11
7.2409999999999997
 21
5.3369999999999997
 31
0.0
  0
LINE
  5
54B
  8
PEN1
 10
7.2409999999999997
 20
5.3369999999999997
 30
0.0
 11
7.262999999999999
 21
5.387999999999999
 31
0.0
  0
LINE
  5
54C
  8
PEN1
 10
7.262999999999999
 20
5.387999999999999
 30
0.0
 11
7.3170000000000002
 21
5.4189999999999987
 31
0.0
  0
LINE
  5
54D
  8
PEN1
 10
7.3170000000000002
 20
5.4189999999999987
 30
0.0
 11
7.3529999999999989
 21
5.4000000000000004
 31
0.0
  0
LINE
  5
54E
  8
PEN1
 10
7.3529999999999989
 20
5.4000000000000004
 30
0.0
 11
7.3769999999999998
 21
5.3449999999999989
 31
0.0
  0
LINE
  5
54F
  8
PEN1
 10
7.3769999999999998
 20
5.3449999999999989
 30
0.0
 11
7.4079999999999986
 21
5.2359999999999998
 31
0.0
  0
LINE
  5
550
  8
PEN1
 10
7.4079999999999986
 20
5.2359999999999998
 30
0.0
 11
7.4210000000000003
 21
5.2000000000000002
 31
0.0
  0
LINE
  5
551
  8
PEN1
 10
7.4210000000000003
 20
5.2000000000000002
 30
0.0
 11
7.4129999999999994
 21
5.1719999999999997
 31
0.0
  0
LINE
  5
552
  8
PEN1
 10
7.4129999999999994
 20
5.1719999999999997
 30
0.0
 11
7.4169999999999998
 21
5.1260000000000003
 31
0.0
  0
LINE
  5
553
  8
PEN1
 10
7.4169999999999998
 20
5.1260000000000003
 30
0.0
 11
7.4059999999999997
 21
5.1009999999999991
 31
0.0
  0
LINE
  5
554
  8
PEN1
 10
7.4059999999999997
 20
5.1009999999999991
 30
0.0
 11
7.3899999999999988
 21
5.1260000000000003
 31
0.0
  0
LINE
  5
555
  8
PEN1
 10
7.3899999999999988
 20
5.1260000000000003
 30
0.0
 11
7.3729999999999993
 21
5.1150000000000002
 31
0.0
  0
LINE
  5
556
  8
PEN1
 10
7.3729999999999993
 20
5.1150000000000002
 30
0.0
 11
7.3710000000000004
 21
5.0730000000000004
 31
0.0
  0
LINE
  5
557
  8
PEN1
 10
7.3710000000000004
 20
5.0730000000000004
 30
0.0
 11
7.363999999999999
 21
5.0539999999999994
 31
0.0
  0
LINE
  5
558
  8
PEN1
 10
7.363999999999999
 20
5.0539999999999994
 30
0.0
 11
7.3360000000000003
 21
5.0350000000000001
 31
0.0
  0
LINE
  5
559
  8
PEN1
 10
7.3360000000000003
 20
5.0350000000000001
 30
0.0
 11
7.3349999999999991
 21
4.9779999999999989
 31
0.0
  0
LINE
  5
55A
  8
PEN1
 10
7.3349999999999991
 20
4.9779999999999989
 30
0.0
 11
7.3150000000000004
 21
4.9539999999999988
 31
0.0
  0
LINE
  5
55B
  8
PEN1
 10
7.3150000000000004
 20
4.9539999999999988
 30
0.0
 11
7.2979999999999992
 21
4.907
 31
0.0
  0
LINE
  5
55C
  8
PEN1
 10
7.2979999999999992
 20
4.907
 30
0.0
 11
7.0829999999999993
 21
4.8730000000000002
 31
0.0
  0
LINE
  5
55D
  8
PEN1
 10
7.0829999999999993
 20
4.8730000000000002
 30
0.0
 11
7.0759999999999996
 21
4.8869999999999987
 31
0.0
  0
LINE
  5
55E
  8
PEN1
 10
7.0759999999999996
 20
4.8869999999999987
 30
0.0
 11
6.7569999999999997
 21
4.8520000000000003
 31
0.0
  0
LINE
  5
55F
  8
PEN1
 10
5.1109999999999998
 20
6.3579999999999988
 30
0.0
 11
5.1109999999999998
 21
6.3579999999999988
 31
0.0
  0
LINE
  5
560
  8
PEN1
 10
5.1109999999999998
 20
6.3579999999999988
 30
0.0
 11
5.1189999999999989
 21
6.1789999999999994
 31
0.0
  0
LINE
  5
561
  8
PEN1
 10
5.1189999999999989
 20
6.1789999999999994
 30
0.0
 11
5.1629999999999994
 21
6.0339999999999989
 31
0.0
  0
LINE
  5
562
  8
PEN1
 10
5.1629999999999994
 20
6.0339999999999989
 30
0.0
 11
5.1689999999999987
 21
5.8470000000000004
 31
0.0
  0
LINE
  5
563
  8
PEN1
 10
5.1689999999999987
 20
5.8470000000000004
 30
0.0
 11
5.2000000000000002
 21
5.6959999999999997
 31
0.0
  0
LINE
  5
564
  8
PEN1
 10
5.2000000000000002
 20
5.6959999999999997
 30
0.0
 11
5.1600000000000001
 21
5.6200000000000001
 31
0.0
  0
LINE
  5
565
  8
PEN1
 10
5.1600000000000001
 20
5.6200000000000001
 30
0.0
 11
5.2169999999999996
 21
5.5629999999999988
 31
0.0
  0
LINE
  5
566
  8
PEN1
 10
5.2169999999999996
 20
5.5629999999999988
 30
0.0
 11
5.2139999999999986
 21
5.165
 31
0.0
  0
LINE
  5
567
  8
PEN1
 10
5.2139999999999986
 20
5.165
 30
0.0
 11
6.032
 21
5.181
 31
0.0
  0
LINE
  5
568
  8
PEN1
 10
6.032
 20
5.181
 30
0.0
 11
6.0190000000000001
 21
5.2579999999999991
 31
0.0
  0
LINE
  5
569
  8
PEN1
 10
6.0190000000000001
 20
5.2579999999999991
 30
0.0
 11
5.9939999999999989
 21
5.2869999999999999
 31
0.0
  0
LINE
  5
56A
  8
PEN1
 10
5.9939999999999989
 20
5.2869999999999999
 30
0.0
 11
5.931
 21
5.3279999999999994
 31
0.0
  0
LINE
  5
56B
  8
PEN1
 10
5.931
 20
5.3279999999999994
 30
0.0
 11
5.8869999999999996
 21
5.3760000000000003
 31
0.0
  0
LINE
  5
56C
  8
PEN1
 10
5.8869999999999996
 20
5.3760000000000003
 30
0.0
 11
5.7770000000000001
 21
5.4450000000000003
 31
0.0
  0
LINE
  5
56D
  8
PEN1
 10
5.7770000000000001
 20
5.4450000000000003
 30
0.0
 11
5.7800000000000002
 21
5.5620000000000003
 31
0.0
  0
LINE
  5
56E
  8
PEN1
 10
5.7800000000000002
 20
5.5620000000000003
 30
0.0
 11
5.7560000000000002
 21
5.6360000000000001
 31
0.0
  0
LINE
  5
56F
  8
PEN1
 10
5.7560000000000002
 20
5.6360000000000001
 30
0.0
 11
5.8449999999999989
 21
5.7489999999999988
 31
0.0
  0
LINE
  5
570
  8
PEN1
 10
5.8449999999999989
 20
5.7489999999999988
 30
0.0
 11
5.839999999999999
 21
5.8589999999999991
 31
0.0
  0
LINE
  5
571
  8
PEN1
 10
5.839999999999999
 20
5.8589999999999991
 30
0.0
 11
5.8609999999999998
 21
5.8779999999999992
 31
0.0
  0
LINE
  5
572
  8
PEN1
 10
5.8609999999999998
 20
5.8779999999999992
 30
0.0
 11
5.9710000000000001
 21
5.9699999999999989
 31
0.0
  0
LINE
  5
573
  8
PEN1
 10
5.9710000000000001
 20
5.9699999999999989
 30
0.0
 11
6.0270000000000001
 21
6.0379999999999994
 31
0.0
  0
LINE
  5
574
  8
PEN1
 10
6.0270000000000001
 20
6.0379999999999994
 30
0.0
 11
6.0990000000000002
 21
6.0949999999999989
 31
0.0
  0
LINE
  5
575
  8
PEN1
 10
6.0990000000000002
 20
6.0949999999999989
 30
0.0
 11
6.2450000000000001
 21
6.169999999999999
 31
0.0
  0
LINE
  5
576
  8
PEN1
 10
6.2450000000000001
 20
6.169999999999999
 30
0.0
 11
6.1909999999999989
 21
6.165
 31
0.0
  0
LINE
  5
577
  8
PEN1
 10
6.1909999999999989
 20
6.165
 30
0.0
 11
6.141
 21
6.1890000000000001
 31
0.0
  0
LINE
  5
578
  8
PEN1
 10
6.141
 20
6.1890000000000001
 30
0.0
 11
6.0599999999999987
 21
6.181
 31
0.0
  0
LINE
  5
579
  8
PEN1
 10
6.0599999999999987
 20
6.181
 30
0.0
 11
6.0429999999999993
 21
6.2119999999999997
 31
0.0
  0
LINE
  5
57A
  8
PEN1
 10
6.0429999999999993
 20
6.2119999999999997
 30
0.0
 11
6.0170000000000003
 21
6.198999999999999
 31
0.0
  0
LINE
  5
57B
  8
PEN1
 10
6.0170000000000003
 20
6.198999999999999
 30
0.0
 11
5.9610000000000003
 21
6.1660000000000004
 31
0.0
  0
LINE
  5
57C
  8
PEN1
 10
5.9610000000000003
 20
6.1660000000000004
 30
0.0
 11
5.9219999999999997
 21
6.1769999999999996
 31
0.0
  0
LINE
  5
57D
  8
PEN1
 10
5.9219999999999997
 20
6.1769999999999996
 30
0.0
 11
5.9059999999999997
 21
6.1950000000000003
 31
0.0
  0
LINE
  5
57E
  8
PEN1
 10
5.9059999999999997
 20
6.1950000000000003
 30
0.0
 11
5.8760000000000003
 21
6.2039999999999988
 31
0.0
  0
LINE
  5
57F
  8
PEN1
 10
5.8760000000000003
 20
6.2039999999999988
 30
0.0
 11
5.8620000000000001
 21
6.2279999999999989
 31
0.0
  0
LINE
  5
580
  8
PEN1
 10
5.8620000000000001
 20
6.2279999999999989
 30
0.0
 11
5.8339999999999987
 21
6.2240000000000002
 31
0.0
  0
LINE
  5
581
  8
PEN1
 10
5.8339999999999987
 20
6.2240000000000002
 30
0.0
 11
5.8319999999999999
 21
6.2029999999999994
 31
0.0
  0
LINE
  5
582
  8
PEN1
 10
5.8319999999999999
 20
6.2029999999999994
 30
0.0
 11
5.8189999999999991
 21
6.1979999999999986
 31
0.0
  0
LINE
  5
583
  8
PEN1
 10
5.8189999999999991
 20
6.1979999999999986
 30
0.0
 11
5.7979999999999992
 21
6.2439999999999989
 31
0.0
  0
LINE
  5
584
  8
PEN1
 10
5.7979999999999992
 20
6.2439999999999989
 30
0.0
 11
5.770999999999999
 21
6.2450000000000001
 31
0.0
  0
LINE
  5
585
  8
PEN1
 10
5.770999999999999
 20
6.2450000000000001
 30
0.0
 11
5.7800000000000002
 21
6.2670000000000003
 31
0.0
  0
LINE
  5
586
  8
PEN1
 10
5.7800000000000002
 20
6.2670000000000003
 30
0.0
 11
5.7139999999999986
 21
6.2800000000000002
 31
0.0
  0
LINE
  5
587
  8
PEN1
 10
5.7139999999999986
 20
6.2800000000000002
 30
0.0
 11
5.6900000000000004
 21
6.2829999999999986
 31
0.0
  0
LINE
  5
588
  8
PEN1
 10
5.6900000000000004
 20
6.2829999999999986
 30
0.0
 11
5.6129999999999987
 21
6.2519999999999998
 31
0.0
  0
LINE
  5
589
  8
PEN1
 10
5.6129999999999987
 20
6.2519999999999998
 30
0.0
 11
5.6009999999999991
 21
6.2800000000000002
 31
0.0
  0
LINE
  5
58A
  8
PEN1
 10
5.6009999999999991
 20
6.2800000000000002
 30
0.0
 11
5.480999999999999
 21
6.3049999999999988
 31
0.0
  0
LINE
  5
58B
  8
PEN1
 10
5.480999999999999
 20
6.3049999999999988
 30
0.0
 11
5.4610000000000003
 21
6.427999999999999
 31
0.0
  0
LINE
  5
58C
  8
PEN1
 10
5.4610000000000003
 20
6.427999999999999
 30
0.0
 11
5.4109999999999996
 21
6.4379999999999988
 31
0.0
  0
LINE
  5
58D
  8
PEN1
 10
5.4109999999999996
 20
6.4379999999999988
 30
0.0
 11
5.4100000000000001
 21
6.3570000000000002
 31
0.0
  0
LINE
  5
58E
  8
PEN1
 10
5.4100000000000001
 20
6.3570000000000002
 30
0.0
 11
5.1109999999999998
 21
6.3579999999999988
 31
0.0
  0
LINE
  5
58F
  8
PEN1
 10
6.0810000000000004
 20
2.4550000000000001
 30
0.0
 11
6.0810000000000004
 21
2.4550000000000001
 31
0.0
  0
LINE
  5
590
  8
PEN1
 10
6.0810000000000004
 20
2.4550000000000001
 30
0.0
 11
6.0829999999999993
 21
2.4950000000000001
 31
0.0
  0
LINE
  5
591
  8
PEN1
 10
6.0829999999999993
 20
2.4950000000000001
 30
0.0
 11
6.1219999999999999
 21
2.6150000000000002
 31
0.0
  0
LINE
  5
592
  8
PEN1
 10
6.1219999999999999
 20
2.6150000000000002
 30
0.0
 11
6.1820000000000004
 21
2.6960000000000002
 31
0.0
  0
LINE
  5
593
  8
PEN1
 10
6.1820000000000004
 20
2.6960000000000002
 30
0.0
 11
6.1629999999999994
 21
2.718999999999999
 31
0.0
  0
LINE
  5
594
  8
PEN1
 10
6.1629999999999994
 20
2.718999999999999
 30
0.0
 11
6.169999999999999
 21
2.7969999999999988
 31
0.0
  0
LINE
  5
595
  8
PEN1
 10
6.169999999999999
 20
2.7969999999999988
 30
0.0
 11
6.1399999999999988
 21
2.887999999999999
 31
0.0
  0
LINE
  5
596
  8
PEN1
 10
6.1399999999999988
 20
2.887999999999999
 30
0.0
 11
6.1289999999999987
 21
3.0069999999999988
 31
0.0
  0
LINE
  5
597
  8
PEN1
 10
6.1289999999999987
 20
3.0069999999999988
 30
0.0
 11
6.1739999999999986
 21
3.1360000000000001
 31
0.0
  0
LINE
  5
598
  8
PEN1
 10
6.1739999999999986
 20
3.1360000000000001
 30
0.0
 11
6.2379999999999987
 21
3.226999999999999
 31
0.0
  0
LINE
  5
599
  8
PEN1
 10
6.2379999999999987
 20
3.226999999999999
 30
0.0
 11
6.2350000000000003
 21
3.2519999999999989
 31
0.0
  0
LINE
  5
59A
  8
PEN1
 10
6.2350000000000003
 20
3.2519999999999989
 30
0.0
 11
6.2829999999999986
 21
3.331999999999999
 31
0.0
  0
LINE
  5
59B
  8
PEN1
 10
6.2829999999999986
 20
3.331999999999999
 30
0.0
 11
6.6509999999999989
 21
3.3559999999999999
 31
0.0
  0
LINE
  5
59C
  8
PEN1
 10
6.6509999999999989
 20
3.3559999999999999
 30
0.0
 11
6.6669999999999998
 21
3.3359999999999999
 31
0.0
  0
LINE
  5
59D
  8
PEN1
 10
6.6669999999999998
 20
3.3359999999999999
 30
0.0
 11
6.6509999999999989
 21
2.677
 31
0.0
  0
LINE
  5
59E
  8
PEN1
 10
6.6509999999999989
 20
2.677
 30
0.0
 11
6.6909999999999989
 21
2.3580000000000001
 31
0.0
  0
LINE
  5
59F
  8
PEN1
 10
6.6909999999999989
 20
2.3580000000000001
 30
0.0
 11
6.6749999999999989
 21
2.343999999999999
 31
0.0
  0
LINE
  5
5A0
  8
PEN1
 10
6.6749999999999989
 20
2.343999999999999
 30
0.0
 11
6.6520000000000001
 21
2.3580000000000001
 31
0.0
  0
LINE
  5
5A1
  8
PEN1
 10
6.6520000000000001
 20
2.3580000000000001
 30
0.0
 11
6.6229999999999993
 21
2.343999999999999
 31
0.0
  0
LINE
  5
5A2
  8
PEN1
 10
6.6229999999999993
 20
2.343999999999999
 30
0.0
 11
6.597999999999999
 21
2.3609999999999989
 31
0.0
  0
LINE
  5
5A3
  8
PEN1
 10
6.597999999999999
 20
2.3609999999999989
 30
0.0
 11
6.5960000000000001
 21
2.3500000000000001
 31
0.0
  0
LINE
  5
5A4
  8
PEN1
 10
6.5960000000000001
 20
2.3500000000000001
 30
0.0
 11
6.5670000000000002
 21
2.3469999999999991
 31
0.0
  0
LINE
  5
5A5
  8
PEN1
 10
6.5670000000000002
 20
2.3469999999999991
 30
0.0
 11
6.5279999999999987
 21
2.3279999999999998
 31
0.0
  0
LINE
  5
5A6
  8
PEN1
 10
6.5279999999999987
 20
2.3279999999999998
 30
0.0
 11
6.5149999999999988
 21
2.3380000000000001
 31
0.0
  0
LINE
  5
5A7
  8
PEN1
 10
6.5149999999999988
 20
2.3380000000000001
 30
0.0
 11
6.4960000000000004
 21
2.302999999999999
 31
0.0
  0
LINE
  5
5A8
  8
PEN1
 10
6.4960000000000004
 20
2.302999999999999
 30
0.0
 11
6.4779999999999989
 21
2.294
 31
0.0
  0
LINE
  5
5A9
  8
PEN1
 10
6.4779999999999989
 20
2.294
 30
0.0
 11
6.4179999999999993
 21
2.395999999999999
 31
0.0
  0
LINE
  5
5AA
  8
PEN1
 10
6.4179999999999993
 20
2.395999999999999
 30
0.0
 11
6.427999999999999
 21
2.468999999999999
 31
0.0
  0
LINE
  5
5AB
  8
PEN1
 10
6.427999999999999
 20
2.468999999999999
 30
0.0
 11
6.0810000000000004
 21
2.4550000000000001
 31
0.0
  0
LINE
  5
5AC
  8
PEN1
 10
5.3189999999999991
 20
4.5350000000000001
 30
0.0
 11
5.3189999999999991
 21
4.5350000000000001
 31
0.0
  0
LINE
  5
5AD
  8
PEN1
 10
5.3189999999999991
 20
4.5350000000000001
 30
0.0
 11
5.387999999999999
 21
4.4059999999999997
 31
0.0
  0
LINE
  5
5AE
  8
PEN1
 10
5.387999999999999
 20
4.4059999999999997
 30
0.0
 11
5.4219999999999997
 21
4.375
 31
0.0
  0
LINE
  5
5AF
  8
PEN1
 10
5.4219999999999997
 20
4.375
 30
0.0
 11
5.4429999999999987
 21
4.3819999999999988
 31
0.0
  0
LINE
  5
5B0
  8
PEN1
 10
5.4429999999999987
 20
4.3819999999999988
 30
0.0
 11
5.4619999999999997
 21
4.3650000000000002
 31
0.0
  0
LINE
  5
5B1
  8
PEN1
 10
5.4619999999999997
 20
4.3650000000000002
 30
0.0
 11
5.464999999999999
 21
4.347999999999999
 31
0.0
  0
LINE
  5
5B2
  8
PEN1
 10
5.464999999999999
 20
4.347999999999999
 30
0.0
 11
5.4470000000000001
 21
4.3469999999999986
 31
0.0
  0
LINE
  5
5B3
  8
PEN1
 10
5.4470000000000001
 20
4.3469999999999986
 30
0.0
 11
5.4249999999999989
 21
4.3010000000000002
 31
0.0
  0
LINE
  5
5B4
  8
PEN1
 10
5.4249999999999989
 20
4.3010000000000002
 30
0.0
 11
5.4749999999999988
 21
4.2290000000000001
 31
0.0
  0
LINE
  5
5B5
  8
PEN1
 10
5.4749999999999988
 20
4.2290000000000001
 30
0.0
 11
5.5139999999999993
 21
4.2169999999999987
 31
0.0
  0
LINE
  5
5B6
  8
PEN1
 10
5.5139999999999993
 20
4.2169999999999987
 30
0.0
 11
5.5089999999999986
 21
3.7509999999999999
 31
0.0
  0
LINE
  5
5B7
  8
PEN1
 10
5.5089999999999986
 20
3.7509999999999999
 30
0.0
 11
5.5119999999999996
 21
3.637999999999999
 31
0.0
  0
LINE
  5
5B8
  8
PEN1
 10
5.5119999999999996
 20
3.637999999999999
 30
0.0
 11
6.274
 21
3.6629999999999998
 31
0.0
  0
LINE
  5
5B9
  8
PEN1
 10
6.274
 20
3.6629999999999998
 30
0.0
 11
6.2839999999999989
 21
3.5950000000000002
 31
0.0
  0
LINE
  5
5BA
  8
PEN1
 10
6.2839999999999989
 20
3.5950000000000002
 30
0.0
 11
6.2519999999999998
 21
3.552
 31
0.0
  0
LINE
  5
5BB
  8
PEN1
 10
6.2519999999999998
 20
3.552
 30
0.0
 11
6.3679999999999994
 21
3.5579999999999998
 31
0.0
  0
LINE
  5
5BC
  8
PEN1
 10
6.3679999999999994
 20
3.5579999999999998
 30
0.0
 11
6.3869999999999996
 21
3.5950000000000002
 31
0.0
  0
LINE
  5
5BD
  8
PEN1
 10
6.3869999999999996
 20
3.5950000000000002
 30
0.0
 11
6.3899999999999988
 21
3.637999999999999
 31
0.0
  0
LINE
  5
5BE
  8
PEN1
 10
6.3899999999999988
 20
3.637999999999999
 30
0.0
 11
6.4160000000000004
 21
3.669999999999999
 31
0.0
  0
LINE
  5
5BF
  8
PEN1
 10
6.4160000000000004
 20
3.669999999999999
 30
0.0
 11
6.4269999999999996
 21
3.7010000000000001
 31
0.0
  0
LINE
  5
5C0
  8
PEN1
 10
6.4269999999999996
 20
3.7010000000000001
 30
0.0
 11
6.4560000000000004
 21
3.7050000000000001
 31
0.0
  0
LINE
  5
5C1
  8
PEN1
 10
6.4560000000000004
 20
3.7050000000000001
 30
0.0
 11
6.4639999999999986
 21
3.774999999999999
 31
0.0
  0
LINE
  5
5C2
  8
PEN1
 10
6.4639999999999986
 20
3.774999999999999
 30
0.0
 11
6.4479999999999986
 21
3.7810000000000001
 31
0.0
  0
LINE
  5
5C3
  8
PEN1
 10
6.4479999999999986
 20
3.7810000000000001
 30
0.0
 11
6.4219999999999997
 21
3.782999999999999
 31
0.0
  0
LINE
  5
5C4
  8
PEN1
 10
6.4219999999999997
 20
3.782999999999999
 30
0.0
 11
6.3949999999999987
 21
3.8339999999999992
 31
0.0
  0
LINE
  5
5C5
  8
PEN1
 10
6.3949999999999987
 20
3.8339999999999992
 30
0.0
 11
6.3810000000000002
 21
3.903999999999999
 31
0.0
  0
LINE
  5
5C6
  8
PEN1
 10
6.3810000000000002
 20
3.903999999999999
 30
0.0
 11
6.3520000000000003
 21
3.9510000000000001
 31
0.0
  0
LINE
  5
5C7
  8
PEN1
 10
6.3520000000000003
 20
3.9510000000000001
 30
0.0
 11
6.3070000000000004
 21
3.968999999999999
 31
0.0
  0
LINE
  5
5C8
  8
PEN1
 10
6.3070000000000004
 20
3.968999999999999
 30
0.0
 11
6.25
 21
4.0139999999999993
 31
0.0
  0
LINE
  5
5C9
  8
PEN1
 10
6.25
 20
4.0139999999999993
 30
0.0
 11
6.230999999999999
 21
4.0759999999999996
 31
0.0
  0
LINE
  5
5CA
  8
PEN1
 10
6.230999999999999
 20
4.0759999999999996
 30
0.0
 11
6.262999999999999
 21
4.1710000000000003
 31
0.0
  0
LINE
  5
5CB
  8
PEN1
 10
6.262999999999999
 20
4.1710000000000003
 30
0.0
 11
6.2359999999999998
 21
4.1900000000000004
 31
0.0
  0
LINE
  5
5CC
  8
PEN1
 10
6.2359999999999998
 20
4.1900000000000004
 30
0.0
 11
6.1689999999999987
 21
4.1890000000000001
 31
0.0
  0
LINE
  5
5CD
  8
PEN1
 10
6.1689999999999987
 20
4.1890000000000001
 30
0.0
 11
6.157
 21
4.25
 31
0.0
  0
LINE
  5
5CE
  8
PEN1
 10
6.157
 20
4.25
 30
0.0
 11
6.0460000000000003
 21
4.363999999999999
 31
0.0
  0
LINE
  5
5CF
  8
PEN1
 10
6.0460000000000003
 20
4.363999999999999
 30
0.0
 11
6.0199999999999987
 21
4.4610000000000003
 31
0.0
  0
LINE
  5
5D0
  8
PEN1
 10
6.0199999999999987
 20
4.4610000000000003
 30
0.0
 11
6.032
 21
4.4980000000000002
 31
0.0
  0
LINE
  5
5D1
  8
PEN1
 10
6.032
 20
4.4980000000000002
 30
0.0
 11
5.9820000000000002
 21
4.5489999999999986
 31
0.0
  0
LINE
  5
5D2
  8
PEN1
 10
5.9820000000000002
 20
4.5489999999999986
 30
0.0
 11
5.3189999999999991
 21
4.5350000000000001
 31
0.0
  0
LINE
  5
5D3
  8
PEN1
 10
2.3660000000000001
 20
6.464999999999999
 30
0.0
 11
2.3660000000000001
 21
6.464999999999999
 31
0.0
  0
LINE
  5
5D4
  8
PEN1
 10
2.3660000000000001
 20
6.464999999999999
 30
0.0
 11
2.395999999999999
 21
6.3899999999999988
 31
0.0
  0
LINE
  5
5D5
  8
PEN1
 10
2.395999999999999
 20
6.3899999999999988
 30
0.0
 11
2.399
 21
6.3429999999999991
 31
0.0
  0
LINE
  5
5D6
  8
PEN1
 10
2.399
 20
6.3429999999999991
 30
0.0
 11
2.383
 21
6.3349999999999991
 31
0.0
  0
LINE
  5
5D7
  8
PEN1
 10
2.383
 20
6.3349999999999991
 30
0.0
 11
2.4359999999999991
 21
6.2839999999999989
 31
0.0
  0
LINE
  5
5D8
  8
PEN1
 10
2.4359999999999991
 20
6.2839999999999989
 30
0.0
 11
2.4900000000000002
 21
6.1509999999999989
 31
0.0
  0
LINE
  5
5D9
  8
PEN1
 10
2.4900000000000002
 20
6.1509999999999989
 30
0.0
 11
2.508999999999999
 21
6.1559999999999997
 31
0.0
  0
LINE
  5
5DA
  8
PEN1
 10
2.508999999999999
 20
6.1559999999999997
 30
0.0
 11
2.5110000000000001
 21
6.1360000000000001
 31
0.0
  0
LINE
  5
5DB
  8
PEN1
 10
2.5110000000000001
 20
6.1360000000000001
 30
0.0
 11
2.536999999999999
 21
6.1289999999999987
 31
0.0
  0
LINE
  5
5DC
  8
PEN1
 10
2.536999999999999
 20
6.1289999999999987
 30
0.0
 11
2.556
 21
6.1260000000000003
 31
0.0
  0
LINE
  5
5DD
  8
PEN1
 10
2.556
 20
6.1260000000000003
 30
0.0
 11
2.508
 21
6.028999999999999
 31
0.0
  0
LINE
  5
5DE
  8
PEN1
 10
2.508
 20
6.028999999999999
 30
0.0
 11
2.516
 21
5.964999999999999
 31
0.0
  0
LINE
  5
5DF
  8
PEN1
 10
2.516
 20
5.964999999999999
 30
0.0
 11
2.476999999999999
 21
5.9029999999999987
 31
0.0
  0
LINE
  5
5E0
  8
PEN1
 10
2.476999999999999
 20
5.9029999999999987
 30
0.0
 11
2.504
 21
5.875
 31
0.0
  0
LINE
  5
5E1
  8
PEN1
 10
2.504
 20
5.875
 30
0.0
 11
2.573999999999999
 21
5.9139999999999988
 31
0.0
  0
LINE
  5
5E2
  8
PEN1
 10
2.573999999999999
 20
5.9139999999999988
 30
0.0
 11
2.6239999999999992
 21
5.7029999999999994
 31
0.0
  0
LINE
  5
5E3
  8
PEN1
 10
2.6239999999999992
 20
5.7029999999999994
 30
0.0
 11
2.6560000000000001
 21
5.6920000000000002
 31
0.0
  0
LINE
  5
5E4
  8
PEN1
 10
2.6560000000000001
 20
5.6920000000000002
 30
0.0
 11
2.661999999999999
 21
5.6279999999999992
 31
0.0
  0
LINE
  5
5E5
  8
PEN1
 10
2.661999999999999
 20
5.6279999999999992
 30
0.0
 11
2.6889999999999992
 21
5.6009999999999991
 31
0.0
  0
LINE
  5
5E6
  8
PEN1
 10
2.6889999999999992
 20
5.6009999999999991
 30
0.0
 11
2.7080000000000002
 21
5.625
 31
0.0
  0
LINE
  5
5E7
  8
PEN1
 10
2.7080000000000002
 20
5.625
 30
0.0
 11
2.7539999999999991
 21
5.6040000000000001
 31
0.0
  0
LINE
  5
5E8
  8
PEN1
 10
2.7539999999999991
 20
5.6040000000000001
 30
0.0
 11
2.782999999999999
 21
5.6269999999999998
 31
0.0
  0
LINE
  5
5E9
  8
PEN1
 10
2.782999999999999
 20
5.6269999999999998
 30
0.0
 11
2.8769999999999989
 21
5.6079999999999988
 31
0.0
  0
LINE
  5
5EA
  8
PEN1
 10
2.8769999999999989
 20
5.6079999999999988
 30
0.0
 11
2.8999999999999999
 21
5.6029999999999989
 31
0.0
  0
LINE
  5
5EB
  8
PEN1
 10
2.8999999999999999
 20
5.6029999999999989
 30
0.0
 11
2.9209999999999998
 21
5.6449999999999987
 31
0.0
  0
LINE
  5
5EC
  8
PEN1
 10
2.9209999999999998
 20
5.6449999999999987
 30
0.0
 11
2.9609999999999999
 21
5.577
 31
0.0
  0
LINE
  5
5ED
  8
PEN1
 10
2.9609999999999999
 20
5.577
 30
0.0
 11
2.98
 21
5.6849999999999987
 31
0.0
  0
LINE
  5
5EE
  8
PEN1
 10
2.98
 20
5.6849999999999987
 30
0.0
 11
3.4580000000000002
 21
5.613999999999999
 31
0.0
  0
LINE
  5
5EF
  8
PEN1
 10
3.4580000000000002
 20
5.613999999999999
 30
0.0
 11
4.0469999999999988
 21
5.5519999999999996
 31
0.0
  0
LINE
  5
5F0
  8
PEN1
 10
4.0469999999999988
 20
5.5519999999999996
 30
0.0
 11
4.0659999999999989
 21
5.7539999999999987
 31
0.0
  0
LINE
  5
5F1
  8
PEN1
 10
4.0659999999999989
 20
5.7539999999999987
 30
0.0
 11
4.125
 21
6.4109999999999996
 31
0.0
  0
LINE
  5
5F2
  8
PEN1
 10
4.125
 20
6.4109999999999996
 30
0.0
 11
3.3460000000000001
 21
6.5029999999999992
 31
0.0
  0
LINE
  5
5F3
  8
PEN1
 10
3.3460000000000001
 20
6.5029999999999992
 30
0.0
 11
2.956999999999999
 21
6.5659999999999989
 31
0.0
  0
LINE
  5
5F4
  8
PEN1
 10
2.956999999999999
 20
6.5659999999999989
 30
0.0
 11
2.411999999999999
 21
6.6739999999999986
 31
0.0
  0
LINE
  5
5F5
  8
PEN1
 10
2.411999999999999
 20
6.6739999999999986
 30
0.0
 11
2.3660000000000001
 21
6.464999999999999
 31
0.0
  0
LINE
  5
5F6
  8
PEN1
 10
3.9670000000000001
 20
4.6840000000000002
 30
0.0
 11
3.9670000000000001
 21
4.6840000000000002
 31
0.0
  0
LINE
  5
5F7
  8
PEN1
 10
3.9670000000000001
 20
4.6840000000000002
 30
0.0
 11
4.0069999999999988
 21
5.1189999999999989
 31
0.0
  0
LINE
  5
5F8
  8
PEN1
 10
4.0069999999999988
 20
5.1189999999999989
 30
0.0
 11
4.883
 21
5.0650000000000004
 31
0.0
  0
LINE
  5
5F9
  8
PEN1
 10
4.883
 20
5.0650000000000004
 30
0.0
 11
4.9420000000000002
 21
5.0199999999999987
 31
0.0
  0
LINE
  5
5FA
  8
PEN1
 10
4.9420000000000002
 20
5.0199999999999987
 30
0.0
 11
5.0469999999999988
 21
5.0250000000000004
 31
0.0
  0
LINE
  5
5FB
  8
PEN1
 10
5.0469999999999988
 20
5.0250000000000004
 30
0.0
 11
5.0960000000000001
 21
5.012999999999999
 31
0.0
  0
LINE
  5
5FC
  8
PEN1
 10
5.0960000000000001
 20
5.012999999999999
 30
0.0
 11
5.153999999999999
 21
4.9880000000000004
 31
0.0
  0
LINE
  5
5FD
  8
PEN1
 10
5.153999999999999
 20
4.9880000000000004
 30
0.0
 11
5.1840000000000002
 21
4.9509999999999996
 31
0.0
  0
LINE
  5
5FE
  8
PEN1
 10
5.1840000000000002
 20
4.9509999999999996
 30
0.0
 11
5.2110000000000003
 21
4.9429999999999996
 31
0.0
  0
LINE
  5
5FF
  8
PEN1
 10
5.2110000000000003
 20
4.9429999999999996
 30
0.0
 11
5.2589999999999986
 21
4.8079999999999989
 31
0.0
  0
LINE
  5
600
  8
PEN1
 10
5.2589999999999986
 20
4.8079999999999989
 30
0.0
 11
5.2599999999999989
 21
4.766
 31
0.0
  0
LINE
  5
601
  8
PEN1
 10
5.2599999999999989
 20
4.766
 30
0.0
 11
5.2919999999999998
 21
4.7039999999999988
 31
0.0
  0
LINE
  5
602
  8
PEN1
 10
5.2919999999999998
 20
4.7039999999999988
 30
0.0
 11
5.3070000000000004
 21
4.5999999999999988
 31
0.0
  0
LINE
  5
603
  8
PEN1
 10
5.3070000000000004
 20
4.5999999999999988
 30
0.0
 11
5.2999999999999989
 21
4.5689999999999991
 31
0.0
  0
LINE
  5
604
  8
PEN1
 10
5.2999999999999989
 20
4.5689999999999991
 30
0.0
 11
5.3189999999999991
 21
4.5350000000000001
 31
0.0
  0
LINE
  5
605
  8
PEN1
 10
5.3189999999999991
 20
4.5350000000000001
 30
0.0
 11
5.387999999999999
 21
4.4059999999999997
 31
0.0
  0
LINE
  5
606
  8
PEN1
 10
5.387999999999999
 20
4.4059999999999997
 30
0.0
 11
4.754999999999999
 21
4.4130000000000003
 31
0.0
  0
LINE
  5
607
  8
PEN1
 10
4.754999999999999
 20
4.4130000000000003
 30
0.0
 11
4.2779999999999996
 21
4.4409999999999989
 31
0.0
  0
LINE
  5
608
  8
PEN1
 10
4.2779999999999996
 20
4.4409999999999989
 30
0.0
 11
4.2919999999999989
 21
4.657
 31
0.0
  0
LINE
  5
609
  8
PEN1
 10
4.2919999999999989
 20
4.657
 30
0.0
 11
3.9670000000000001
 21
4.6840000000000002
 31
0.0
  0
LINE
  5
60A
  8
PEN1
 10
1.304999999999999
 20
4.7240000000000002
 30
0.0
 11
1.304999999999999
 21
4.7240000000000002
 31
0.0
  0
LINE
  5
60B
  8
PEN1
 10
1.304999999999999
 20
4.7240000000000002
 30
0.0
 11
1.3549999999999991
 21
4.6260000000000003
 31
0.0
  0
LINE
  5
60C
  8
PEN1
 10
1.3549999999999991
 20
4.6260000000000003
 30
0.0
 11
2.0019999999999989
 21
3.6509999999999998
 31
0.0
  0
LINE
  5
60D
  8
PEN1
 10
2.0019999999999989
 20
3.6509999999999998
 30
0.0
 11
2.0269999999999988
 21
3.8780000000000001
 31
0.0
  0
LINE
  5
60E
  8
PEN1
 10
2.0269999999999988
 20
3.8780000000000001
 30
0.0
 11
2.0659999999999989
 21
3.891
 31
0.0
  0
LINE
  5
60F
  8
PEN1
 10
2.0659999999999989
 20
3.891
 30
0.0
 11
2.1319999999999988
 21
3.851999999999999
 31
0.0
  0
LINE
  5
610
  8
PEN1
 10
2.1319999999999988
 20
3.851999999999999
 30
0.0
 11
2.1890000000000001
 21
4.0539999999999994
 31
0.0
  0
LINE
  5
611
  8
PEN1
 10
2.1890000000000001
 20
4.0539999999999994
 30
0.0
 11
2.4009999999999989
 21
5.1289999999999987
 31
0.0
  0
LINE
  5
612
  8
PEN1
 10
2.4009999999999989
 20
5.1289999999999987
 30
0.0
 11
1.9330000000000001
 21
5.230999999999999
 31
0.0
  0
LINE
  5
613
  8
PEN1
 10
1.9330000000000001
 20
5.230999999999999
 30
0.0
 11
1.468
 21
5.3470000000000004
 31
0.0
  0
LINE
  5
614
  8
PEN1
 10
1.468
 20
5.3470000000000004
 30
0.0
 11
1.304999999999999
 21
4.7240000000000002
 31
0.0
  0
LINE
  5
615
  8
PEN1
 10
8.9580000000000002
 20
5.6260000000000003
 30
0.0
 11
8.9580000000000002
 21
5.6260000000000003
 31
0.0
  0
LINE
  5
616
  8
PEN1
 10
8.9580000000000002
 20
5.6260000000000003
 30
0.0
 11
8.9740000000000002
 21
5.7579999999999991
 31
0.0
  0
LINE
  5
617
  8
PEN1
 10
8.9740000000000002
 20
5.7579999999999991
 30
0.0
 11
9.0060000000000002
 21
5.8189999999999991
 31
0.0
  0
LINE
  5
618
  8
PEN1
 10
9.0060000000000002
 20
5.8189999999999991
 30
0.0
 11
9.0090000000000003
 21
5.9579999999999993
 31
0.0
  0
LINE
  5
619
  8
PEN1
 10
9.0090000000000003
 20
5.9579999999999993
 30
0.0
 11
9.0079999999999991
 21
6.0099999999999989
 31
0.0
  0
LINE
  5
61A
  8
PEN1
 10
9.0079999999999991
 20
6.0099999999999989
 30
0.0
 11
9.0570000000000004
 21
6.0379999999999994
 31
0.0
  0
LINE
  5
61B
  8
PEN1
 10
9.0570000000000004
 20
6.0379999999999994
 30
0.0
 11
9.1739999999999995
 21
5.6639999999999988
 31
0.0
  0
LINE
  5
61C
  8
PEN1
 10
9.1739999999999995
 20
5.6639999999999988
 30
0.0
 11
9.2320000000000011
 21
5.5819999999999999
 31
0.0
  0
LINE
  5
61D
  8
PEN1
 10
9.2320000000000011
 20
5.5819999999999999
 30
0.0
 11
9.2370000000000001
 21
5.5650000000000004
 31
0.0
  0
LINE
  5
61E
  8
PEN1
 10
9.2370000000000001
 20
5.5650000000000004
 30
0.0
 11
9.2289999999999992
 21
5.5300000000000002
 31
0.0
  0
LINE
  5
61F
  8
PEN1
 10
9.2289999999999992
 20
5.5300000000000002
 30
0.0
 11
9.1750000000000007
 21
5.4879999999999987
 31
0.0
  0
LINE
  5
620
  8
PEN1
 10
9.1750000000000007
 20
5.4879999999999987
 30
0.0
 11
8.9839999999999982
 21
5.4390000000000001
 31
0.0
  0
LINE
  5
621
  8
PEN1
 10
8.9839999999999982
 20
5.4390000000000001
 30
0.0
 11
8.9580000000000002
 21
5.6260000000000003
 31
0.0
  0
LINE
  5
622
  8
PEN1
 10
8.6509999999999998
 20
4.677999999999999
 30
0.0
 11
8.6509999999999998
 21
4.677999999999999
 31
0.0
  0
LINE
  5
623
  8
PEN1
 10
8.6509999999999998
 20
4.677999999999999
 30
0.0
 11
8.6630000000000003
 21
4.7089999999999987
 31
0.0
  0
LINE
  5
624
  8
PEN1
 10
8.6630000000000003
 20
4.7089999999999987
 30
0.0
 11
8.7019999999999982
 21
4.7350000000000003
 31
0.0
  0
LINE
  5
625
  8
PEN1
 10
8.7019999999999982
 20
4.7350000000000003
 30
0.0
 11
8.7229999999999972
 21
4.7779999999999996
 31
0.0
  0
LINE
  5
626
  8
PEN1
 10
8.7229999999999972
 20
4.7779999999999996
 30
0.0
 11
8.7560000000000002
 21
4.8099999999999987
 31
0.0
  0
LINE
  5
627
  8
PEN1
 10
8.7560000000000002
 20
4.8099999999999987
 30
0.0
 11
8.6589999999999971
 21
4.8899999999999988
 31
0.0
  0
LINE
  5
628
  8
PEN1
 10
8.6589999999999971
 20
4.8899999999999988
 30
0.0
 11
8.6560000000000006
 21
4.9660000000000002
 31
0.0
  0
LINE
  5
629
  8
PEN1
 10
8.6560000000000006
 20
4.9660000000000002
 30
0.0
 11
8.7010000000000005
 21
5.0670000000000002
 31
0.0
  0
LINE
  5
62A
  8
PEN1
 10
8.7010000000000005
 20
5.0670000000000002
 30
0.0
 11
8.8490000000000002
 21
5.0169999999999986
 31
0.0
  0
LINE
  5
62B
  8
PEN1
 10
8.8490000000000002
 20
5.0169999999999986
 30
0.0
 11
8.8510000000000009
 21
4.996999999999999
 31
0.0
  0
LINE
  5
62C
  8
PEN1
 10
8.8510000000000009
 20
4.996999999999999
 30
0.0
 11
8.8339999999999996
 21
4.9390000000000001
 31
0.0
  0
LINE
  5
62D
  8
PEN1
 10
8.8339999999999996
 20
4.9390000000000001
 30
0.0
 11
8.8170000000000002
 21
4.9239999999999986
 31
0.0
  0
LINE
  5
62E
  8
PEN1
 10
8.8170000000000002
 20
4.9239999999999986
 30
0.0
 11
8.8140000000000001
 21
4.8949999999999987
 31
0.0
  0
LINE
  5
62F
  8
PEN1
 10
8.8140000000000001
 20
4.8949999999999987
 30
0.0
 11
8.8300000000000001
 21
4.8869999999999987
 31
0.0
  0
LINE
  5
630
  8
PEN1
 10
8.8300000000000001
 20
4.8869999999999987
 30
0.0
 11
8.8460000000000001
 21
4.8899999999999988
 31
0.0
  0
LINE
  5
631
  8
PEN1
 10
8.8460000000000001
 20
4.8899999999999988
 30
0.0
 11
8.8610000000000007
 21
4.887999999999999
 31
0.0
  0
LINE
  5
632
  8
PEN1
 10
8.8610000000000007
 20
4.887999999999999
 30
0.0
 11
8.8579999999999988
 21
4.9009999999999989
 31
0.0
  0
LINE
  5
633
  8
PEN1
 10
8.8579999999999988
 20
4.9009999999999989
 30
0.0
 11
8.8650000000000002
 21
4.8949999999999987
 31
0.0
  0
LINE
  5
634
  8
PEN1
 10
8.8650000000000002
 20
4.8949999999999987
 30
0.0
 11
8.8759999999999994
 21
4.8600000000000003
 31
0.0
  0
LINE
  5
635
  8
PEN1
 10
8.8759999999999994
 20
4.8600000000000003
 30
0.0
 11
8.8789999999999996
 21
4.7510000000000003
 31
0.0
  0
LINE
  5
636
  8
PEN1
 10
8.8789999999999996
 20
4.7510000000000003
 30
0.0
 11
8.875
 21
4.778999999999999
 31
0.0
  0
LINE
  5
637
  8
PEN1
 10
8.875
 20
4.778999999999999
 30
0.0
 11
8.8659999999999997
 21
4.8049999999999988
 31
0.0
  0
LINE
  5
638
  8
PEN1
 10
8.8659999999999997
 20
4.8049999999999988
 30
0.0
 11
8.8639999999999972
 21
4.79
 31
0.0
  0
LINE
  5
639
  8
PEN1
 10
8.8639999999999972
 20
4.79
 30
0.0
 11
8.8689999999999998
 21
4.7649999999999988
 31
0.0
  0
LINE
  5
63A
  8
PEN1
 10
8.8689999999999998
 20
4.7649999999999988
 30
0.0
 11
8.8639999999999972
 21
4.7510000000000003
 31
0.0
  0
LINE
  5
63B
  8
PEN1
 10
8.8639999999999972
 20
4.7510000000000003
 30
0.0
 11
8.8659999999999997
 21
4.7210000000000001
 31
0.0
  0
LINE
  5
63C
  8
PEN1
 10
8.8659999999999997
 20
4.7210000000000001
 30
0.0
 11
8.8539999999999992
 21
4.6900000000000004
 31
0.0
  0
LINE
  5
63D
  8
PEN1
 10
8.8539999999999992
 20
4.6900000000000004
 30
0.0
 11
8.8410000000000011
 21
4.6890000000000001
 31
0.0
  0
LINE
  5
63E
  8
PEN1
 10
8.8410000000000011
 20
4.6890000000000001
 30
0.0
 11
8.8460000000000001
 21
4.6639999999999988
 31
0.0
  0
LINE
  5
63F
  8
PEN1
 10
8.8460000000000001
 20
4.6639999999999988
 30
0.0
 11
8.8230000000000004
 21
4.6269999999999989
 31
0.0
  0
LINE
  5
640
  8
PEN1
 10
8.8230000000000004
 20
4.6269999999999989
 30
0.0
 11
8.7919999999999998
 21
4.5419999999999989
 31
0.0
  0
LINE
  5
641
  8
PEN1
 10
8.7919999999999998
 20
4.5419999999999989
 30
0.0
 11
8.777000000000001
 21
4.5410000000000004
 31
0.0
  0
LINE
  5
642
  8
PEN1
 10
8.777000000000001
 20
4.5410000000000004
 30
0.0
 11
8.782
 21
4.573999999999999
 31
0.0
  0
LINE
  5
643
  8
PEN1
 10
8.782
 20
4.573999999999999
 30
0.0
 11
8.7729999999999997
 21
4.589999999999999
 31
0.0
  0
LINE
  5
644
  8
PEN1
 10
8.7729999999999997
 20
4.589999999999999
 30
0.0
 11
8.7349999999999994
 21
4.5869999999999989
 31
0.0
  0
LINE
  5
645
  8
PEN1
 10
8.7349999999999994
 20
4.5869999999999989
 30
0.0
 11
8.6799999999999997
 21
4.621999999999999
 31
0.0
  0
LINE
  5
646
  8
PEN1
 10
8.6799999999999997
 20
4.621999999999999
 30
0.0
 11
8.6609999999999996
 21
4.6360000000000001
 31
0.0
  0
LINE
  5
647
  8
PEN1
 10
8.6609999999999996
 20
4.6360000000000001
 30
0.0
 11
8.6509999999999998
 21
4.677999999999999
 31
0.0
  0
LINE
  5
648
  8
PEN1
 10
2.8589999999999991
 20
2.6909999999999998
 30
0.0
 11
2.8589999999999991
 21
2.6909999999999998
 31
0.0
  0
LINE
  5
649
  8
PEN1
 10
2.8589999999999991
 20
2.6909999999999998
 30
0.0
 11
3.0099999999999989
 21
2.669999999999999
 31
0.0
  0
LINE
  5
64A
  8
PEN1
 10
3.0099999999999989
 20
2.669999999999999
 30
0.0
 11
3.024999999999999
 21
2.762999999999999
 31
0.0
  0
LINE
  5
64B
  8
PEN1
 10
3.024999999999999
 20
2.762999999999999
 30
0.0
 11
3.331
 21
2.7239999999999989
 31
0.0
  0
LINE
  5
64C
  8
PEN1
 10
3.331
 20
2.7239999999999989
 30
0.0
 11
3.3169999999999988
 21
2.7689999999999988
 31
0.0
  0
LINE
  5
64D
  8
PEN1
 10
3.3169999999999988
 20
2.7689999999999988
 30
0.0
 11
3.3650000000000002
 21
2.7650000000000001
 31
0.0
  0
LINE
  5
64E
  8
PEN1
 10
3.3650000000000002
 20
2.7650000000000001
 30
0.0
 11
3.9710000000000001
 21
2.706999999999999
 31
0.0
  0
LINE
  5
64F
  8
PEN1
 10
3.9710000000000001
 20
2.706999999999999
 30
0.0
 11
4.0609999999999991
 21
3.6819999999999991
 31
0.0
  0
LINE
  5
650
  8
PEN1
 10
4.0609999999999991
 20
3.6819999999999991
 30
0.0
 11
4.0700000000000003
 21
3.7959999999999998
 31
0.0
  0
LINE
  5
651
  8
PEN1
 10
4.0700000000000003
 20
3.7959999999999998
 30
0.0
 11
3.5550000000000002
 21
3.8410000000000002
 31
0.0
  0
LINE
  5
652
  8
PEN1
 10
3.5550000000000002
 20
3.8410000000000002
 30
0.0
 11
3.036999999999999
 21
3.9089999999999989
 31
0.0
  0
LINE
  5
653
  8
PEN1
 10
3.036999999999999
 20
3.9089999999999989
 30
0.0
 11
2.8589999999999991
 21
2.6909999999999998
 31
0.0
  0
LINE
  5
654
  8
PEN1
 10
7.867
 20
5.1040000000000001
 30
0.0
 11
7.867
 21
5.1040000000000001
 31
0.0
  0
LINE
  5
655
  8
PEN1
 10
7.867
 20
5.1040000000000001
 30
0.0
 11
7.9000000000000004
 21
5.0519999999999987
 31
0.0
  0
LINE
  5
656
  8
PEN1
 10
7.9000000000000004
 20
5.0519999999999987
 30
0.0
 11
8.5640000000000001
 21
5.1789999999999994
 31
0.0
  0
LINE
  5
657
  8
PEN1
 10
8.5640000000000001
 20
5.1789999999999994
 30
0.0
 11
8.6099999999999994
 21
5.1550000000000002
 31
0.0
  0
LINE
  5
658
  8
PEN1
 10
8.6099999999999994
 20
5.1550000000000002
 30
0.0
 11
8.636000000000001
 21
5.1040000000000001
 31
0.0
  0
LINE
  5
659
  8
PEN1
 10
8.636000000000001
 20
5.1040000000000001
 30
0.0
 11
8.7010000000000005
 21
5.0670000000000002
 31
0.0
  0
LINE
  5
65A
  8
PEN1
 10
8.7010000000000005
 20
5.0670000000000002
 30
0.0
 11
8.8490000000000002
 21
5.0169999999999986
 31
0.0
  0
LINE
  5
65B
  8
PEN1
 10
8.8490000000000002
 20
5.0169999999999986
 30
0.0
 11
8.8510000000000009
 21
4.996999999999999
 31
0.0
  0
LINE
  5
65C
  8
PEN1
 10
8.8510000000000009
 20
4.996999999999999
 30
0.0
 11
8.8599999999999994
 21
4.9770000000000003
 31
0.0
  0
LINE
  5
65D
  8
PEN1
 10
8.8599999999999994
 20
4.9770000000000003
 30
0.0
 11
8.8699999999999992
 21
4.988999999999999
 31
0.0
  0
LINE
  5
65E
  8
PEN1
 10
8.8699999999999992
 20
4.988999999999999
 30
0.0
 11
8.8840000000000003
 21
5.032
 31
0.0
  0
LINE
  5
65F
  8
PEN1
 10
8.8840000000000003
 20
5.032
 30
0.0
 11
8.8849999999999998
 21
5.1089999999999991
 31
0.0
  0
LINE
  5
660
  8
PEN1
 10
8.8849999999999998
 20
5.1089999999999991
 30
0.0
 11
8.8599999999999994
 21
5.2560000000000002
 31
0.0
  0
LINE
  5
661
  8
PEN1
 10
8.8599999999999994
 20
5.2560000000000002
 30
0.0
 11
8.8589999999999982
 21
5.4119999999999999
 31
0.0
  0
LINE
  5
662
  8
PEN1
 10
8.8589999999999982
 20
5.4119999999999999
 30
0.0
 11
8.8320000000000007
 21
5.5329999999999986
 31
0.0
  0
LINE
  5
663
  8
PEN1
 10
8.8320000000000007
 20
5.5329999999999986
 30
0.0
 11
8.7880000000000003
 21
5.6339999999999986
 31
0.0
  0
LINE
  5
664
  8
PEN1
 10
8.7880000000000003
 20
5.6339999999999986
 30
0.0
 11
8.7750000000000004
 21
5.7339999999999991
 31
0.0
  0
LINE
  5
665
  8
PEN1
 10
8.7750000000000004
 20
5.7339999999999991
 30
0.0
 11
8.7329999999999988
 21
5.8889999999999993
 31
0.0
  0
LINE
  5
666
  8
PEN1
 10
8.7329999999999988
 20
5.8889999999999993
 30
0.0
 11
8.5289999999999981
 21
5.8379999999999992
 31
0.0
  0
LINE
  5
667
  8
PEN1
 10
8.5289999999999981
 20
5.8379999999999992
 30
0.0
 11
8.5150000000000006
 21
5.839999999999999
 31
0.0
  0
LINE
  5
668
  8
PEN1
 10
8.5150000000000006
 20
5.839999999999999
 30
0.0
 11
8.4510000000000005
 21
5.79
 31
0.0
  0
LINE
  5
669
  8
PEN1
 10
8.4510000000000005
 20
5.79
 30
0.0
 11
8.3949999999999996
 21
5.7079999999999993
 31
0.0
  0
LINE
  5
66A
  8
PEN1
 10
8.3949999999999996
 20
5.7079999999999993
 30
0.0
 11
8.3900000000000006
 21
5.6739999999999986
 31
0.0
  0
LINE
  5
66B
  8
PEN1
 10
8.3900000000000006
 20
5.6739999999999986
 30
0.0
 11
8.3639999999999972
 21
5.637999999999999
 31
0.0
  0
LINE
  5
66C
  8
PEN1
 10
8.3639999999999972
 20
5.637999999999999
 30
0.0
 11
8.3200000000000003
 21
5.5970000000000004
 31
0.0
  0
LINE
  5
66D
  8
PEN1
 10
8.3200000000000003
 20
5.5970000000000004
 30
0.0
 11
8.3390000000000004
 21
5.5679999999999987
 31
0.0
  0
LINE
  5
66E
  8
PEN1
 10
8.3390000000000004
 20
5.5679999999999987
 30
0.0
 11
8.3439999999999994
 21
5.5889999999999986
 31
0.0
  0
LINE
  5
66F
  8
PEN1
 10
8.3439999999999994
 20
5.5889999999999986
 30
0.0
 11
8.3579999999999988
 21
5.5829999999999993
 31
0.0
  0
LINE
  5
670
  8
PEN1
 10
8.3579999999999988
 20
5.5829999999999993
 30
0.0
 11
8.3499999999999996
 21
5.5729999999999986
 31
0.0
  0
LINE
  5
671
  8
PEN1
 10
8.3499999999999996
 20
5.5729999999999986
 30
0.0
 11
8.3599999999999994
 21
5.5679999999999987
 31
0.0
  0
LINE
  5
672
  8
PEN1
 10
8.3599999999999994
 20
5.5679999999999987
 30
0.0
 11
8.3520000000000003
 21
5.5479999999999992
 31
0.0
  0
LINE
  5
673
  8
PEN1
 10
8.3520000000000003
 20
5.5479999999999992
 30
0.0
 11
8.3439999999999994
 21
5.5499999999999989
 31
0.0
  0
LINE
  5
674
  8
PEN1
 10
8.3439999999999994
 20
5.5499999999999989
 30
0.0
 11
8.3420000000000005
 21
5.5410000000000004
 31
0.0
  0
LINE
  5
675
  8
PEN1
 10
8.3420000000000005
 20
5.5410000000000004
 30
0.0
 11
8.3629999999999995
 21
5.5110000000000001
 31
0.0
  0
LINE
  5
676
  8
PEN1
 10
8.3629999999999995
 20
5.5110000000000001
 30
0.0
 11
8.3650000000000002
 21
5.4850000000000003
 31
0.0
  0
LINE
  5
677
  8
PEN1
 10
8.3650000000000002
 20
5.4850000000000003
 30
0.0
 11
8.3330000000000002
 21
5.4699999999999989
 31
0.0
  0
LINE
  5
678
  8
PEN1
 10
8.3330000000000002
 20
5.4699999999999989
 30
0.0
 11
8.3000000000000007
 21
5.419999999999999
 31
0.0
  0
LINE
  5
679
  8
PEN1
 10
8.3000000000000007
 20
5.419999999999999
 30
0.0
 11
8.2639999999999993
 21
5.395999999999999
 31
0.0
  0
LINE
  5
67A
  8
PEN1
 10
8.2639999999999993
 20
5.395999999999999
 30
0.0
 11
8.2010000000000005
 21
5.391
 31
0.0
  0
LINE
  5
67B
  8
PEN1
 10
8.2010000000000005
 20
5.391
 30
0.0
 11
8.177999999999999
 21
5.3729999999999993
 31
0.0
  0
LINE
  5
67C
  8
PEN1
 10
8.177999999999999
 20
5.3729999999999993
 30
0.0
 11
8.1400000000000006
 21
5.3899999999999988
 31
0.0
  0
LINE
  5
67D
  8
PEN1
 10
8.1400000000000006
 20
5.3899999999999988
 30
0.0
 11
8.0299999999999994
 21
5.3760000000000003
 31
0.0
  0
LINE
  5
67E
  8
PEN1
 10
8.0299999999999994
 20
5.3760000000000003
 30
0.0
 11
7.9479999999999986
 21
5.3429999999999991
 31
0.0
  0
LINE
  5
67F
  8
PEN1
 10
7.9479999999999986
 20
5.3429999999999991
 30
0.0
 11
7.952
 21
5.3150000000000004
 31
0.0
  0
LINE
  5
680
  8
PEN1
 10
7.952
 20
5.3150000000000004
 30
0.0
 11
7.9479999999999986
 21
5.3010000000000002
 31
0.0
  0
LINE
  5
681
  8
PEN1
 10
7.9479999999999986
 20
5.3010000000000002
 30
0.0
 11
7.9529999999999994
 21
5.2999999999999989
 31
0.0
  0
LINE
  5
682
  8
PEN1
 10
7.9529999999999994
 20
5.2999999999999989
 30
0.0
 11
7.9660000000000002
 21
5.2729999999999988
 31
0.0
  0
LINE
  5
683
  8
PEN1
 10
7.9660000000000002
 20
5.2729999999999988
 30
0.0
 11
7.9779999999999989
 21
5.274
 31
0.0
  0
LINE
  5
684
  8
PEN1
 10
7.9779999999999989
 20
5.274
 30
0.0
 11
7.9900000000000002
 21
5.2460000000000004
 31
0.0
  0
LINE
  5
685
  8
PEN1
 10
7.9900000000000002
 20
5.2460000000000004
 30
0.0
 11
7.988999999999999
 21
5.2359999999999998
 31
0.0
  0
LINE
  5
686
  8
PEN1
 10
7.988999999999999
 20
5.2359999999999998
 30
0.0
 11
7.9669999999999996
 21
5.2210000000000001
 31
0.0
  0
LINE
  5
687
  8
PEN1
 10
7.9669999999999996
 20
5.2210000000000001
 30
0.0
 11
7.9569999999999999
 21
5.1890000000000001
 31
0.0
  0
LINE
  5
688
  8
PEN1
 10
7.9569999999999999
 20
5.1890000000000001
 30
0.0
 11
7.867
 21
5.1040000000000001
 31
0.0
  0
LINE
  5
689
  8
PEN1
 10
8.8140000000000001
 20
4.8949999999999987
 30
0.0
 11
8.8140000000000001
 21
4.8949999999999987
 31
0.0
  0
LINE
  5
68A
  8
PEN1
 10
8.8140000000000001
 20
4.8949999999999987
 30
0.0
 11
8.8170000000000002
 21
4.9239999999999986
 31
0.0
  0
LINE
  5
68B
  8
PEN1
 10
8.8170000000000002
 20
4.9239999999999986
 30
0.0
 11
8.8339999999999996
 21
4.9390000000000001
 31
0.0
  0
LINE
  5
68C
  8
PEN1
 10
8.8339999999999996
 20
4.9390000000000001
 30
0.0
 11
8.8429999999999982
 21
4.9299999999999988
 31
0.0
  0
LINE
  5
68D
  8
PEN1
 10
8.8429999999999982
 20
4.9299999999999988
 30
0.0
 11
8.8269999999999982
 21
4.903999999999999
 31
0.0
  0
LINE
  5
68E
  8
PEN1
 10
8.8269999999999982
 20
4.903999999999999
 30
0.0
 11
8.8140000000000001
 21
4.8949999999999987
 31
0.0
  0
LINE
  5
68F
  8
PEN1
 10
8.8460000000000001
 20
4.9420000000000002
 30
0.0
 11
8.8460000000000001
 21
4.9420000000000002
 31
0.0
  0
LINE
  5
690
  8
PEN1
 10
8.8460000000000001
 20
4.9420000000000002
 30
0.0
 11
8.8529999999999998
 21
4.9260000000000002
 31
0.0
  0
LINE
  5
691
  8
PEN1
 10
8.8529999999999998
 20
4.9260000000000002
 30
0.0
 11
8.8610000000000007
 21
4.9249999999999989
 31
0.0
  0
LINE
  5
692
  8
PEN1
 10
8.8610000000000007
 20
4.9249999999999989
 30
0.0
 11
8.8719999999999999
 21
4.9409999999999989
 31
0.0
  0
LINE
  5
693
  8
PEN1
 10
8.8719999999999999
 20
4.9409999999999989
 30
0.0
 11
8.8829999999999991
 21
4.9450000000000003
 31
0.0
  0
LINE
  5
694
  8
PEN1
 10
8.8829999999999991
 20
4.9450000000000003
 30
0.0
 11
8.8870000000000005
 21
4.9400000000000004
 31
0.0
  0
LINE
  5
695
  8
PEN1
 10
8.8870000000000005
 20
4.9400000000000004
 30
0.0
 11
8.8689999999999998
 21
4.923
 31
0.0
  0
LINE
  5
696
  8
PEN1
 10
8.8689999999999998
 20
4.923
 30
0.0
 11
8.8989999999999991
 21
4.9349999999999987
 31
0.0
  0
LINE
  5
697
  8
PEN1
 10
8.8989999999999991
 20
4.9349999999999987
 30
0.0
 11
8.902000000000001
 21
4.9429999999999996
 31
0.0
  0
LINE
  5
698
  8
PEN1
 10
8.902000000000001
 20
4.9429999999999996
 30
0.0
 11
8.9450000000000003
 21
4.9619999999999989
 31
0.0
  0
LINE
  5
699
  8
PEN1
 10
8.9450000000000003
 20
4.9619999999999989
 30
0.0
 11
8.9809999999999999
 21
4.9880000000000004
 31
0.0
  0
LINE
  5
69A
  8
PEN1
 10
8.9809999999999999
 20
4.9880000000000004
 30
0.0
 11
9.0220000000000002
 21
5.0039999999999987
 31
0.0
  0
LINE
  5
69B
  8
PEN1
 10
9.0220000000000002
 20
5.0039999999999987
 30
0.0
 11
9.0559999999999992
 21
5.0250000000000004
 31
0.0
  0
LINE
  5
69C
  8
PEN1
 10
9.0559999999999992
 20
5.0250000000000004
 30
0.0
 11
9.0540000000000003
 21
5.0199999999999987
 31
0.0
  0
LINE
  5
69D
  8
PEN1
 10
9.0540000000000003
 20
5.0199999999999987
 30
0.0
 11
8.9879999999999995
 21
4.9710000000000001
 31
0.0
  0
LINE
  5
69E
  8
PEN1
 10
8.9879999999999995
 20
4.9710000000000001
 30
0.0
 11
8.9760000000000009
 21
4.9669999999999987
 31
0.0
  0
LINE
  5
69F
  8
PEN1
 10
8.9760000000000009
 20
4.9669999999999987
 30
0.0
 11
8.9849999999999994
 21
4.9639999999999986
 31
0.0
  0
LINE
  5
6A0
  8
PEN1
 10
8.9849999999999994
 20
4.9639999999999986
 30
0.0
 11
9.0020000000000007
 21
4.9749999999999988
 31
0.0
  0
LINE
  5
6A1
  8
PEN1
 10
9.0020000000000007
 20
4.9749999999999988
 30
0.0
 11
9.1020000000000003
 21
5.048
 31
0.0
  0
LINE
  5
6A2
  8
PEN1
 10
9.1020000000000003
 20
5.048
 30
0.0
 11
9.1159999999999997
 21
5.0629999999999988
 31
0.0
  0
LINE
  5
6A3
  8
PEN1
 10
9.1159999999999997
 20
5.0629999999999988
 30
0.0
 11
9.1630000000000003
 21
5.1009999999999991
 31
0.0
  0
LINE
  5
6A4
  8
PEN1
 10
9.1630000000000003
 20
5.1009999999999991
 30
0.0
 11
9.1660000000000004
 21
5.1109999999999998
 31
0.0
  0
LINE
  5
6A5
  8
PEN1
 10
9.1660000000000004
 20
5.1109999999999998
 30
0.0
 11
9.157
 21
5.1100000000000003
 31
0.0
  0
LINE
  5
6A6
  8
PEN1
 10
9.157
 20
5.1100000000000003
 30
0.0
 11
9.1340000000000003
 21
5.0880000000000001
 31
0.0
  0
LINE
  5
6A7
  8
PEN1
 10
9.1340000000000003
 20
5.0880000000000001
 30
0.0
 11
9.1219999999999999
 21
5.0929999999999991
 31
0.0
  0
LINE
  5
6A8
  8
PEN1
 10
9.1219999999999999
 20
5.0929999999999991
 30
0.0
 11
9.1010000000000009
 21
5.0789999999999988
 31
0.0
  0
LINE
  5
6A9
  8
PEN1
 10
9.1010000000000009
 20
5.0789999999999988
 30
0.0
 11
9.0960000000000001
 21
5.0830000000000002
 31
0.0
  0
LINE
  5
6AA
  8
PEN1
 10
9.0960000000000001
 20
5.0830000000000002
 30
0.0
 11
9.0769999999999982
 21
5.04
 31
0.0
  0
LINE
  5
6AB
  8
PEN1
 10
9.0769999999999982
 20
5.04
 30
0.0
 11
9.0700000000000003
 21
5.048
 31
0.0
  0
LINE
  5
6AC
  8
PEN1
 10
9.0700000000000003
 20
5.048
 30
0.0
 11
9.0540000000000003
 21
5.048
 31
0.0
  0
LINE
  5
6AD
  8
PEN1
 10
9.0540000000000003
 20
5.048
 30
0.0
 11
9.0830000000000002
 21
5.0810000000000004
 31
0.0
  0
LINE
  5
6AE
  8
PEN1
 10
9.0830000000000002
 20
5.0810000000000004
 30
0.0
 11
9.0790000000000006
 21
5.0889999999999986
 31
0.0
  0
LINE
  5
6AF
  8
PEN1
 10
9.0790000000000006
 20
5.0889999999999986
 30
0.0
 11
9.1010000000000009
 21
5.1130000000000004
 31
0.0
  0
LINE
  5
6B0
  8
PEN1
 10
9.1010000000000009
 20
5.1130000000000004
 30
0.0
 11
9.0929999999999982
 21
5.1120000000000001
 31
0.0
  0
LINE
  5
6B1
  8
PEN1
 10
9.0929999999999982
 20
5.1120000000000001
 30
0.0
 11
9.0500000000000007
 21
5.0640000000000001
 31
0.0
  0
LINE
  5
6B2
  8
PEN1
 10
9.0500000000000007
 20
5.0640000000000001
 30
0.0
 11
8.9990000000000006
 21
5.0439999999999987
 31
0.0
  0
LINE
  5
6B3
  8
PEN1
 10
8.9990000000000006
 20
5.0439999999999987
 30
0.0
 11
8.9720000000000013
 21
5.0410000000000004
 31
0.0
  0
LINE
  5
6B4
  8
PEN1
 10
8.9720000000000013
 20
5.0410000000000004
 30
0.0
 11
8.9670000000000005
 21
5.028999999999999
 31
0.0
  0
LINE
  5
6B5
  8
PEN1
 10
8.9670000000000005
 20
5.028999999999999
 30
0.0
 11
8.9339999999999993
 21
5.0179999999999989
 31
0.0
  0
LINE
  5
6B6
  8
PEN1
 10
8.9339999999999993
 20
5.0179999999999989
 30
0.0
 11
8.9209999999999994
 21
5.020999999999999
 31
0.0
  0
LINE
  5
6B7
  8
PEN1
 10
8.9209999999999994
 20
5.020999999999999
 30
0.0
 11
8.9209999999999994
 21
5.0110000000000001
 31
0.0
  0
LINE
  5
6B8
  8
PEN1
 10
8.9209999999999994
 20
5.0110000000000001
 30
0.0
 11
8.907
 21
5.0110000000000001
 31
0.0
  0
LINE
  5
6B9
  8
PEN1
 10
8.907
 20
5.0110000000000001
 30
0.0
 11
8.8979999999999997
 21
5.0030000000000001
 31
0.0
  0
LINE
  5
6BA
  8
PEN1
 10
8.8979999999999997
 20
5.0030000000000001
 30
0.0
 11
8.8949999999999996
 21
4.9880000000000004
 31
0.0
  0
LINE
  5
6BB
  8
PEN1
 10
8.8949999999999996
 20
4.9880000000000004
 30
0.0
 11
8.8879999999999981
 21
4.9930000000000003
 31
0.0
  0
LINE
  5
6BC
  8
PEN1
 10
8.8879999999999981
 20
4.9930000000000003
 30
0.0
 11
8.8819999999999997
 21
4.9759999999999991
 31
0.0
  0
LINE
  5
6BD
  8
PEN1
 10
8.8819999999999997
 20
4.9759999999999991
 30
0.0
 11
8.8589999999999982
 21
4.9689999999999994
 31
0.0
  0
LINE
  5
6BE
  8
PEN1
 10
8.8589999999999982
 20
4.9689999999999994
 30
0.0
 11
8.8559999999999999
 21
4.956999999999999
 31
0.0
  0
LINE
  5
6BF
  8
PEN1
 10
8.8559999999999999
 20
4.956999999999999
 30
0.0
 11
8.8460000000000001
 21
4.9420000000000002
 31
0.0
  0
LINE
  5
6C0
  8
PEN1
 10
7.3310000000000004
 20
3.4719999999999991
 30
0.0
 11
7.3310000000000004
 21
3.4719999999999991
 31
0.0
  0
LINE
  5
6C1
  8
PEN1
 10
7.3310000000000004
 20
3.4719999999999991
 30
0.0
 11
7.3319999999999999
 21
3.423
 31
0.0
  0
LINE
  5
6C2
  8
PEN1
 10
7.3319999999999999
 20
3.423
 30
0.0
 11
7.5439999999999987
 21
3.4479999999999991
 31
0.0
  0
LINE
  5
6C3
  8
PEN1
 10
7.5439999999999987
 20
3.4479999999999991
 30
0.0
 11
7.6689999999999987
 21
3.5099999999999989
 31
0.0
  0
LINE
  5
6C4
  8
PEN1
 10
7.6689999999999987
 20
3.5099999999999989
 30
0.0
 11
7.9029999999999987
 21
3.536999999999999
 31
0.0
  0
LINE
  5
6C5
  8
PEN1
 10
7.9029999999999987
 20
3.536999999999999
 30
0.0
 11
8.0
 21
3.4750000000000001
 31
0.0
  0
LINE
  5
6C6
  8
PEN1
 10
8.0
 20
3.4750000000000001
 30
0.0
 11
8.1509999999999998
 21
3.496999999999999
 31
0.0
  0
LINE
  5
6C7
  8
PEN1
 10
8.1509999999999998
 20
3.496999999999999
 30
0.0
 11
8.3819999999999997
 21
3.331
 31
0.0
  0
LINE
  5
6C8
  8
PEN1
 10
8.3819999999999997
 20
3.331
 30
0.0
 11
8.4130000000000003
 21
3.3500000000000001
 31
0.0
  0
LINE
  5
6C9
  8
PEN1
 10
8.4130000000000003
 20
3.3500000000000001
 30
0.0
 11
8.4710000000000001
 21
3.3530000000000002
 31
0.0
  0
LINE
  5
6CA
  8
PEN1
 10
8.4710000000000001
 20
3.3530000000000002
 30
0.0
 11
8.4829999999999988
 21
3.3969999999999989
 31
0.0
  0
LINE
  5
6CB
  8
PEN1
 10
8.4829999999999988
 20
3.3969999999999989
 30
0.0
 11
8.4939999999999998
 21
3.3730000000000002
 31
0.0
  0
LINE
  5
6CC
  8
PEN1
 10
8.4939999999999998
 20
3.3730000000000002
 30
0.0
 11
8.5090000000000003
 21
3.448999999999999
 31
0.0
  0
LINE
  5
6CD
  8
PEN1
 10
8.5090000000000003
 20
3.448999999999999
 30
0.0
 11
8.5399999999999991
 21
3.4910000000000001
 31
0.0
  0
LINE
  5
6CE
  8
PEN1
 10
8.5399999999999991
 20
3.4910000000000001
 30
0.0
 11
8.5679999999999996
 21
3.512
 31
0.0
  0
LINE
  5
6CF
  8
PEN1
 10
8.5679999999999996
 20
3.512
 30
0.0
 11
8.552999999999999
 21
3.5209999999999999
 31
0.0
  0
LINE
  5
6D0
  8
PEN1
 10
8.552999999999999
 20
3.5209999999999999
 30
0.0
 11
8.5579999999999998
 21
3.5379999999999998
 31
0.0
  0
LINE
  5
6D1
  8
PEN1
 10
8.5579999999999998
 20
3.5379999999999998
 30
0.0
 11
8.5440000000000005
 21
3.556
 31
0.0
  0
LINE
  5
6D2
  8
PEN1
 10
8.5440000000000005
 20
3.556
 30
0.0
 11
8.5660000000000007
 21
3.536
 31
0.0
  0
LINE
  5
6D3
  8
PEN1
 10
8.5660000000000007
 20
3.536
 30
0.0
 11
8.5609999999999982
 21
3.528
 31
0.0
  0
LINE
  5
6D4
  8
PEN1
 10
8.5609999999999982
 20
3.528
 30
0.0
 11
8.5760000000000005
 21
3.52
 31
0.0
  0
LINE
  5
6D5
  8
PEN1
 10
8.5760000000000005
 20
3.52
 30
0.0
 11
8.5920000000000005
 21
3.5389999999999988
 31
0.0
  0
LINE
  5
6D6
  8
PEN1
 10
8.5920000000000005
 20
3.5389999999999988
 30
0.0
 11
8.5999999999999996
 21
3.5419999999999989
 31
0.0
  0
LINE
  5
6D7
  8
PEN1
 10
8.5999999999999996
 20
3.5419999999999989
 30
0.0
 11
8.5929999999999982
 21
3.5710000000000002
 31
0.0
  0
LINE
  5
6D8
  8
PEN1
 10
8.5929999999999982
 20
3.5710000000000002
 30
0.0
 11
8.5999999999999996
 21
3.5720000000000001
 31
0.0
  0
LINE
  5
6D9
  8
PEN1
 10
8.5999999999999996
 20
3.5720000000000001
 30
0.0
 11
8.6110000000000007
 21
3.5539999999999989
 31
0.0
  0
LINE
  5
6DA
  8
PEN1
 10
8.6110000000000007
 20
3.5539999999999989
 30
0.0
 11
8.6630000000000003
 21
3.581999999999999
 31
0.0
  0
LINE
  5
6DB
  8
PEN1
 10
8.6630000000000003
 20
3.581999999999999
 30
0.0
 11
8.7050000000000001
 21
3.5830000000000002
 31
0.0
  0
LINE
  5
6DC
  8
PEN1
 10
8.7050000000000001
 20
3.5830000000000002
 30
0.0
 11
8.7349999999999994
 21
3.637999999999999
 31
0.0
  0
LINE
  5
6DD
  8
PEN1
 10
8.7349999999999994
 20
3.637999999999999
 30
0.0
 11
8.7249999999999996
 21
3.6519999999999988
 31
0.0
  0
LINE
  5
6DE
  8
PEN1
 10
8.7249999999999996
 20
3.6519999999999988
 30
0.0
 11
8.7080000000000002
 21
3.6319999999999988
 31
0.0
  0
LINE
  5
6DF
  8
PEN1
 10
8.7080000000000002
 20
3.6319999999999988
 30
0.0
 11
8.7019999999999982
 21
3.657999999999999
 31
0.0
  0
LINE
  5
6E0
  8
PEN1
 10
8.7019999999999982
 20
3.657999999999999
 30
0.0
 11
8.6839999999999993
 21
3.6400000000000001
 31
0.0
  0
LINE
  5
6E1
  8
PEN1
 10
8.6839999999999993
 20
3.6400000000000001
 30
0.0
 11
8.6920000000000002
 21
3.625
 31
0.0
  0
LINE
  5
6E2
  8
PEN1
 10
8.6920000000000002
 20
3.625
 30
0.0
 11
8.6739999999999995
 21
3.633
 31
0.0
  0
LINE
  5
6E3
  8
PEN1
 10
8.6739999999999995
 20
3.633
 30
0.0
 11
8.6709999999999994
 21
3.6169999999999991
 31
0.0
  0
LINE
  5
6E4
  8
PEN1
 10
8.6709999999999994
 20
3.6169999999999991
 30
0.0
 11
8.6229999999999993
 21
3.6189999999999989
 31
0.0
  0
LINE
  5
6E5
  8
PEN1
 10
8.6229999999999993
 20
3.6189999999999989
 30
0.0
 11
8.5899999999999999
 21
3.641999999999999
 31
0.0
  0
LINE
  5
6E6
  8
PEN1
 10
8.5899999999999999
 20
3.641999999999999
 30
0.0
 11
8.5920000000000005
 21
3.6560000000000001
 31
0.0
  0
LINE
  5
6E7
  8
PEN1
 10
8.5920000000000005
 20
3.6560000000000001
 30
0.0
 11
8.6429999999999971
 21
3.6269999999999989
 31
0.0
  0
LINE
  5
6E8
  8
PEN1
 10
8.6429999999999971
 20
3.6269999999999989
 30
0.0
 11
8.6839999999999993
 21
3.6709999999999998
 31
0.0
  0
LINE
  5
6E9
  8
PEN1
 10
8.6839999999999993
 20
3.6709999999999998
 30
0.0
 11
8.6630000000000003
 21
3.673999999999999
 31
0.0
  0
LINE
  5
6EA
  8
PEN1
 10
8.6630000000000003
 20
3.673999999999999
 30
0.0
 11
8.6859999999999982
 21
3.706999999999999
 31
0.0
  0
LINE
  5
6EB
  8
PEN1
 10
8.6859999999999982
 20
3.706999999999999
 30
0.0
 11
8.6609999999999996
 21
3.7000000000000002
 31
0.0
  0
LINE
  5
6EC
  8
PEN1
 10
8.6609999999999996
 20
3.7000000000000002
 30
0.0
 11
8.5839999999999996
 21
3.7289999999999992
 31
0.0
  0
LINE
  5
6ED
  8
PEN1
 10
8.5839999999999996
 20
3.7289999999999992
 30
0.0
 11
8.6219999999999999
 21
3.7360000000000002
 31
0.0
  0
LINE
  5
6EE
  8
PEN1
 10
8.6219999999999999
 20
3.7360000000000002
 30
0.0
 11
8.6589999999999971
 21
3.7219999999999991
 31
0.0
  0
LINE
  5
6EF
  8
PEN1
 10
8.6589999999999971
 20
3.7219999999999991
 30
0.0
 11
8.6609999999999996
 21
3.7299999999999991
 31
0.0
  0
LINE
  5
6F0
  8
PEN1
 10
8.6609999999999996
 20
3.7299999999999991
 30
0.0
 11
8.6429999999999971
 21
3.7509999999999999
 31
0.0
  0
LINE
  5
6F1
  8
PEN1
 10
8.6429999999999971
 20
3.7509999999999999
 30
0.0
 11
8.6579999999999995
 21
3.7509999999999999
 31
0.0
  0
LINE
  5
6F2
  8
PEN1
 10
8.6579999999999995
 20
3.7509999999999999
 30
0.0
 11
8.6809999999999992
 21
3.762
 31
0.0
  0
LINE
  5
6F3
  8
PEN1
 10
8.6809999999999992
 20
3.762
 30
0.0
 11
8.6669999999999998
 21
3.7439999999999989
 31
0.0
  0
LINE
  5
6F4
  8
PEN1
 10
8.6669999999999998
 20
3.7439999999999989
 30
0.0
 11
8.6760000000000002
 21
3.7239999999999989
 31
0.0
  0
LINE
  5
6F5
  8
PEN1
 10
8.6760000000000002
 20
3.7239999999999989
 30
0.0
 11
8.6939999999999991
 21
3.7400000000000002
 31
0.0
  0
LINE
  5
6F6
  8
PEN1
 10
8.6939999999999991
 20
3.7400000000000002
 30
0.0
 11
8.7040000000000006
 21
3.7219999999999991
 31
0.0
  0
LINE
  5
6F7
  8
PEN1
 10
8.7040000000000006
 20
3.7219999999999991
 30
0.0
 11
8.7210000000000001
 21
3.7239999999999989
 31
0.0
  0
LINE
  5
6F8
  8
PEN1
 10
8.7210000000000001
 20
3.7239999999999989
 30
0.0
 11
8.7420000000000009
 21
3.726
 31
0.0
  0
LINE
  5
6F9
  8
PEN1
 10
8.7420000000000009
 20
3.726
 30
0.0
 11
8.7629999999999981
 21
3.7509999999999999
 31
0.0
  0
LINE
  5
6FA
  8
PEN1
 10
8.7629999999999981
 20
3.7509999999999999
 30
0.0
 11
8.7759999999999998
 21
3.7930000000000001
 31
0.0
  0
LINE
  5
6FB
  8
PEN1
 10
8.7759999999999998
 20
3.7930000000000001
 30
0.0
 11
8.8000000000000007
 21
3.798
 31
0.0
  0
LINE
  5
6FC
  8
PEN1
 10
8.8000000000000007
 20
3.798
 30
0.0
 11
8.8000000000000007
 21
3.8189999999999991
 31
0.0
  0
LINE
  5
6FD
  8
PEN1
 10
8.8000000000000007
 20
3.8189999999999991
 30
0.0
 11
8.7839999999999971
 21
3.8569999999999989
 31
0.0
  0
LINE
  5
6FE
  8
PEN1
 10
8.7839999999999971
 20
3.8569999999999989
 30
0.0
 11
8.7620000000000005
 21
3.8569999999999989
 31
0.0
  0
LINE
  5
6FF
  8
PEN1
 10
8.7620000000000005
 20
3.8569999999999989
 30
0.0
 11
8.7389999999999972
 21
3.798
 31
0.0
  0
LINE
  5
700
  8
PEN1
 10
8.7389999999999972
 20
3.798
 30
0.0
 11
8.7300000000000004
 21
3.8279999999999998
 31
0.0
  0
LINE
  5
701
  8
PEN1
 10
8.7300000000000004
 20
3.8279999999999998
 30
0.0
 11
8.7249999999999996
 21
3.8669999999999991
 31
0.0
  0
LINE
  5
702
  8
PEN1
 10
8.7249999999999996
 20
3.8669999999999991
 30
0.0
 11
8.6769999999999996
 21
3.843999999999999
 31
0.0
  0
LINE
  5
703
  8
PEN1
 10
8.6769999999999996
 20
3.843999999999999
 30
0.0
 11
8.6170000000000009
 21
3.831
 31
0.0
  0
LINE
  5
704
  8
PEN1
 10
8.6170000000000009
 20
3.831
 30
0.0
 11
8.6229999999999993
 21
3.8589999999999991
 31
0.0
  0
LINE
  5
705
  8
PEN1
 10
8.6229999999999993
 20
3.8589999999999991
 30
0.0
 11
8.6560000000000006
 21
3.8759999999999999
 31
0.0
  0
LINE
  5
706
  8
PEN1
 10
8.6560000000000006
 20
3.8759999999999999
 30
0.0
 11
8.7200000000000006
 21
3.9019999999999988
 31
0.0
  0
LINE
  5
707
  8
PEN1
 10
8.7200000000000006
 20
3.9019999999999988
 30
0.0
 11
8.6969999999999992
 21
3.9319999999999999
 31
0.0
  0
LINE
  5
708
  8
PEN1
 10
8.6969999999999992
 20
3.9319999999999999
 30
0.0
 11
8.7400000000000002
 21
3.9109999999999991
 31
0.0
  0
LINE
  5
709
  8
PEN1
 10
8.7400000000000002
 20
3.9109999999999991
 30
0.0
 11
8.7270000000000003
 21
3.9380000000000002
 31
0.0
  0
LINE
  5
70A
  8
PEN1
 10
8.7270000000000003
 20
3.9380000000000002
 30
0.0
 11
8.7670000000000012
 21
3.9019999999999988
 31
0.0
  0
LINE
  5
70B
  8
PEN1
 10
8.7670000000000012
 20
3.9019999999999988
 30
0.0
 11
8.7360000000000007
 21
3.9630000000000001
 31
0.0
  0
LINE
  5
70C
  8
PEN1
 10
8.7360000000000007
 20
3.9630000000000001
 30
0.0
 11
8.7059999999999995
 21
3.988999999999999
 31
0.0
  0
LINE
  5
70D
  8
PEN1
 10
8.7059999999999995
 20
3.988999999999999
 30
0.0
 11
8.1820000000000004
 21
3.887
 31
0.0
  0
LINE
  5
70E
  8
PEN1
 10
8.1820000000000004
 20
3.887
 30
0.0
 11
7.75
 21
3.831
 31
0.0
  0
LINE
  5
70F
  8
PEN1
 10
7.75
 20
3.831
 30
0.0
 11
7.7429999999999994
 21
3.782999999999999
 31
0.0
  0
LINE
  5
710
  8
PEN1
 10
7.7429999999999994
 20
3.782999999999999
 30
0.0
 11
7.7199999999999989
 21
3.766999999999999
 31
0.0
  0
LINE
  5
711
  8
PEN1
 10
7.7199999999999989
 20
3.766999999999999
 30
0.0
 11
7.6900000000000004
 21
3.7130000000000001
 31
0.0
  0
LINE
  5
712
  8
PEN1
 10
7.6900000000000004
 20
3.7130000000000001
 30
0.0
 11
7.6660000000000004
 21
3.7170000000000001
 31
0.0
  0
LINE
  5
713
  8
PEN1
 10
7.6660000000000004
 20
3.7170000000000001
 30
0.0
 11
7.6389999999999993
 21
3.7019999999999991
 31
0.0
  0
LINE
  5
714
  8
PEN1
 10
7.6389999999999993
 20
3.7019999999999991
 30
0.0
 11
7.6210000000000004
 21
3.6749999999999989
 31
0.0
  0
LINE
  5
715
  8
PEN1
 10
7.6210000000000004
 20
3.6749999999999989
 30
0.0
 11
7.5949999999999989
 21
3.6919999999999988
 31
0.0
  0
LINE
  5
716
  8
PEN1
 10
7.5949999999999989
 20
3.6919999999999988
 30
0.0
 11
7.556
 21
3.657999999999999
 31
0.0
  0
LINE
  5
717
  8
PEN1
 10
7.556
 20
3.657999999999999
 30
0.0
 11
7.5510000000000002
 21
3.629999999999999
 31
0.0
  0
LINE
  5
718
  8
PEN1
 10
7.5510000000000002
 20
3.629999999999999
 30
0.0
 11
7.3849999999999989
 21
3.5310000000000001
 31
0.0
  0
LINE
  5
719
  8
PEN1
 10
7.3849999999999989
 20
3.5310000000000001
 30
0.0
 11
7.375
 21
3.4929999999999999
 31
0.0
  0
LINE
  5
71A
  8
PEN1
 10
7.375
 20
3.4929999999999999
 30
0.0
 11
7.3310000000000004
 21
3.4719999999999991
 31
0.0
  0
LINE
  5
71B
  8
PEN1
 10
4.0659999999999989
 20
5.7539999999999987
 30
0.0
 11
4.0659999999999989
 21
5.7539999999999987
 31
0.0
  0
LINE
  5
71C
  8
PEN1
 10
4.0659999999999989
 20
5.7539999999999987
 30
0.0
 11
4.125
 21
6.4109999999999996
 31
0.0
  0
LINE
  5
71D
  8
PEN1
 10
4.125
 20
6.4109999999999996
 30
0.0
 11
4.6829999999999989
 21
6.3719999999999999
 31
0.0
  0
LINE
  5
71E
  8
PEN1
 10
4.6829999999999989
 20
6.3719999999999999
 30
0.0
 11
5.1109999999999998
 21
6.3579999999999988
 31
0.0
  0
LINE
  5
71F
  8
PEN1
 10
5.1109999999999998
 20
6.3579999999999988
 30
0.0
 11
5.1189999999999989
 21
6.1789999999999994
 31
0.0
  0
LINE
  5
720
  8
PEN1
 10
5.1189999999999989
 20
6.1789999999999994
 30
0.0
 11
5.1629999999999994
 21
6.0339999999999989
 31
0.0
  0
LINE
  5
721
  8
PEN1
 10
5.1629999999999994
 20
6.0339999999999989
 30
0.0
 11
5.1689999999999987
 21
5.8470000000000004
 31
0.0
  0
LINE
  5
722
  8
PEN1
 10
5.1689999999999987
 20
5.8470000000000004
 30
0.0
 11
5.2000000000000002
 21
5.6959999999999997
 31
0.0
  0
LINE
  5
723
  8
PEN1
 10
5.2000000000000002
 20
5.6959999999999997
 30
0.0
 11
4.6029999999999989
 21
5.714999999999999
 31
0.0
  0
LINE
  5
724
  8
PEN1
 10
4.6029999999999989
 20
5.714999999999999
 30
0.0
 11
4.0659999999999989
 21
5.7539999999999987
 31
0.0
  0
LINE
  5
725
  8
PEN1
 10
7.0829999999999993
 20
4.8730000000000002
 30
0.0
 11
7.0829999999999993
 21
4.8730000000000002
 31
0.0
  0
LINE
  5
726
  8
PEN1
 10
7.0829999999999993
 20
4.8730000000000002
 30
0.0
 11
7.1429999999999989
 21
4.3079999999999989
 31
0.0
  0
LINE
  5
727
  8
PEN1
 10
7.1429999999999989
 20
4.3079999999999989
 30
0.0
 11
7.1950000000000003
 21
4.3109999999999991
 31
0.0
  0
LINE
  5
728
  8
PEN1
 10
7.1950000000000003
 20
4.3109999999999991
 30
0.0
 11
7.2300000000000004
 21
4.298
 31
0.0
  0
LINE
  5
729
  8
PEN1
 10
7.2300000000000004
 20
4.298
 30
0.0
 11
7.2489999999999988
 21
4.2599999999999989
 31
0.0
  0
LINE
  5
72A
  8
PEN1
 10
7.2489999999999988
 20
4.2599999999999989
 30
0.0
 11
7.3049999999999988
 21
4.2510000000000003
 31
0.0
  0
LINE
  5
72B
  8
PEN1
 10
7.3049999999999988
 20
4.2510000000000003
 30
0.0
 11
7.339999999999999
 21
4.2320000000000002
 31
0.0
  0
LINE
  5
72C
  8
PEN1
 10
7.339999999999999
 20
4.2320000000000002
 30
0.0
 11
7.4169999999999998
 21
4.2359999999999998
 31
0.0
  0
LINE
  5
72D
  8
PEN1
 10
7.4169999999999998
 20
4.2359999999999998
 30
0.0
 11
7.4539999999999988
 21
4.2599999999999989
 31
0.0
  0
LINE
  5
72E
  8
PEN1
 10
7.4539999999999988
 20
4.2599999999999989
 30
0.0
 11
7.5369999999999999
 21
4.2060000000000004
 31
0.0
  0
LINE
  5
72F
  8
PEN1
 10
7.5369999999999999
 20
4.2060000000000004
 30
0.0
 11
7.5910000000000002
 21
4.2519999999999989
 31
0.0
  0
LINE
  5
730
  8
PEN1
 10
7.5910000000000002
 20
4.2519999999999989
 30
0.0
 11
7.6009999999999991
 21
4.3410000000000002
 31
0.0
  0
LINE
  5
731
  8
PEN1
 10
7.6009999999999991
 20
4.3410000000000002
 30
0.0
 11
7.6349999999999989
 21
4.3220000000000001
 31
0.0
  0
LINE
  5
732
  8
PEN1
 10
7.6349999999999989
 20
4.3220000000000001
 30
0.0
 11
7.6520000000000001
 21
4.3979999999999988
 31
0.0
  0
LINE
  5
733
  8
PEN1
 10
7.6520000000000001
 20
4.3979999999999988
 30
0.0
 11
7.7429999999999994
 21
4.464999999999999
 31
0.0
  0
LINE
  5
734
  8
PEN1
 10
7.7429999999999994
 20
4.464999999999999
 30
0.0
 11
7.7729999999999988
 21
4.5039999999999987
 31
0.0
  0
LINE
  5
735
  8
PEN1
 10
7.7729999999999988
 20
4.5039999999999987
 30
0.0
 11
7.7939999999999987
 21
4.6819999999999986
 31
0.0
  0
LINE
  5
736
  8
PEN1
 10
7.7939999999999987
 20
4.6819999999999986
 30
0.0
 11
7.7800000000000002
 21
4.7189999999999994
 31
0.0
  0
LINE
  5
737
  8
PEN1
 10
7.7800000000000002
 20
4.7189999999999994
 30
0.0
 11
7.8039999999999994
 21
4.7359999999999998
 31
0.0
  0
LINE
  5
738
  8
PEN1
 10
7.8039999999999994
 20
4.7359999999999998
 30
0.0
 11
7.7560000000000002
 21
5.020999999999999
 31
0.0
  0
LINE
  5
739
  8
PEN1
 10
7.7560000000000002
 20
5.020999999999999
 30
0.0
 11
7.6849999999999987
 21
4.9859999999999998
 31
0.0
  0
LINE
  5
73A
  8
PEN1
 10
7.6849999999999987
 20
4.9859999999999998
 30
0.0
 11
7.6349999999999989
 21
4.956999999999999
 31
0.0
  0
LINE
  5
73B
  8
PEN1
 10
7.6349999999999989
 20
4.956999999999999
 30
0.0
 11
7.6150000000000002
 21
4.9269999999999987
 31
0.0
  0
LINE
  5
73C
  8
PEN1
 10
7.6150000000000002
 20
4.9269999999999987
 30
0.0
 11
7.5729999999999986
 21
4.8889999999999993
 31
0.0
  0
LINE
  5
73D
  8
PEN1
 10
7.5729999999999986
 20
4.8889999999999993
 30
0.0
 11
7.5279999999999987
 21
4.8849999999999989
 31
0.0
  0
LINE
  5
73E
  8
PEN1
 10
7.5279999999999987
 20
4.8849999999999989
 30
0.0
 11
7.4829999999999988
 21
4.8630000000000004
 31
0.0
  0
LINE
  5
73F
  8
PEN1
 10
7.4829999999999988
 20
4.8630000000000004
 30
0.0
 11
7.4599999999999991
 21
4.8499999999999988
 31
0.0
  0
LINE
  5
740
  8
PEN1
 10
7.4599999999999991
 20
4.8499999999999988
 30
0.0
 11
7.4299999999999988
 21
4.8669999999999991
 31
0.0
  0
LINE
  5
741
  8
PEN1
 10
7.4299999999999988
 20
4.8669999999999991
 30
0.0
 11
7.3889999999999993
 21
4.847999999999999
 31
0.0
  0
LINE
  5
742
  8
PEN1
 10
7.3889999999999993
 20
4.847999999999999
 30
0.0
 11
7.3819999999999997
 21
4.855999999999999
 31
0.0
  0
LINE
  5
743
  8
PEN1
 10
7.3819999999999997
 20
4.855999999999999
 30
0.0
 11
7.4210000000000003
 21
4.8780000000000001
 31
0.0
  0
LINE
  5
744
  8
PEN1
 10
7.4210000000000003
 20
4.8780000000000001
 30
0.0
 11
7.4189999999999987
 21
4.879999999999999
 31
0.0
  0
LINE
  5
745
  8
PEN1
 10
7.4189999999999987
 20
4.879999999999999
 30
0.0
 11
7.399
 21
4.8860000000000001
 31
0.0
  0
LINE
  5
746
  8
PEN1
 10
7.399
 20
4.8860000000000001
 30
0.0
 11
7.3849999999999989
 21
4.871999999999999
 31
0.0
  0
LINE
  5
747
  8
PEN1
 10
7.3849999999999989
 20
4.871999999999999
 30
0.0
 11
7.3189999999999991
 21
4.9020000000000001
 31
0.0
  0
LINE
  5
748
  8
PEN1
 10
7.3189999999999991
 20
4.9020000000000001
 30
0.0
 11
7.2929999999999993
 21
4.8889999999999993
 31
0.0
  0
LINE
  5
749
  8
PEN1
 10
7.2929999999999993
 20
4.8889999999999993
 30
0.0
 11
7.2979999999999992
 21
4.907
 31
0.0
  0
LINE
  5
74A
  8
PEN1
 10
7.2979999999999992
 20
4.907
 30
0.0
 11
7.0829999999999993
 21
4.8730000000000002
 31
0.0
  0
LINE
  5
74B
  8
PEN1
 10
4.0609999999999991
 20
3.6819999999999991
 30
0.0
 11
4.0609999999999991
 21
3.6819999999999991
 31
0.0
  0
LINE
  5
74C
  8
PEN1
 10
4.0609999999999991
 20
3.6819999999999991
 30
0.0
 11
4.0700000000000003
 21
3.7959999999999998
 31
0.0
  0
LINE
  5
74D
  8
PEN1
 10
4.0700000000000003
 20
3.7959999999999998
 30
0.0
 11
4.2339999999999991
 21
3.7839999999999989
 31
0.0
  0
LINE
  5
74E
  8
PEN1
 10
4.2339999999999991
 20
3.7839999999999989
 30
0.0
 11
4.9630000000000001
 21
3.7489999999999992
 31
0.0
  0
LINE
  5
74F
  8
PEN1
 10
4.9630000000000001
 20
3.7489999999999992
 30
0.0
 11
5.5089999999999986
 21
3.7509999999999999
 31
0.0
  0
LINE
  5
750
  8
PEN1
 10
5.5089999999999986
 20
3.7509999999999999
 30
0.0
 11
5.5119999999999996
 21
3.637999999999999
 31
0.0
  0
LINE
  5
751
  8
PEN1
 10
5.5119999999999996
 20
3.637999999999999
 30
0.0
 11
5.5469999999999997
 21
3.395
 31
0.0
  0
LINE
  5
752
  8
PEN1
 10
5.5469999999999997
 20
3.395
 30
0.0
 11
5.5410000000000004
 21
3.016999999999999
 31
0.0
  0
LINE
  5
753
  8
PEN1
 10
5.5410000000000004
 20
3.016999999999999
 30
0.0
 11
5.4950000000000001
 21
3.0339999999999989
 31
0.0
  0
LINE
  5
754
  8
PEN1
 10
5.4950000000000001
 20
3.0339999999999989
 30
0.0
 11
5.4210000000000003
 21
3.0839999999999992
 31
0.0
  0
LINE
  5
755
  8
PEN1
 10
5.4210000000000003
 20
3.0839999999999992
 30
0.0
 11
5.3920000000000003
 21
3.069999999999999
 31
0.0
  0
LINE
  5
756
  8
PEN1
 10
5.3920000000000003
 20
3.069999999999999
 30
0.0
 11
5.2960000000000003
 21
3.0609999999999999
 31
0.0
  0
LINE
  5
757
  8
PEN1
 10
5.2960000000000003
 20
3.0609999999999999
 30
0.0
 11
5.2009999999999996
 21
3.0299999999999989
 31
0.0
  0
LINE
  5
758
  8
PEN1
 10
5.2009999999999996
 20
3.0299999999999989
 30
0.0
 11
5.1639999999999988
 21
3.0659999999999998
 31
0.0
  0
LINE
  5
759
  8
PEN1
 10
5.1639999999999988
 20
3.0659999999999998
 30
0.0
 11
5.1159999999999997
 21
3.0569999999999991
 31
0.0
  0
LINE
  5
75A
  8
PEN1
 10
5.1159999999999997
 20
3.0569999999999991
 30
0.0
 11
5.1070000000000002
 21
3.0830000000000002
 31
0.0
  0
LINE
  5
75B
  8
PEN1
 10
5.1070000000000002
 20
3.0830000000000002
 30
0.0
 11
5.0720000000000001
 21
3.0589999999999988
 31
0.0
  0
LINE
  5
75C
  8
PEN1
 10
5.0720000000000001
 20
3.0589999999999988
 30
0.0
 11
5.0659999999999989
 21
3.028999999999999
 31
0.0
  0
LINE
  5
75D
  8
PEN1
 10
5.0659999999999989
 20
3.028999999999999
 30
0.0
 11
5.0539999999999994
 21
3.069999999999999
 31
0.0
  0
LINE
  5
75E
  8
PEN1
 10
5.0539999999999994
 20
3.069999999999999
 30
0.0
 11
5.020999999999999
 21
3.048
 31
0.0
  0
LINE
  5
75F
  8
PEN1
 10
5.020999999999999
 20
3.048
 30
0.0
 11
4.9669999999999987
 21
3.0910000000000002
 31
0.0
  0
LINE
  5
760
  8
PEN1
 10
4.9669999999999987
 20
3.0910000000000002
 30
0.0
 11
4.9370000000000003
 21
3.0589999999999988
 31
0.0
  0
LINE
  5
761
  8
PEN1
 10
4.9370000000000003
 20
3.0589999999999988
 30
0.0
 11
4.9169999999999989
 21
3.0760000000000001
 31
0.0
  0
LINE
  5
762
  8
PEN1
 10
4.9169999999999989
 20
3.0760000000000001
 30
0.0
 11
4.891
 21
3.1289999999999991
 31
0.0
  0
LINE
  5
763
  8
PEN1
 10
4.891
 20
3.1289999999999991
 30
0.0
 11
4.8449999999999989
 21
3.1319999999999988
 31
0.0
  0
LINE
  5
764
  8
PEN1
 10
4.8449999999999989
 20
3.1319999999999988
 30
0.0
 11
4.8380000000000001
 21
3.1160000000000001
 31
0.0
  0
LINE
  5
765
  8
PEN1
 10
4.8380000000000001
 20
3.1160000000000001
 30
0.0
 11
4.806
 21
3.137
 31
0.0
  0
LINE
  5
766
  8
PEN1
 10
4.806
 20
3.137
 30
0.0
 11
4.7800000000000002
 21
3.1280000000000001
 31
0.0
  0
LINE
  5
767
  8
PEN1
 10
4.7800000000000002
 20
3.1280000000000001
 30
0.0
 11
4.7439999999999989
 21
3.1459999999999999
 31
0.0
  0
LINE
  5
768
  8
PEN1
 10
4.7439999999999989
 20
3.1459999999999999
 30
0.0
 11
4.7019999999999991
 21
3.149999999999999
 31
0.0
  0
LINE
  5
769
  8
PEN1
 10
4.7019999999999991
 20
3.149999999999999
 30
0.0
 11
4.7030000000000003
 21
3.177
 31
0.0
  0
LINE
  5
76A
  8
PEN1
 10
4.7030000000000003
 20
3.177
 30
0.0
 11
4.6739999999999986
 21
3.2029999999999998
 31
0.0
  0
LINE
  5
76B
  8
PEN1
 10
4.6739999999999986
 20
3.2029999999999998
 30
0.0
 11
4.6639999999999988
 21
3.1859999999999999
 31
0.0
  0
LINE
  5
76C
  8
PEN1
 10
4.6639999999999988
 20
3.1859999999999999
 30
0.0
 11
4.613999999999999
 21
3.1880000000000002
 31
0.0
  0
LINE
  5
76D
  8
PEN1
 10
4.613999999999999
 20
3.1880000000000002
 30
0.0
 11
4.5629999999999988
 21
3.2309999999999999
 31
0.0
  0
LINE
  5
76E
  8
PEN1
 10
4.5629999999999988
 20
3.2309999999999999
 30
0.0
 11
4.5800000000000001
 21
3.6519999999999988
 31
0.0
  0
LINE
  5
76F
  8
PEN1
 10
4.5800000000000001
 20
3.6519999999999988
 30
0.0
 11
4.0609999999999991
 21
3.6819999999999991
 31
0.0
  0
LINE
  5
770
  8
PEN1
 10
0.823
 20
5.5279999999999987
 30
0.0
 11
0.823
 21
5.5279999999999987
 31
0.0
  0
LINE
  5
771
  8
PEN1
 10
0.823
 20
5.5279999999999987
 30
0.0
 11
0.8449999999999999
 21
5.738999999999999
 31
0.0
  0
LINE
  5
772
  8
PEN1
 10
0.8449999999999999
 20
5.738999999999999
 30
0.0
 11
0.9509999999999999
 21
5.9100000000000001
 31
0.0
  0
LINE
  5
773
  8
PEN1
 10
0.9509999999999999
 20
5.9100000000000001
 30
0.0
 11
1.1200000000000001
 21
6.4000000000000004
 31
0.0
  0
LINE
  5
774
  8
PEN1
 10
1.1200000000000001
 20
6.4000000000000004
 30
0.0
 11
1.2050000000000001
 21
6.3729999999999993
 31
0.0
  0
LINE
  5
775
  8
PEN1
 10
1.2050000000000001
 20
6.3729999999999993
 30
0.0
 11
1.2090000000000001
 21
6.3520000000000003
 31
0.0
  0
LINE
  5
776
  8
PEN1
 10
1.2090000000000001
 20
6.3520000000000003
 30
0.0
 11
1.230999999999999
 21
6.3490000000000002
 31
0.0
  0
LINE
  5
777
  8
PEN1
 10
1.230999999999999
 20
6.3490000000000002
 30
0.0
 11
1.274
 21
6.2649999999999988
 31
0.0
  0
LINE
  5
778
  8
PEN1
 10
1.274
 20
6.2649999999999988
 30
0.0
 11
1.2669999999999999
 21
6.2370000000000001
 31
0.0
  0
LINE
  5
779
  8
PEN1
 10
1.2669999999999999
 20
6.2370000000000001
 30
0.0
 11
1.3340000000000001
 21
6.1799999999999988
 31
0.0
  0
LINE
  5
77A
  8
PEN1
 10
1.3340000000000001
 20
6.1799999999999988
 30
0.0
 11
1.450999999999999
 21
6.1840000000000002
 31
0.0
  0
LINE
  5
77B
  8
PEN1
 10
1.450999999999999
 20
6.1840000000000002
 30
0.0
 11
1.538
 21
6.1449999999999987
 31
0.0
  0
LINE
  5
77C
  8
PEN1
 10
1.538
 20
6.1449999999999987
 30
0.0
 11
1.5800000000000001
 21
6.1529999999999987
 31
0.0
  0
LINE
  5
77D
  8
PEN1
 10
1.5800000000000001
 20
6.1529999999999987
 30
0.0
 11
1.843
 21
6.1449999999999987
 31
0.0
  0
LINE
  5
77E
  8
PEN1
 10
1.843
 20
6.1449999999999987
 30
0.0
 11
2.1429999999999998
 21
6.073999999999999
 31
0.0
  0
LINE
  5
77F
  8
PEN1
 10
2.1429999999999998
 20
6.073999999999999
 30
0.0
 11
2.157999999999999
 21
6.0369999999999999
 31
0.0
  0
LINE
  5
780
  8
PEN1
 10
2.157999999999999
 20
6.0369999999999999
 30
0.0
 11
2.1939999999999991
 21
5.9829999999999988
 31
0.0
  0
LINE
  5
781
  8
PEN1
 10
2.1939999999999991
 20
5.9829999999999988
 30
0.0
 11
2.145999999999999
 21
5.9100000000000001
 31
0.0
  0
LINE
  5
782
  8
PEN1
 10
2.145999999999999
 20
5.9100000000000001
 30
0.0
 11
2.093999999999999
 21
5.827
 31
0.0
  0
LINE
  5
783
  8
PEN1
 10
2.093999999999999
 20
5.827
 30
0.0
 11
2.028
 21
5.7649999999999988
 31
0.0
  0
LINE
  5
784
  8
PEN1
 10
2.028
 20
5.7649999999999988
 30
0.0
 11
2.0190000000000001
 21
5.7240000000000002
 31
0.0
  0
LINE
  5
785
  8
PEN1
 10
2.0190000000000001
 20
5.7240000000000002
 30
0.0
 11
2.056
 21
5.6789999999999994
 31
0.0
  0
LINE
  5
786
  8
PEN1
 10
2.056
 20
5.6789999999999994
 30
0.0
 11
2.0150000000000001
 21
5.5849999999999991
 31
0.0
  0
LINE
  5
787
  8
PEN1
 10
2.0150000000000001
 20
5.5849999999999991
 30
0.0
 11
1.9330000000000001
 21
5.230999999999999
 31
0.0
  0
LINE
  5
788
  8
PEN1
 10
1.9330000000000001
 20
5.230999999999999
 30
0.0
 11
1.468
 21
5.3470000000000004
 31
0.0
  0
LINE
  5
789
  8
PEN1
 10
1.468
 20
5.3470000000000004
 30
0.0
 11
0.823
 21
5.5279999999999987
 31
0.0
  0
LINE
  5
78A
  8
PEN1
 10
7.7560000000000002
 20
5.020999999999999
 30
0.0
 11
7.7560000000000002
 21
5.020999999999999
 31
0.0
  0
LINE
  5
78B
  8
PEN1
 10
7.7560000000000002
 20
5.020999999999999
 30
0.0
 11
7.8039999999999994
 21
4.7359999999999998
 31
0.0
  0
LINE
  5
78C
  8
PEN1
 10
7.8039999999999994
 20
4.7359999999999998
 30
0.0
 11
7.8360000000000003
 21
4.5359999999999996
 31
0.0
  0
LINE
  5
78D
  8
PEN1
 10
7.8360000000000003
 20
4.5359999999999996
 30
0.0
 11
8.0030000000000001
 21
4.5640000000000001
 31
0.0
  0
LINE
  5
78E
  8
PEN1
 10
8.0030000000000001
 20
4.5640000000000001
 30
0.0
 11
8.6039999999999992
 21
4.6789999999999994
 31
0.0
  0
LINE
  5
78F
  8
PEN1
 10
8.6039999999999992
 20
4.6789999999999994
 30
0.0
 11
8.6280000000000001
 21
4.7089999999999987
 31
0.0
  0
LINE
  5
790
  8
PEN1
 10
8.6280000000000001
 20
4.7089999999999987
 30
0.0
 11
8.6630000000000003
 21
4.7089999999999987
 31
0.0
  0
LINE
  5
791
  8
PEN1
 10
8.6630000000000003
 20
4.7089999999999987
 30
0.0
 11
8.7019999999999982
 21
4.7350000000000003
 31
0.0
  0
LINE
  5
792
  8
PEN1
 10
8.7019999999999982
 20
4.7350000000000003
 30
0.0
 11
8.7229999999999972
 21
4.7779999999999996
 31
0.0
  0
LINE
  5
793
  8
PEN1
 10
8.7229999999999972
 20
4.7779999999999996
 30
0.0
 11
8.7560000000000002
 21
4.8099999999999987
 31
0.0
  0
LINE
  5
794
  8
PEN1
 10
8.7560000000000002
 20
4.8099999999999987
 30
0.0
 11
8.6589999999999971
 21
4.8899999999999988
 31
0.0
  0
LINE
  5
795
  8
PEN1
 10
8.6589999999999971
 20
4.8899999999999988
 30
0.0
 11
8.6560000000000006
 21
4.9660000000000002
 31
0.0
  0
LINE
  5
796
  8
PEN1
 10
8.6560000000000006
 20
4.9660000000000002
 30
0.0
 11
8.7010000000000005
 21
5.0670000000000002
 31
0.0
  0
LINE
  5
797
  8
PEN1
 10
8.7010000000000005
 20
5.0670000000000002
 30
0.0
 11
8.636000000000001
 21
5.1040000000000001
 31
0.0
  0
LINE
  5
798
  8
PEN1
 10
8.636000000000001
 20
5.1040000000000001
 30
0.0
 11
8.6099999999999994
 21
5.1550000000000002
 31
0.0
  0
LINE
  5
799
  8
PEN1
 10
8.6099999999999994
 20
5.1550000000000002
 30
0.0
 11
8.5640000000000001
 21
5.1789999999999994
 31
0.0
  0
LINE
  5
79A
  8
PEN1
 10
8.5640000000000001
 20
5.1789999999999994
 30
0.0
 11
7.9000000000000004
 21
5.0519999999999987
 31
0.0
  0
LINE
  5
79B
  8
PEN1
 10
7.9000000000000004
 20
5.0519999999999987
 30
0.0
 11
7.867
 21
5.1040000000000001
 31
0.0
  0
LINE
  5
79C
  8
PEN1
 10
7.867
 20
5.1040000000000001
 30
0.0
 11
7.7560000000000002
 21
5.020999999999999
 31
0.0
  0
LINE
  5
79D
  8
PEN1
 10
9.1280000000000001
 20
5.3129999999999988
 30
0.0
 11
9.1280000000000001
 21
5.3129999999999988
 31
0.0
  0
LINE
  5
79E
  8
PEN1
 10
9.1280000000000001
 20
5.3129999999999988
 30
0.0
 11
9.1560000000000006
 21
5.169999999999999
 31
0.0
  0
LINE
  5
79F
  8
PEN1
 10
9.1560000000000006
 20
5.169999999999999
 30
0.0
 11
9.1620000000000008
 21
5.1629999999999994
 31
0.0
  0
LINE
  5
7A0
  8
PEN1
 10
9.1620000000000008
 20
5.1629999999999994
 30
0.0
 11
9.2119999999999997
 21
5.1920000000000002
 31
0.0
  0
LINE
  5
7A1
  8
PEN1
 10
9.2119999999999997
 20
5.1920000000000002
 30
0.0
 11
9.2050000000000001
 21
5.2350000000000003
 31
0.0
  0
LINE
  5
7A2
  8
PEN1
 10
9.2050000000000001
 20
5.2350000000000003
 30
0.0
 11
9.2140000000000004
 21
5.254999999999999
 31
0.0
  0
LINE
  5
7A3
  8
PEN1
 10
9.2140000000000004
 20
5.254999999999999
 30
0.0
 11
9.2270000000000003
 21
5.2409999999999997
 31
0.0
  0
LINE
  5
7A4
  8
PEN1
 10
9.2270000000000003
 20
5.2409999999999997
 30
0.0
 11
9.2320000000000011
 21
5.2099999999999991
 31
0.0
  0
LINE
  5
7A5
  8
PEN1
 10
9.2320000000000011
 20
5.2099999999999991
 30
0.0
 11
9.2430000000000003
 21
5.2119999999999997
 31
0.0
  0
LINE
  5
7A6
  8
PEN1
 10
9.2430000000000003
 20
5.2119999999999997
 30
0.0
 11
9.261000000000001
 21
5.2409999999999997
 31
0.0
  0
LINE
  5
7A7
  8
PEN1
 10
9.261000000000001
 20
5.2409999999999997
 30
0.0
 11
9.2430000000000003
 21
5.2770000000000001
 31
0.0
  0
LINE
  5
7A8
  8
PEN1
 10
9.2430000000000003
 20
5.2770000000000001
 30
0.0
 11
9.2129999999999992
 21
5.282
 31
0.0
  0
LINE
  5
7A9
  8
PEN1
 10
9.2129999999999992
 20
5.282
 30
0.0
 11
9.1929999999999996
 21
5.3250000000000002
 31
0.0
  0
LINE
  5
7AA
  8
PEN1
 10
9.1929999999999996
 20
5.3250000000000002
 30
0.0
 11
9.1739999999999995
 21
5.3289999999999988
 31
0.0
  0
LINE
  5
7AB
  8
PEN1
 10
9.1739999999999995
 20
5.3289999999999988
 30
0.0
 11
9.1280000000000001
 21
5.3129999999999988
 31
0.0
  0
LINE
  5
7AC
  8
PEN1
 10
7.5079999999999991
 20
3.379999999999999
 30
0.0
 11
7.5079999999999991
 21
3.379999999999999
 31
0.0
  0
LINE
  5
7AD
  8
PEN1
 10
7.5079999999999991
 20
3.379999999999999
 30
0.0
 11
7.5439999999999987
 21
3.4479999999999991
 31
0.0
  0
LINE
  5
7AE
  8
PEN1
 10
7.5439999999999987
 20
3.4479999999999991
 30
0.0
 11
7.6689999999999987
 21
3.5099999999999989
 31
0.0
  0
LINE
  5
7AF
  8
PEN1
 10
7.6689999999999987
 20
3.5099999999999989
 30
0.0
 11
7.9029999999999987
 21
3.536999999999999
 31
0.0
  0
LINE
  5
7B0
  8
PEN1
 10
7.9029999999999987
 20
3.536999999999999
 30
0.0
 11
8.0
 21
3.4750000000000001
 31
0.0
  0
LINE
  5
7B1
  8
PEN1
 10
8.0
 20
3.4750000000000001
 30
0.0
 11
8.1509999999999998
 21
3.496999999999999
 31
0.0
  0
LINE
  5
7B2
  8
PEN1
 10
8.1509999999999998
 20
3.496999999999999
 30
0.0
 11
8.3819999999999997
 21
3.331
 31
0.0
  0
LINE
  5
7B3
  8
PEN1
 10
8.3819999999999997
 20
3.331
 30
0.0
 11
8.3149999999999995
 21
3.2539999999999991
 31
0.0
  0
LINE
  5
7B4
  8
PEN1
 10
8.3149999999999995
 20
3.2539999999999991
 30
0.0
 11
8.2799999999999994
 21
3.2019999999999991
 31
0.0
  0
LINE
  5
7B5
  8
PEN1
 10
8.2799999999999994
 20
3.2019999999999991
 30
0.0
 11
8.2839999999999971
 21
3.1489999999999991
 31
0.0
  0
LINE
  5
7B6
  8
PEN1
 10
8.2839999999999971
 20
3.1489999999999991
 30
0.0
 11
8.2229999999999972
 21
3.0979999999999999
 31
0.0
  0
LINE
  5
7B7
  8
PEN1
 10
8.2229999999999972
 20
3.0979999999999999
 30
0.0
 11
8.1760000000000002
 21
3.024999999999999
 31
0.0
  0
LINE
  5
7B8
  8
PEN1
 10
8.1760000000000002
 20
3.024999999999999
 30
0.0
 11
8.1089999999999982
 21
2.984999999999999
 31
0.0
  0
LINE
  5
7B9
  8
PEN1
 10
8.1089999999999982
 20
2.984999999999999
 30
0.0
 11
8.0809999999999995
 21
2.9789999999999992
 31
0.0
  0
LINE
  5
7BA
  8
PEN1
 10
8.0809999999999995
 20
2.9789999999999992
 30
0.0
 11
8.0689999999999991
 21
2.931
 31
0.0
  0
LINE
  5
7BB
  8
PEN1
 10
8.0689999999999991
 20
2.931
 30
0.0
 11
8.0299999999999994
 21
2.956999999999999
 31
0.0
  0
LINE
  5
7BC
  8
PEN1
 10
8.0299999999999994
 20
2.956999999999999
 30
0.0
 11
8.0640000000000001
 21
2.9129999999999998
 31
0.0
  0
LINE
  5
7BD
  8
PEN1
 10
8.0640000000000001
 20
2.9129999999999998
 30
0.0
 11
8.032
 21
2.8679999999999999
 31
0.0
  0
LINE
  5
7BE
  8
PEN1
 10
8.032
 20
2.8679999999999999
 30
0.0
 11
8.0009999999999994
 21
2.8739999999999992
 31
0.0
  0
LINE
  5
7BF
  8
PEN1
 10
8.0009999999999994
 20
2.8739999999999992
 30
0.0
 11
7.9790000000000001
 21
2.9009999999999998
 31
0.0
  0
LINE
  5
7C0
  8
PEN1
 10
7.9790000000000001
 20
2.9009999999999998
 30
0.0
 11
7.9420000000000002
 21
2.9670000000000001
 31
0.0
  0
LINE
  5
7C1
  8
PEN1
 10
7.9420000000000002
 20
2.9670000000000001
 30
0.0
 11
7.9219999999999997
 21
2.976
 31
0.0
  0
LINE
  5
7C2
  8
PEN1
 10
7.9219999999999997
 20
2.976
 30
0.0
 11
7.8789999999999987
 21
3.0649999999999991
 31
0.0
  0
LINE
  5
7C3
  8
PEN1
 10
7.8789999999999987
 20
3.0649999999999991
 30
0.0
 11
7.8189999999999991
 21
3.101999999999999
 31
0.0
  0
LINE
  5
7C4
  8
PEN1
 10
7.8189999999999991
 20
3.101999999999999
 30
0.0
 11
7.7759999999999989
 21
3.161999999999999
 31
0.0
  0
LINE
  5
7C5
  8
PEN1
 10
7.7759999999999989
 20
3.161999999999999
 30
0.0
 11
7.6710000000000003
 21
3.2379999999999991
 31
0.0
  0
LINE
  5
7C6
  8
PEN1
 10
7.6710000000000003
 20
3.2379999999999991
 30
0.0
 11
7.6210000000000004
 21
3.3069999999999991
 31
0.0
  0
LINE
  5
7C7
  8
PEN1
 10
7.6210000000000004
 20
3.3069999999999991
 30
0.0
 11
7.5079999999999991
 21
3.379999999999999
 31
0.0
  0
LINE
  5
7C8
  8
PEN1
 10
4.0069999999999988
 20
5.1189999999999989
 30
0.0
 11
4.0069999999999988
 21
5.1189999999999989
 31
0.0
  0
LINE
  5
7C9
  8
PEN1
 10
4.0069999999999988
 20
5.1189999999999989
 30
0.0
 11
4.0469999999999988
 21
5.5519999999999996
 31
0.0
  0
LINE
  5
7CA
  8
PEN1
 10
4.0469999999999988
 20
5.5519999999999996
 30
0.0
 11
4.0659999999999989
 21
5.7539999999999987
 31
0.0
  0
LINE
  5
7CB
  8
PEN1
 10
4.0659999999999989
 20
5.7539999999999987
 30
0.0
 11
4.6029999999999989
 21
5.714999999999999
 31
0.0
  0
LINE
  5
7CC
  8
PEN1
 10
4.6029999999999989
 20
5.714999999999999
 30
0.0
 11
5.2000000000000002
 21
5.6959999999999997
 31
0.0
  0
LINE
  5
7CD
  8
PEN1
 10
5.2000000000000002
 20
5.6959999999999997
 30
0.0
 11
5.1600000000000001
 21
5.6200000000000001
 31
0.0
  0
LINE
  5
7CE
  8
PEN1
 10
5.1600000000000001
 20
5.6200000000000001
 30
0.0
 11
5.2169999999999996
 21
5.5629999999999988
 31
0.0
  0
LINE
  5
7CF
  8
PEN1
 10
5.2169999999999996
 20
5.5629999999999988
 30
0.0
 11
5.2139999999999986
 21
5.165
 31
0.0
  0
LINE
  5
7D0
  8
PEN1
 10
5.2139999999999986
 20
5.165
 30
0.0
 11
5.1900000000000004
 21
5.1669999999999998
 31
0.0
  0
LINE
  5
7D1
  8
PEN1
 10
5.1900000000000004
 20
5.1669999999999998
 30
0.0
 11
5.1929999999999987
 21
5.113999999999999
 31
0.0
  0
LINE
  5
7D2
  8
PEN1
 10
5.1929999999999987
 20
5.113999999999999
 30
0.0
 11
5.2119999999999997
 21
5.0750000000000002
 31
0.0
  0
LINE
  5
7D3
  8
PEN1
 10
5.2119999999999997
 20
5.0750000000000002
 30
0.0
 11
5.198999999999999
 21
5.036999999999999
 31
0.0
  0
LINE
  5
7D4
  8
PEN1
 10
5.198999999999999
 20
5.036999999999999
 30
0.0
 11
5.2110000000000003
 21
4.9429999999999996
 31
0.0
  0
LINE
  5
7D5
  8
PEN1
 10
5.2110000000000003
 20
4.9429999999999996
 30
0.0
 11
5.1840000000000002
 21
4.9509999999999996
 31
0.0
  0
LINE
  5
7D6
  8
PEN1
 10
5.1840000000000002
 20
4.9509999999999996
 30
0.0
 11
5.153999999999999
 21
4.9880000000000004
 31
0.0
  0
LINE
  5
7D7
  8
PEN1
 10
5.153999999999999
 20
4.9880000000000004
 30
0.0
 11
5.0960000000000001
 21
5.012999999999999
 31
0.0
  0
LINE
  5
7D8
  8
PEN1
 10
5.0960000000000001
 20
5.012999999999999
 30
0.0
 11
5.0469999999999988
 21
5.0250000000000004
 31
0.0
  0
LINE
  5
7D9
  8
PEN1
 10
5.0469999999999988
 20
5.0250000000000004
 30
0.0
 11
4.9420000000000002
 21
5.0199999999999987
 31
0.0
  0
LINE
  5
7DA
  8
PEN1
 10
4.9420000000000002
 20
5.0199999999999987
 30
0.0
 11
4.883
 21
5.0650000000000004
 31
0.0
  0
LINE
  5
7DB
  8
PEN1
 10
4.883
 20
5.0650000000000004
 30
0.0
 11
4.0069999999999988
 21
5.1189999999999989
 31
0.0
  0
LINE
  5
7DC
  8
PEN1
 10
6.2829999999999986
 20
3.331999999999999
 30
0.0
 11
6.2829999999999986
 21
3.331999999999999
 31
0.0
  0
LINE
  5
7DD
  8
PEN1
 10
6.2829999999999986
 20
3.331999999999999
 30
0.0
 11
6.3079999999999989
 21
3.4209999999999998
 31
0.0
  0
LINE
  5
7DE
  8
PEN1
 10
6.3079999999999989
 20
3.4209999999999998
 30
0.0
 11
6.2979999999999992
 21
3.427999999999999
 31
0.0
  0
LINE
  5
7DF
  8
PEN1
 10
6.2979999999999992
 20
3.427999999999999
 30
0.0
 11
6.3419999999999996
 21
3.4619999999999989
 31
0.0
  0
LINE
  5
7E0
  8
PEN1
 10
6.3419999999999996
 20
3.4619999999999989
 30
0.0
 11
6.3810000000000002
 21
3.5409999999999999
 31
0.0
  0
LINE
  5
7E1
  8
PEN1
 10
6.3810000000000002
 20
3.5409999999999999
 30
0.0
 11
6.3679999999999994
 21
3.5579999999999998
 31
0.0
  0
LINE
  5
7E2
  8
PEN1
 10
6.3679999999999994
 20
3.5579999999999998
 30
0.0
 11
6.3869999999999996
 21
3.5950000000000002
 31
0.0
  0
LINE
  5
7E3
  8
PEN1
 10
6.3869999999999996
 20
3.5950000000000002
 30
0.0
 11
6.3899999999999988
 21
3.637999999999999
 31
0.0
  0
LINE
  5
7E4
  8
PEN1
 10
6.3899999999999988
 20
3.637999999999999
 30
0.0
 11
6.4160000000000004
 21
3.669999999999999
 31
0.0
  0
LINE
  5
7E5
  8
PEN1
 10
6.4160000000000004
 20
3.669999999999999
 30
0.0
 11
6.6479999999999988
 21
3.6859999999999999
 31
0.0
  0
LINE
  5
7E6
  8
PEN1
 10
6.6479999999999988
 20
3.6859999999999999
 30
0.0
 11
6.6449999999999987
 21
3.7239999999999989
 31
0.0
  0
LINE
  5
7E7
  8
PEN1
 10
6.6449999999999987
 20
3.7239999999999989
 30
0.0
 11
6.7179999999999991
 21
3.7210000000000001
 31
0.0
  0
LINE
  5
7E8
  8
PEN1
 10
6.7179999999999991
 20
3.7210000000000001
 30
0.0
 11
7.407
 21
3.7850000000000001
 31
0.0
  0
LINE
  5
7E9
  8
PEN1
 10
7.407
 20
3.7850000000000001
 30
0.0
 11
7.75
 21
3.831
 31
0.0
  0
LINE
  5
7EA
  8
PEN1
 10
7.75
 20
3.831
 30
0.0
 11
7.7429999999999994
 21
3.782999999999999
 31
0.0
  0
LINE
  5
7EB
  8
PEN1
 10
7.7429999999999994
 20
3.782999999999999
 30
0.0
 11
7.7199999999999989
 21
3.766999999999999
 31
0.0
  0
LINE
  5
7EC
  8
PEN1
 10
7.7199999999999989
 20
3.766999999999999
 30
0.0
 11
7.6900000000000004
 21
3.7130000000000001
 31
0.0
  0
LINE
  5
7ED
  8
PEN1
 10
7.6900000000000004
 20
3.7130000000000001
 30
0.0
 11
7.6660000000000004
 21
3.7170000000000001
 31
0.0
  0
LINE
  5
7EE
  8
PEN1
 10
7.6660000000000004
 20
3.7170000000000001
 30
0.0
 11
7.6389999999999993
 21
3.7019999999999991
 31
0.0
  0
LINE
  5
7EF
  8
PEN1
 10
7.6389999999999993
 20
3.7019999999999991
 30
0.0
 11
7.6210000000000004
 21
3.6749999999999989
 31
0.0
  0
LINE
  5
7F0
  8
PEN1
 10
7.6210000000000004
 20
3.6749999999999989
 30
0.0
 11
7.5949999999999989
 21
3.6919999999999988
 31
0.0
  0
LINE
  5
7F1
  8
PEN1
 10
7.5949999999999989
 20
3.6919999999999988
 30
0.0
 11
7.556
 21
3.657999999999999
 31
0.0
  0
LINE
  5
7F2
  8
PEN1
 10
7.556
 20
3.657999999999999
 30
0.0
 11
7.5510000000000002
 21
3.629999999999999
 31
0.0
  0
LINE
  5
7F3
  8
PEN1
 10
7.5510000000000002
 20
3.629999999999999
 30
0.0
 11
7.3849999999999989
 21
3.5310000000000001
 31
0.0
  0
LINE
  5
7F4
  8
PEN1
 10
7.3849999999999989
 20
3.5310000000000001
 30
0.0
 11
7.375
 21
3.4929999999999999
 31
0.0
  0
LINE
  5
7F5
  8
PEN1
 10
7.375
 20
3.4929999999999999
 30
0.0
 11
7.3310000000000004
 21
3.4719999999999991
 31
0.0
  0
LINE
  5
7F6
  8
PEN1
 10
7.3310000000000004
 20
3.4719999999999991
 30
0.0
 11
7.3319999999999999
 21
3.423
 31
0.0
  0
LINE
  5
7F7
  8
PEN1
 10
7.3319999999999999
 20
3.423
 30
0.0
 11
7.105999999999999
 21
3.3939999999999988
 31
0.0
  0
LINE
  5
7F8
  8
PEN1
 10
7.105999999999999
 20
3.3939999999999988
 30
0.0
 11
6.6509999999999989
 21
3.3559999999999999
 31
0.0
  0
LINE
  5
7F9
  8
PEN1
 10
6.6509999999999989
 20
3.3559999999999999
 30
0.0
 11
6.2829999999999986
 21
3.331999999999999
 31
0.0
  0
LINE
  5
7FA
  8
PEN1
 10
3.331
 20
2.7239999999999989
 30
0.0
 11
3.331
 21
2.7239999999999989
 31
0.0
  0
LINE
  5
7FB
  8
PEN1
 10
3.331
 20
2.7239999999999989
 30
0.0
 11
3.3169999999999988
 21
2.7689999999999988
 31
0.0
  0
LINE
  5
7FC
  8
PEN1
 10
3.3169999999999988
 20
2.7689999999999988
 30
0.0
 11
3.3650000000000002
 21
2.7650000000000001
 31
0.0
  0
LINE
  5
7FD
  8
PEN1
 10
3.3650000000000002
 20
2.7650000000000001
 30
0.0
 11
3.9710000000000001
 21
2.706999999999999
 31
0.0
  0
LINE
  5
7FE
  8
PEN1
 10
3.9710000000000001
 20
2.706999999999999
 30
0.0
 11
4.0609999999999991
 21
3.6819999999999991
 31
0.0
  0
LINE
  5
7FF
  8
PEN1
 10
4.0609999999999991
 20
3.6819999999999991
 30
0.0
 11
4.5800000000000001
 21
3.6519999999999988
 31
0.0
  0
LINE
  5
800
  8
PEN1
 10
4.5800000000000001
 20
3.6519999999999988
 30
0.0
 11
4.5629999999999988
 21
3.2309999999999999
 31
0.0
  0
LINE
  5
801
  8
PEN1
 10
4.5629999999999988
 20
3.2309999999999999
 30
0.0
 11
4.613999999999999
 21
3.1880000000000002
 31
0.0
  0
LINE
  5
802
  8
PEN1
 10
4.613999999999999
 20
3.1880000000000002
 30
0.0
 11
4.6639999999999988
 21
3.1859999999999999
 31
0.0
  0
LINE
  5
803
  8
PEN1
 10
4.6639999999999988
 20
3.1859999999999999
 30
0.0
 11
4.6739999999999986
 21
3.2029999999999998
 31
0.0
  0
LINE
  5
804
  8
PEN1
 10
4.6739999999999986
 20
3.2029999999999998
 30
0.0
 11
4.7030000000000003
 21
3.177
 31
0.0
  0
LINE
  5
805
  8
PEN1
 10
4.7030000000000003
 20
3.177
 30
0.0
 11
4.7019999999999991
 21
3.149999999999999
 31
0.0
  0
LINE
  5
806
  8
PEN1
 10
4.7019999999999991
 20
3.149999999999999
 30
0.0
 11
4.7439999999999989
 21
3.1459999999999999
 31
0.0
  0
LINE
  5
807
  8
PEN1
 10
4.7439999999999989
 20
3.1459999999999999
 30
0.0
 11
4.7800000000000002
 21
3.1280000000000001
 31
0.0
  0
LINE
  5
808
  8
PEN1
 10
4.7800000000000002
 20
3.1280000000000001
 30
0.0
 11
4.806
 21
3.137
 31
0.0
  0
LINE
  5
809
  8
PEN1
 10
4.806
 20
3.137
 30
0.0
 11
4.8380000000000001
 21
3.1160000000000001
 31
0.0
  0
LINE
  5
80A
  8
PEN1
 10
4.8380000000000001
 20
3.1160000000000001
 30
0.0
 11
4.8449999999999989
 21
3.1319999999999988
 31
0.0
  0
LINE
  5
80B
  8
PEN1
 10
4.8449999999999989
 20
3.1319999999999988
 30
0.0
 11
4.891
 21
3.1289999999999991
 31
0.0
  0
LINE
  5
80C
  8
PEN1
 10
4.891
 20
3.1289999999999991
 30
0.0
 11
4.9169999999999989
 21
3.0760000000000001
 31
0.0
  0
LINE
  5
80D
  8
PEN1
 10
4.9169999999999989
 20
3.0760000000000001
 30
0.0
 11
4.9370000000000003
 21
3.0589999999999988
 31
0.0
  0
LINE
  5
80E
  8
PEN1
 10
4.9370000000000003
 20
3.0589999999999988
 30
0.0
 11
4.9669999999999987
 21
3.0910000000000002
 31
0.0
  0
LINE
  5
80F
  8
PEN1
 10
4.9669999999999987
 20
3.0910000000000002
 30
0.0
 11
5.020999999999999
 21
3.048
 31
0.0
  0
LINE
  5
810
  8
PEN1
 10
5.020999999999999
 20
3.048
 30
0.0
 11
5.0539999999999994
 21
3.069999999999999
 31
0.0
  0
LINE
  5
811
  8
PEN1
 10
5.0539999999999994
 20
3.069999999999999
 30
0.0
 11
5.0659999999999989
 21
3.028999999999999
 31
0.0
  0
LINE
  5
812
  8
PEN1
 10
5.0659999999999989
 20
3.028999999999999
 30
0.0
 11
5.0720000000000001
 21
3.0589999999999988
 31
0.0
  0
LINE
  5
813
  8
PEN1
 10
5.0720000000000001
 20
3.0589999999999988
 30
0.0
 11
5.1070000000000002
 21
3.0830000000000002
 31
0.0
  0
LINE
  5
814
  8
PEN1
 10
5.1070000000000002
 20
3.0830000000000002
 30
0.0
 11
5.1159999999999997
 21
3.0569999999999991
 31
0.0
  0
LINE
  5
815
  8
PEN1
 10
5.1159999999999997
 20
3.0569999999999991
 30
0.0
 11
5.1639999999999988
 21
3.0659999999999998
 31
0.0
  0
LINE
  5
816
  8
PEN1
 10
5.1639999999999988
 20
3.0659999999999998
 30
0.0
 11
5.2009999999999996
 21
3.0299999999999989
 31
0.0
  0
LINE
  5
817
  8
PEN1
 10
5.2009999999999996
 20
3.0299999999999989
 30
0.0
 11
5.2960000000000003
 21
3.0609999999999999
 31
0.0
  0
LINE
  5
818
  8
PEN1
 10
5.2960000000000003
 20
3.0609999999999999
 30
0.0
 11
5.3920000000000003
 21
3.069999999999999
 31
0.0
  0
LINE
  5
819
  8
PEN1
 10
5.3920000000000003
 20
3.069999999999999
 30
0.0
 11
5.4210000000000003
 21
3.0839999999999992
 31
0.0
  0
LINE
  5
81A
  8
PEN1
 10
5.4210000000000003
 20
3.0839999999999992
 30
0.0
 11
5.4950000000000001
 21
3.0339999999999989
 31
0.0
  0
LINE
  5
81B
  8
PEN1
 10
5.4950000000000001
 20
3.0339999999999989
 30
0.0
 11
5.5410000000000004
 21
3.016999999999999
 31
0.0
  0
LINE
  5
81C
  8
PEN1
 10
5.5410000000000004
 20
3.016999999999999
 30
0.0
 11
5.5579999999999989
 21
2.996
 31
0.0
  0
LINE
  5
81D
  8
PEN1
 10
5.5579999999999989
 20
2.996
 30
0.0
 11
5.6200000000000001
 21
2.9980000000000002
 31
0.0
  0
LINE
  5
81E
  8
PEN1
 10
5.6200000000000001
 20
2.9980000000000002
 30
0.0
 11
5.6229999999999993
 21
2.8809999999999998
 31
0.0
  0
LINE
  5
81F
  8
PEN1
 10
5.6229999999999993
 20
2.8809999999999998
 30
0.0
 11
5.6339999999999986
 21
2.653
 31
0.0
  0
LINE
  5
820
  8
PEN1
 10
5.6339999999999986
 20
2.653
 30
0.0
 11
5.6600000000000001
 21
2.6239999999999992
 31
0.0
  0
LINE
  5
821
  8
PEN1
 10
5.6600000000000001
 20
2.6239999999999992
 30
0.0
 11
5.669999999999999
 21
2.5649999999999991
 31
0.0
  0
LINE
  5
822
  8
PEN1
 10
5.669999999999999
 20
2.5649999999999991
 30
0.0
 11
5.722999999999999
 21
2.4839999999999991
 31
0.0
  0
LINE
  5
823
  8
PEN1
 10
5.722999999999999
 20
2.4839999999999991
 30
0.0
 11
5.7210000000000001
 21
2.4140000000000001
 31
0.0
  0
LINE
  5
824
  8
PEN1
 10
5.7210000000000001
 20
2.4140000000000001
 30
0.0
 11
5.6900000000000004
 21
2.3490000000000002
 31
0.0
  0
LINE
  5
825
  8
PEN1
 10
5.6900000000000004
 20
2.3490000000000002
 30
0.0
 11
5.6920000000000002
 21
2.3130000000000002
 31
0.0
  0
LINE
  5
826
  8
PEN1
 10
5.6920000000000002
 20
2.3130000000000002
 30
0.0
 11
5.702
 21
2.274999999999999
 31
0.0
  0
LINE
  5
827
  8
PEN1
 10
5.702
 20
2.274999999999999
 30
0.0
 11
5.6970000000000001
 21
2.2370000000000001
 31
0.0
  0
LINE
  5
828
  8
PEN1
 10
5.6970000000000001
 20
2.2370000000000001
 30
0.0
 11
5.6799999999999988
 21
2.2130000000000001
 31
0.0
  0
LINE
  5
829
  8
PEN1
 10
5.6799999999999988
 20
2.2130000000000001
 30
0.0
 11
5.6559999999999997
 21
2.1840000000000002
 31
0.0
  0
LINE
  5
82A
  8
PEN1
 10
5.6559999999999997
 20
2.1840000000000002
 30
0.0
 11
5.6719999999999997
 21
2.165
 31
0.0
  0
LINE
  5
82B
  8
PEN1
 10
5.6719999999999997
 20
2.165
 30
0.0
 11
5.5759999999999996
 21
2.133
 31
0.0
  0
LINE
  5
82C
  8
PEN1
 10
5.5759999999999996
 20
2.133
 30
0.0
 11
5.4989999999999988
 21
2.0889999999999991
 31
0.0
  0
LINE
  5
82D
  8
PEN1
 10
5.4989999999999988
 20
2.0889999999999991
 30
0.0
 11
5.544999999999999
 21
2.125
 31
0.0
  0
LINE
  5
82E
  8
PEN1
 10
5.544999999999999
 20
2.125
 30
0.0
 11
5.4950000000000001
 21
2.125999999999999
 31
0.0
  0
LINE
  5
82F
  8
PEN1
 10
5.4950000000000001
 20
2.125999999999999
 30
0.0
 11
5.5099999999999989
 21
2.1859999999999991
 31
0.0
  0
LINE
  5
830
  8
PEN1
 10
5.5099999999999989
 20
2.1859999999999991
 30
0.0
 11
5.4689999999999994
 21
2.1519999999999988
 31
0.0
  0
LINE
  5
831
  8
PEN1
 10
5.4689999999999994
 20
2.1519999999999988
 30
0.0
 11
5.448999999999999
 21
2.1629999999999998
 31
0.0
  0
LINE
  5
832
  8
PEN1
 10
5.448999999999999
 20
2.1629999999999998
 30
0.0
 11
5.4509999999999996
 21
2.1230000000000002
 31
0.0
  0
LINE
  5
833
  8
PEN1
 10
5.4509999999999996
 20
2.1230000000000002
 30
0.0
 11
5.4679999999999991
 21
2.1160000000000001
 31
0.0
  0
LINE
  5
834
  8
PEN1
 10
5.4679999999999991
 20
2.1160000000000001
 30
0.0
 11
5.4710000000000001
 21
2.0790000000000002
 31
0.0
  0
LINE
  5
835
  8
PEN1
 10
5.4710000000000001
 20
2.0790000000000002
 30
0.0
 11
5.4409999999999989
 21
2.0510000000000002
 31
0.0
  0
LINE
  5
836
  8
PEN1
 10
5.4409999999999989
 20
2.0510000000000002
 30
0.0
 11
5.4219999999999997
 21
2.052999999999999
 31
0.0
  0
LINE
  5
837
  8
PEN1
 10
5.4219999999999997
 20
2.052999999999999
 30
0.0
 11
5.4169999999999998
 21
2.012
 31
0.0
  0
LINE
  5
838
  8
PEN1
 10
5.4169999999999998
 20
2.012
 30
0.0
 11
5.1939999999999991
 21
1.875999999999999
 31
0.0
  0
LINE
  5
839
  8
PEN1
 10
5.1939999999999991
 20
1.875999999999999
 30
0.0
 11
5.1970000000000001
 21
1.889999999999999
 31
0.0
  0
LINE
  5
83A
  8
PEN1
 10
5.1970000000000001
 20
1.889999999999999
 30
0.0
 11
5.2999999999999989
 21
1.9559999999999991
 31
0.0
  0
LINE
  5
83B
  8
PEN1
 10
5.2999999999999989
 20
1.9559999999999991
 30
0.0
 11
5.2199999999999989
 21
1.9139999999999999
 31
0.0
  0
LINE
  5
83C
  8
PEN1
 10
5.2199999999999989
 20
1.9139999999999999
 30
0.0
 11
5.2249999999999988
 21
1.9530000000000001
 31
0.0
  0
LINE
  5
83D
  8
PEN1
 10
5.2249999999999988
 20
1.9530000000000001
 30
0.0
 11
5.2039999999999988
 21
1.9330000000000001
 31
0.0
  0
LINE
  5
83E
  8
PEN1
 10
5.2039999999999988
 20
1.9330000000000001
 30
0.0
 11
5.181
 21
1.9450000000000001
 31
0.0
  0
LINE
  5
83F
  8
PEN1
 10
5.181
 20
1.9450000000000001
 30
0.0
 11
5.1719999999999997
 21
1.9139999999999999
 31
0.0
  0
LINE
  5
840
  8
PEN1
 10
5.1719999999999997
 20
1.9139999999999999
 30
0.0
 11
5.1369999999999996
 21
1.9450000000000001
 31
0.0
  0
LINE
  5
841
  8
PEN1
 10
5.1369999999999996
 20
1.9450000000000001
 30
0.0
 11
5.1389999999999993
 21
1.915
 31
0.0
  0
LINE
  5
842
  8
PEN1
 10
5.1389999999999993
 20
1.915
 30
0.0
 11
5.181
 21
1.8879999999999999
 31
0.0
  0
LINE
  5
843
  8
PEN1
 10
5.181
 20
1.8879999999999999
 30
0.0
 11
5.1329999999999991
 21
1.8609999999999991
 31
0.0
  0
LINE
  5
844
  8
PEN1
 10
5.1329999999999991
 20
1.8609999999999991
 30
0.0
 11
5.1109999999999998
 21
1.895999999999999
 31
0.0
  0
LINE
  5
845
  8
PEN1
 10
5.1109999999999998
 20
1.895999999999999
 30
0.0
 11
5.0949999999999989
 21
1.8069999999999999
 31
0.0
  0
LINE
  5
846
  8
PEN1
 10
5.0949999999999989
 20
1.8069999999999999
 30
0.0
 11
5.073999999999999
 21
1.843
 31
0.0
  0
LINE
  5
847
  8
PEN1
 10
5.073999999999999
 20
1.843
 30
0.0
 11
5.0309999999999997
 21
1.8289999999999991
 31
0.0
  0
LINE
  5
848
  8
PEN1
 10
5.0309999999999997
 20
1.8289999999999991
 30
0.0
 11
5.0229999999999988
 21
1.806
 31
0.0
  0
LINE
  5
849
  8
PEN1
 10
5.0229999999999988
 20
1.806
 30
0.0
 11
5.0439999999999987
 21
1.766
 31
0.0
  0
LINE
  5
84A
  8
PEN1
 10
5.0439999999999987
 20
1.766
 30
0.0
 11
4.964999999999999
 21
1.760999999999999
 31
0.0
  0
LINE
  5
84B
  8
PEN1
 10
4.964999999999999
 20
1.760999999999999
 30
0.0
 11
4.9930000000000003
 21
1.7529999999999999
 31
0.0
  0
LINE
  5
84C
  8
PEN1
 10
4.9930000000000003
 20
1.7529999999999999
 30
0.0
 11
4.9950000000000001
 21
1.7139999999999991
 31
0.0
  0
LINE
  5
84D
  8
PEN1
 10
4.9950000000000001
 20
1.7139999999999991
 30
0.0
 11
5.0119999999999987
 21
1.7230000000000001
 31
0.0
  0
LINE
  5
84E
  8
PEN1
 10
5.0119999999999987
 20
1.7230000000000001
 30
0.0
 11
5.0030000000000001
 21
1.6950000000000001
 31
0.0
  0
LINE
  5
84F
  8
PEN1
 10
5.0030000000000001
 20
1.6950000000000001
 30
0.0
 11
4.9679999999999991
 21
1.6379999999999999
 31
0.0
  0
LINE
  5
850
  8
PEN1
 10
4.9679999999999991
 20
1.6379999999999999
 30
0.0
 11
4.9699999999999989
 21
1.665999999999999
 31
0.0
  0
LINE
  5
851
  8
PEN1
 10
4.9699999999999989
 20
1.665999999999999
 30
0.0
 11
4.9459999999999997
 21
1.641
 31
0.0
  0
LINE
  5
852
  8
PEN1
 10
4.9459999999999997
 20
1.641
 30
0.0
 11
4.915
 21
1.6769999999999989
 31
0.0
  0
LINE
  5
853
  8
PEN1
 10
4.915
 20
1.6769999999999989
 30
0.0
 11
4.9219999999999988
 21
1.635999999999999
 31
0.0
  0
LINE
  5
854
  8
PEN1
 10
4.9219999999999988
 20
1.635999999999999
 30
0.0
 11
4.980999999999999
 21
1.629999999999999
 31
0.0
  0
LINE
  5
855
  8
PEN1
 10
4.980999999999999
 20
1.629999999999999
 30
0.0
 11
4.956999999999999
 21
1.5689999999999991
 31
0.0
  0
LINE
  5
856
  8
PEN1
 10
4.956999999999999
 20
1.5689999999999991
 30
0.0
 11
4.9770000000000003
 21
1.45
 31
0.0
  0
LINE
  5
857
  8
PEN1
 10
4.9770000000000003
 20
1.45
 30
0.0
 11
5.0300000000000002
 21
1.3509999999999991
 31
0.0
  0
LINE
  5
858
  8
PEN1
 10
5.0300000000000002
 20
1.3509999999999991
 30
0.0
 11
4.9610000000000003
 21
1.3469999999999991
 31
0.0
  0
LINE
  5
859
  8
PEN1
 10
4.9610000000000003
 20
1.3469999999999991
 30
0.0
 11
4.8940000000000001
 21
1.3769999999999989
 31
0.0
  0
LINE
  5
85A
  8
PEN1
 10
4.8940000000000001
 20
1.3769999999999989
 30
0.0
 11
4.8360000000000003
 21
1.375999999999999
 31
0.0
  0
LINE
  5
85B
  8
PEN1
 10
4.8360000000000003
 20
1.375999999999999
 30
0.0
 11
4.7519999999999989
 21
1.421999999999999
 31
0.0
  0
LINE
  5
85C
  8
PEN1
 10
4.7519999999999989
 20
1.421999999999999
 30
0.0
 11
4.653999999999999
 21
1.456999999999999
 31
0.0
  0
LINE
  5
85D
  8
PEN1
 10
4.653999999999999
 20
1.456999999999999
 30
0.0
 11
4.6440000000000001
 21
1.4959999999999991
 31
0.0
  0
LINE
  5
85E
  8
PEN1
 10
4.6440000000000001
 20
1.4959999999999991
 30
0.0
 11
4.6230000000000002
 21
1.5529999999999999
 31
0.0
  0
LINE
  5
85F
  8
PEN1
 10
4.6230000000000002
 20
1.5529999999999999
 30
0.0
 11
4.589999999999999
 21
1.5940000000000001
 31
0.0
  0
LINE
  5
860
  8
PEN1
 10
4.589999999999999
 20
1.5940000000000001
 30
0.0
 11
4.5939999999999994
 21
1.6379999999999999
 31
0.0
  0
LINE
  5
861
  8
PEN1
 10
4.5939999999999994
 20
1.6379999999999999
 30
0.0
 11
4.5759999999999996
 21
1.6539999999999999
 31
0.0
  0
LINE
  5
862
  8
PEN1
 10
4.5759999999999996
 20
1.6539999999999999
 30
0.0
 11
4.5769999999999991
 21
1.7139999999999991
 31
0.0
  0
LINE
  5
863
  8
PEN1
 10
4.5769999999999991
 20
1.7139999999999991
 30
0.0
 11
4.5190000000000001
 21
1.7589999999999999
 31
0.0
  0
LINE
  5
864
  8
PEN1
 10
4.5190000000000001
 20
1.7589999999999999
 30
0.0
 11
4.456999999999999
 21
1.8509999999999991
 31
0.0
  0
LINE
  5
865
  8
PEN1
 10
4.456999999999999
 20
1.8509999999999991
 30
0.0
 11
4.3529999999999989
 21
2.0840000000000001
 31
0.0
  0
LINE
  5
866
  8
PEN1
 10
4.3529999999999989
 20
2.0840000000000001
 30
0.0
 11
4.274
 21
2.145
 31
0.0
  0
LINE
  5
867
  8
PEN1
 10
4.274
 20
2.145
 30
0.0
 11
4.2489999999999988
 21
2.1979999999999991
 31
0.0
  0
LINE
  5
868
  8
PEN1
 10
4.2489999999999988
 20
2.1979999999999991
 30
0.0
 11
4.181
 21
2.206999999999999
 31
0.0
  0
LINE
  5
869
  8
PEN1
 10
4.181
 20
2.206999999999999
 30
0.0
 11
4.125
 21
2.2130000000000001
 31
0.0
  0
LINE
  5
86A
  8
PEN1
 10
4.125
 20
2.2130000000000001
 30
0.0
 11
4.0750000000000002
 21
2.2359999999999989
 31
0.0
  0
LINE
  5
86B
  8
PEN1
 10
4.0750000000000002
 20
2.2359999999999989
 30
0.0
 11
4.0590000000000002
 21
2.2130000000000001
 31
0.0
  0
LINE
  5
86C
  8
PEN1
 10
4.0590000000000002
 20
2.2130000000000001
 30
0.0
 11
4.0069999999999988
 21
2.2130000000000001
 31
0.0
  0
LINE
  5
86D
  8
PEN1
 10
4.0069999999999988
 20
2.2130000000000001
 30
0.0
 11
3.9599999999999991
 21
2.1030000000000002
 31
0.0
  0
LINE
  5
86E
  8
PEN1
 10
3.9599999999999991
 20
2.1030000000000002
 30
0.0
 11
3.907999999999999
 21
2.0550000000000002
 31
0.0
  0
LINE
  5
86F
  8
PEN1
 10
3.907999999999999
 20
2.0550000000000002
 30
0.0
 11
3.8780000000000001
 21
2.0579999999999998
 31
0.0
  0
LINE
  5
870
  8
PEN1
 10
3.8780000000000001
 20
2.0579999999999998
 30
0.0
 11
3.786999999999999
 21
2.1280000000000001
 31
0.0
  0
LINE
  5
871
  8
PEN1
 10
3.786999999999999
 20
2.1280000000000001
 30
0.0
 11
3.746999999999999
 21
2.1389999999999998
 31
0.0
  0
LINE
  5
872
  8
PEN1
 10
3.746999999999999
 20
2.1389999999999998
 30
0.0
 11
3.6589999999999989
 21
2.218999999999999
 31
0.0
  0
LINE
  5
873
  8
PEN1
 10
3.6589999999999989
 20
2.218999999999999
 30
0.0
 11
3.6349999999999989
 21
2.282
 31
0.0
  0
LINE
  5
874
  8
PEN1
 10
3.6349999999999989
 20
2.282
 30
0.0
 11
3.6360000000000001
 21
2.3479999999999999
 31
0.0
  0
LINE
  5
875
  8
PEN1
 10
3.6360000000000001
 20
2.3479999999999999
 30
0.0
 11
3.593999999999999
 21
2.4399999999999991
 31
0.0
  0
LINE
  5
876
  8
PEN1
 10
3.593999999999999
 20
2.4399999999999991
 30
0.0
 11
3.5219999999999989
 21
2.4990000000000001
 31
0.0
  0
LINE
  5
877
  8
PEN1
 10
3.5219999999999989
 20
2.4990000000000001
 30
0.0
 11
3.4219999999999988
 21
2.6259999999999999
 31
0.0
  0
LINE
  5
878
  8
PEN1
 10
3.4219999999999988
 20
2.6259999999999999
 30
0.0
 11
3.383999999999999
 21
2.6469999999999989
 31
0.0
  0
LINE
  5
879
  8
PEN1
 10
3.383999999999999
 20
2.6469999999999989
 30
0.0
 11
3.3580000000000001
 21
2.7130000000000001
 31
0.0
  0
LINE
  5
87A
  8
PEN1
 10
3.3580000000000001
 20
2.7130000000000001
 30
0.0
 11
3.331
 21
2.7239999999999989
 31
0.0
  0
LINE
  5
87B
  8
PEN1
 10
2.1890000000000001
 20
4.0539999999999994
 30
0.0
 11
2.1890000000000001
 21
4.0539999999999994
 31
0.0
  0
LINE
  5
87C
  8
PEN1
 10
2.1890000000000001
 20
4.0539999999999994
 30
0.0
 11
2.4009999999999989
 21
5.1289999999999987
 31
0.0
  0
LINE
  5
87D
  8
PEN1
 10
2.4009999999999989
 20
5.1289999999999987
 30
0.0
 11
2.8730000000000002
 21
5.0419999999999989
 31
0.0
  0
LINE
  5
87E
  8
PEN1
 10
2.8730000000000002
 20
5.0419999999999989
 30
0.0
 11
2.8369999999999989
 21
4.8259999999999996
 31
0.0
  0
LINE
  5
87F
  8
PEN1
 10
2.8369999999999989
 20
4.8259999999999996
 30
0.0
 11
3.1600000000000001
 21
4.7759999999999989
 31
0.0
  0
LINE
  5
880
  8
PEN1
 10
3.1600000000000001
 20
4.7759999999999989
 30
0.0
 11
3.036999999999999
 21
3.9089999999999989
 31
0.0
  0
LINE
  5
881
  8
PEN1
 10
3.036999999999999
 20
3.9089999999999989
 30
0.0
 11
2.1890000000000001
 21
4.0539999999999994
 31
0.0
  0
LINE
  5
882
  8
PEN1
 10
8.7329999999999988
 20
5.8889999999999993
 30
0.0
 11
8.7329999999999988
 21
5.8889999999999993
 31
0.0
  0
LINE
  5
883
  8
PEN1
 10
8.7329999999999988
 20
5.8889999999999993
 30
0.0
 11
8.7750000000000004
 21
5.7339999999999991
 31
0.0
  0
LINE
  5
884
  8
PEN1
 10
8.7750000000000004
 20
5.7339999999999991
 30
0.0
 11
8.7880000000000003
 21
5.6339999999999986
 31
0.0
  0
LINE
  5
885
  8
PEN1
 10
8.7880000000000003
 20
5.6339999999999986
 30
0.0
 11
8.8320000000000007
 21
5.5329999999999986
 31
0.0
  0
LINE
  5
886
  8
PEN1
 10
8.8320000000000007
 20
5.5329999999999986
 30
0.0
 11
8.8589999999999982
 21
5.4119999999999999
 31
0.0
  0
LINE
  5
887
  8
PEN1
 10
8.8589999999999982
 20
5.4119999999999999
 30
0.0
 11
8.9839999999999982
 21
5.4390000000000001
 31
0.0
  0
LINE
  5
888
  8
PEN1
 10
8.9839999999999982
 20
5.4390000000000001
 30
0.0
 11
8.9580000000000002
 21
5.6260000000000003
 31
0.0
  0
LINE
  5
889
  8
PEN1
 10
8.9580000000000002
 20
5.6260000000000003
 30
0.0
 11
8.9740000000000002
 21
5.7579999999999991
 31
0.0
  0
LINE
  5
88A
  8
PEN1
 10
8.9740000000000002
 20
5.7579999999999991
 30
0.0
 11
9.0060000000000002
 21
5.8189999999999991
 31
0.0
  0
LINE
  5
88B
  8
PEN1
 10
9.0060000000000002
 20
5.8189999999999991
 30
0.0
 11
9.0090000000000003
 21
5.9579999999999993
 31
0.0
  0
LINE
  5
88C
  8
PEN1
 10
9.0090000000000003
 20
5.9579999999999993
 30
0.0
 11
8.7329999999999988
 21
5.8889999999999993
 31
0.0
  0
LINE
  5
88D
  8
PEN1
 10
7.407
 20
3.7850000000000001
 30
0.0
 11
7.407
 21
3.7850000000000001
 31
0.0
  0
LINE
  5
88E
  8
PEN1
 10
7.407
 20
3.7850000000000001
 30
0.0
 11
7.5309999999999997
 21
3.8669999999999991
 31
0.0
  0
LINE
  5
88F
  8
PEN1
 10
7.5309999999999997
 20
3.8669999999999991
 30
0.0
 11
7.532
 21
3.8849999999999989
 31
0.0
  0
LINE
  5
890
  8
PEN1
 10
7.532
 20
3.8849999999999989
 30
0.0
 11
7.577
 21
3.9389999999999992
 31
0.0
  0
LINE
  5
891
  8
PEN1
 10
7.577
 20
3.9389999999999992
 30
0.0
 11
7.6179999999999994
 21
3.968999999999999
 31
0.0
  0
LINE
  5
892
  8
PEN1
 10
7.6179999999999994
 20
3.968999999999999
 30
0.0
 11
7.6660000000000004
 21
4.0270000000000001
 31
0.0
  0
LINE
  5
893
  8
PEN1
 10
7.6660000000000004
 20
4.0270000000000001
 30
0.0
 11
7.7139999999999986
 21
3.968999999999999
 31
0.0
  0
LINE
  5
894
  8
PEN1
 10
7.7139999999999986
 20
3.968999999999999
 30
0.0
 11
7.7750000000000004
 21
3.9980000000000002
 31
0.0
  0
LINE
  5
895
  8
PEN1
 10
7.7750000000000004
 20
3.9980000000000002
 30
0.0
 11
7.7999999999999989
 21
3.98
 31
0.0
  0
LINE
  5
896
  8
PEN1
 10
7.7999999999999989
 20
3.98
 30
0.0
 11
7.8369999999999997
 21
3.9980000000000002
 31
0.0
  0
LINE
  5
897
  8
PEN1
 10
7.8369999999999997
 20
3.9980000000000002
 30
0.0
 11
7.8600000000000003
 21
4.0300000000000002
 31
0.0
  0
LINE
  5
898
  8
PEN1
 10
7.8600000000000003
 20
4.0300000000000002
 30
0.0
 11
7.9260000000000002
 21
4.0410000000000004
 31
0.0
  0
LINE
  5
899
  8
PEN1
 10
7.9260000000000002
 20
4.0410000000000004
 30
0.0
 11
7.9610000000000003
 21
4.0880000000000001
 31
0.0
  0
LINE
  5
89A
  8
PEN1
 10
7.9610000000000003
 20
4.0880000000000001
 30
0.0
 11
7.9429999999999987
 21
4.1009999999999991
 31
0.0
  0
LINE
  5
89B
  8
PEN1
 10
7.9429999999999987
 20
4.1009999999999991
 30
0.0
 11
8.0060000000000002
 21
4.2430000000000003
 31
0.0
  0
LINE
  5
89C
  8
PEN1
 10
8.0060000000000002
 20
4.2430000000000003
 30
0.0
 11
8.0199999999999996
 21
4.3159999999999989
 31
0.0
  0
LINE
  5
89D
  8
PEN1
 10
8.0199999999999996
 20
4.3159999999999989
 30
0.0
 11
8.0800000000000001
 21
4.286999999999999
 31
0.0
  0
LINE
  5
89E
  8
PEN1
 10
8.0800000000000001
 20
4.286999999999999
 30
0.0
 11
8.1089999999999982
 21
4.3700000000000001
 31
0.0
  0
LINE
  5
89F
  8
PEN1
 10
8.1089999999999982
 20
4.3700000000000001
 30
0.0
 11
8.141
 21
4.375
 31
0.0
  0
LINE
  5
8A0
  8
PEN1
 10
8.141
 20
4.375
 30
0.0
 11
8.1859999999999982
 21
4.4550000000000001
 31
0.0
  0
LINE
  5
8A1
  8
PEN1
 10
8.1859999999999982
 20
4.4550000000000001
 30
0.0
 11
8.1999999999999993
 21
4.54
 31
0.0
  0
LINE
  5
8A2
  8
PEN1
 10
8.1999999999999993
 20
4.54
 30
0.0
 11
8.2940000000000005
 21
4.4870000000000001
 31
0.0
  0
LINE
  5
8A3
  8
PEN1
 10
8.2940000000000005
 20
4.4870000000000001
 30
0.0
 11
8.3089999999999993
 21
4.5309999999999997
 31
0.0
  0
LINE
  5
8A4
  8
PEN1
 10
8.3089999999999993
 20
4.5309999999999997
 30
0.0
 11
8.3539999999999992
 21
4.5179999999999989
 31
0.0
  0
LINE
  5
8A5
  8
PEN1
 10
8.3539999999999992
 20
4.5179999999999989
 30
0.0
 11
8.3800000000000008
 21
4.4850000000000003
 31
0.0
  0
LINE
  5
8A6
  8
PEN1
 10
8.3800000000000008
 20
4.4850000000000003
 30
0.0
 11
8.4199999999999982
 21
4.4669999999999987
 31
0.0
  0
LINE
  5
8A7
  8
PEN1
 10
8.4199999999999982
 20
4.4669999999999987
 30
0.0
 11
8.4390000000000001
 21
4.4400000000000004
 31
0.0
  0
LINE
  5
8A8
  8
PEN1
 10
8.4390000000000001
 20
4.4400000000000004
 30
0.0
 11
8.4370000000000012
 21
4.415
 31
0.0
  0
LINE
  5
8A9
  8
PEN1
 10
8.4370000000000012
 20
4.415
 30
0.0
 11
8.4089999999999971
 21
4.3659999999999997
 31
0.0
  0
LINE
  5
8AA
  8
PEN1
 10
8.4089999999999971
 20
4.3659999999999997
 30
0.0
 11
8.4199999999999982
 21
4.3330000000000002
 31
0.0
  0
LINE
  5
8AB
  8
PEN1
 10
8.4199999999999982
 20
4.3330000000000002
 30
0.0
 11
8.4540000000000006
 21
4.347999999999999
 31
0.0
  0
LINE
  5
8AC
  8
PEN1
 10
8.4540000000000006
 20
4.347999999999999
 30
0.0
 11
8.4679999999999982
 21
4.3269999999999991
 31
0.0
  0
LINE
  5
8AD
  8
PEN1
 10
8.4679999999999982
 20
4.3269999999999991
 30
0.0
 11
8.4809999999999999
 21
4.3129999999999988
 31
0.0
  0
LINE
  5
8AE
  8
PEN1
 10
8.4809999999999999
 20
4.3129999999999988
 30
0.0
 11
8.5389999999999997
 21
4.3079999999999989
 31
0.0
  0
LINE
  5
8AF
  8
PEN1
 10
8.5389999999999997
 20
4.3079999999999989
 30
0.0
 11
8.5559999999999992
 21
4.2880000000000003
 31
0.0
  0
LINE
  5
8B0
  8
PEN1
 10
8.5559999999999992
 20
4.2880000000000003
 30
0.0
 11
8.6120000000000001
 21
4.2729999999999988
 31
0.0
  0
LINE
  5
8B1
  8
PEN1
 10
8.6120000000000001
 20
4.2729999999999988
 30
0.0
 11
8.5979999999999972
 21
4.258
 31
0.0
  0
LINE
  5
8B2
  8
PEN1
 10
8.5979999999999972
 20
4.258
 30
0.0
 11
8.6029999999999998
 21
4.2249999999999988
 31
0.0
  0
LINE
  5
8B3
  8
PEN1
 10
8.6029999999999998
 20
4.2249999999999988
 30
0.0
 11
8.6070000000000011
 21
4.2099999999999991
 31
0.0
  0
LINE
  5
8B4
  8
PEN1
 10
8.6070000000000011
 20
4.2099999999999991
 30
0.0
 11
8.5860000000000003
 21
4.2160000000000002
 31
0.0
  0
LINE
  5
8B5
  8
PEN1
 10
8.5860000000000003
 20
4.2160000000000002
 30
0.0
 11
8.5500000000000007
 21
4.2359999999999998
 31
0.0
  0
LINE
  5
8B6
  8
PEN1
 10
8.5500000000000007
 20
4.2359999999999998
 30
0.0
 11
8.4909999999999997
 21
4.2759999999999989
 31
0.0
  0
LINE
  5
8B7
  8
PEN1
 10
8.4909999999999997
 20
4.2759999999999989
 30
0.0
 11
8.5730000000000004
 21
4.198999999999999
 31
0.0
  0
LINE
  5
8B8
  8
PEN1
 10
8.5730000000000004
 20
4.198999999999999
 30
0.0
 11
8.6170000000000009
 21
4.1970000000000001
 31
0.0
  0
LINE
  5
8B9
  8
PEN1
 10
8.6170000000000009
 20
4.1970000000000001
 30
0.0
 11
8.5920000000000005
 21
4.1840000000000002
 31
0.0
  0
LINE
  5
8BA
  8
PEN1
 10
8.5920000000000005
 20
4.1840000000000002
 30
0.0
 11
8.6340000000000003
 21
4.1630000000000003
 31
0.0
  0
LINE
  5
8BB
  8
PEN1
 10
8.6340000000000003
 20
4.1630000000000003
 30
0.0
 11
8.6329999999999991
 21
4.145999999999999
 31
0.0
  0
LINE
  5
8BC
  8
PEN1
 10
8.6329999999999991
 20
4.145999999999999
 30
0.0
 11
8.6180000000000003
 21
4.1609999999999996
 31
0.0
  0
LINE
  5
8BD
  8
PEN1
 10
8.6180000000000003
 20
4.1609999999999996
 30
0.0
 11
8.6010000000000009
 21
4.1600000000000001
 31
0.0
  0
LINE
  5
8BE
  8
PEN1
 10
8.6010000000000009
 20
4.1600000000000001
 30
0.0
 11
8.6059999999999999
 21
4.1449999999999987
 31
0.0
  0
LINE
  5
8BF
  8
PEN1
 10
8.6059999999999999
 20
4.1449999999999987
 30
0.0
 11
8.6180000000000003
 21
4.1339999999999986
 31
0.0
  0
LINE
  5
8C0
  8
PEN1
 10
8.6180000000000003
 20
4.1339999999999986
 30
0.0
 11
8.6010000000000009
 21
4.125
 31
0.0
  0
LINE
  5
8C1
  8
PEN1
 10
8.6010000000000009
 20
4.125
 30
0.0
 11
8.5549999999999997
 21
4.1580000000000004
 31
0.0
  0
LINE
  5
8C2
  8
PEN1
 10
8.5549999999999997
 20
4.1580000000000004
 30
0.0
 11
8.5370000000000008
 21
4.173
 31
0.0
  0
LINE
  5
8C3
  8
PEN1
 10
8.5370000000000008
 20
4.173
 30
0.0
 11
8.548
 21
4.1520000000000001
 31
0.0
  0
LINE
  5
8C4
  8
PEN1
 10
8.548
 20
4.1520000000000001
 30
0.0
 11
8.5929999999999982
 21
4.1189999999999989
 31
0.0
  0
LINE
  5
8C5
  8
PEN1
 10
8.5929999999999982
 20
4.1189999999999989
 30
0.0
 11
8.6120000000000001
 21
4.1169999999999991
 31
0.0
  0
LINE
  5
8C6
  8
PEN1
 10
8.6120000000000001
 20
4.1169999999999991
 30
0.0
 11
8.6319999999999997
 21
4.1089999999999991
 31
0.0
  0
LINE
  5
8C7
  8
PEN1
 10
8.6319999999999997
 20
4.1089999999999991
 30
0.0
 11
8.6300000000000008
 21
4.0969999999999986
 31
0.0
  0
LINE
  5
8C8
  8
PEN1
 10
8.6300000000000008
 20
4.0969999999999986
 30
0.0
 11
8.6420000000000012
 21
4.0969999999999986
 31
0.0
  0
LINE
  5
8C9
  8
PEN1
 10
8.6420000000000012
 20
4.0969999999999986
 30
0.0
 11
8.6449999999999996
 21
4.0869999999999989
 31
0.0
  0
LINE
  5
8CA
  8
PEN1
 10
8.6449999999999996
 20
4.0869999999999989
 30
0.0
 11
8.6259999999999994
 21
4.0720000000000001
 31
0.0
  0
LINE
  5
8CB
  8
PEN1
 10
8.6259999999999994
 20
4.0720000000000001
 30
0.0
 11
8.5910000000000011
 21
4.0869999999999989
 31
0.0
  0
LINE
  5
8CC
  8
PEN1
 10
8.5910000000000011
 20
4.0869999999999989
 30
0.0
 11
8.5830000000000002
 21
4.1040000000000001
 31
0.0
  0
LINE
  5
8CD
  8
PEN1
 10
8.5830000000000002
 20
4.1040000000000001
 30
0.0
 11
8.5389999999999997
 21
4.1089999999999991
 31
0.0
  0
LINE
  5
8CE
  8
PEN1
 10
8.5389999999999997
 20
4.1089999999999991
 30
0.0
 11
8.5310000000000006
 21
4.1230000000000002
 31
0.0
  0
LINE
  5
8CF
  8
PEN1
 10
8.5310000000000006
 20
4.1230000000000002
 30
0.0
 11
8.516
 21
4.1050000000000004
 31
0.0
  0
LINE
  5
8D0
  8
PEN1
 10
8.516
 20
4.1050000000000004
 30
0.0
 11
8.5739999999999998
 21
4.0910000000000002
 31
0.0
  0
LINE
  5
8D1
  8
PEN1
 10
8.5739999999999998
 20
4.0910000000000002
 30
0.0
 11
8.5779999999999994
 21
4.0750000000000002
 31
0.0
  0
LINE
  5
8D2
  8
PEN1
 10
8.5779999999999994
 20
4.0750000000000002
 30
0.0
 11
8.6280000000000001
 21
4.0519999999999987
 31
0.0
  0
LINE
  5
8D3
  8
PEN1
 10
8.6280000000000001
 20
4.0519999999999987
 30
0.0
 11
8.6429999999999971
 21
4.0519999999999987
 31
0.0
  0
LINE
  5
8D4
  8
PEN1
 10
8.6429999999999971
 20
4.0519999999999987
 30
0.0
 11
8.6470000000000002
 21
4.0700000000000003
 31
0.0
  0
LINE
  5
8D5
  8
PEN1
 10
8.6470000000000002
 20
4.0700000000000003
 30
0.0
 11
8.6660000000000004
 21
4.0650000000000004
 31
0.0
  0
LINE
  5
8D6
  8
PEN1
 10
8.6660000000000004
 20
4.0650000000000004
 30
0.0
 11
8.6989999999999998
 21
4.0679999999999996
 31
0.0
  0
LINE
  5
8D7
  8
PEN1
 10
8.6989999999999998
 20
4.0679999999999996
 30
0.0
 11
8.7370000000000001
 21
3.9980000000000002
 31
0.0
  0
LINE
  5
8D8
  8
PEN1
 10
8.7370000000000001
 20
3.9980000000000002
 30
0.0
 11
8.7119999999999997
 21
4.0089999999999986
 31
0.0
  0
LINE
  5
8D9
  8
PEN1
 10
8.7119999999999997
 20
4.0089999999999986
 30
0.0
 11
8.7059999999999995
 21
3.988999999999999
 31
0.0
  0
LINE
  5
8DA
  8
PEN1
 10
8.7059999999999995
 20
3.988999999999999
 30
0.0
 11
8.1820000000000004
 21
3.887
 31
0.0
  0
LINE
  5
8DB
  8
PEN1
 10
8.1820000000000004
 20
3.887
 30
0.0
 11
7.75
 21
3.831
 31
0.0
  0
LINE
  5
8DC
  8
PEN1
 10
7.75
 20
3.831
 30
0.0
 11
7.407
 21
3.7850000000000001
 31
0.0
  0
LINE
  5
8DD
  8
PEN1
 10
8.6799999999999997
 20
4.2089999999999987
 30
0.0
 11
8.6799999999999997
 21
4.2089999999999987
 31
0.0
  0
LINE
  5
8DE
  8
PEN1
 10
8.6799999999999997
 20
4.2089999999999987
 30
0.0
 11
8.6790000000000003
 21
4.1429999999999989
 31
0.0
  0
LINE
  5
8DF
  8
PEN1
 10
8.6790000000000003
 20
4.1429999999999989
 30
0.0
 11
8.6950000000000003
 21
4.1159999999999997
 31
0.0
  0
LINE
  5
8E0
  8
PEN1
 10
8.6950000000000003
 20
4.1159999999999997
 30
0.0
 11
8.7070000000000007
 21
4.1950000000000003
 31
0.0
  0
LINE
  5
8E1
  8
PEN1
 10
8.7070000000000007
 20
4.1950000000000003
 30
0.0
 11
8.7320000000000011
 21
4.2279999999999989
 31
0.0
  0
LINE
  5
8E2
  8
PEN1
 10
8.7320000000000011
 20
4.2279999999999989
 30
0.0
 11
8.7530000000000001
 21
4.3300000000000001
 31
0.0
  0
LINE
  5
8E3
  8
PEN1
 10
8.7530000000000001
 20
4.3300000000000001
 30
0.0
 11
8.7100000000000009
 21
4.3069999999999986
 31
0.0
  0
LINE
  5
8E4
  8
PEN1
 10
8.7100000000000009
 20
4.3069999999999986
 30
0.0
 11
8.6799999999999997
 21
4.2089999999999987
 31
0.0
  0
LINE
  5
8E5
  8
PEN1
 10
1.149999999999999
 20
6.7679999999999989
 30
0.0
 11
1.149999999999999
 21
6.7679999999999989
 31
0.0
  0
LINE
  5
8E6
  8
PEN1
 10
1.149999999999999
 20
6.7679999999999989
 30
0.0
 11
1.167
 21
6.7300000000000004
 31
0.0
  0
LINE
  5
8E7
  8
PEN1
 10
1.167
 20
6.7300000000000004
 30
0.0
 11
1.1639999999999999
 21
6.6820000000000004
 31
0.0
  0
LINE
  5
8E8
  8
PEN1
 10
1.1639999999999999
 20
6.6820000000000004
 30
0.0
 11
1.159
 21
6.6369999999999996
 31
0.0
  0
LINE
  5
8E9
  8
PEN1
 10
1.159
 20
6.6369999999999996
 30
0.0
 11
1.165999999999999
 21
6.6179999999999994
 31
0.0
  0
LINE
  5
8EA
  8
PEN1
 10
1.165999999999999
 20
6.6179999999999994
 30
0.0
 11
1.157
 21
6.5549999999999988
 31
0.0
  0
LINE
  5
8EB
  8
PEN1
 10
1.157
 20
6.5549999999999988
 30
0.0
 11
1.177
 21
6.5679999999999987
 31
0.0
  0
LINE
  5
8EC
  8
PEN1
 10
1.177
 20
6.5679999999999987
 30
0.0
 11
1.2039999999999991
 21
6.5429999999999993
 31
0.0
  0
LINE
  5
8ED
  8
PEN1
 10
1.2039999999999991
 20
6.5429999999999993
 30
0.0
 11
1.173
 21
6.5389999999999988
 31
0.0
  0
LINE
  5
8EE
  8
PEN1
 10
1.173
 20
6.5389999999999988
 30
0.0
 11
1.155
 21
6.5419999999999998
 31
0.0
  0
LINE
  5
8EF
  8
PEN1
 10
1.155
 20
6.5419999999999998
 30
0.0
 11
1.1519999999999999
 21
6.516
 31
0.0
  0
LINE
  5
8F0
  8
PEN1
 10
1.1519999999999999
 20
6.516
 30
0.0
 11
1.149999999999999
 21
6.5
 31
0.0
  0
LINE
  5
8F1
  8
PEN1
 10
1.149999999999999
 20
6.5
 30
0.0
 11
1.177999999999999
 21
6.5
 31
0.0
  0
LINE
  5
8F2
  8
PEN1
 10
1.177999999999999
 20
6.5
 30
0.0
 11
1.1819999999999991
 21
6.4879999999999987
 31
0.0
  0
LINE
  5
8F3
  8
PEN1
 10
1.1819999999999991
 20
6.4879999999999987
 30
0.0
 11
1.159
 21
6.4779999999999989
 31
0.0
  0
LINE
  5
8F4
  8
PEN1
 10
1.159
 20
6.4779999999999989
 30
0.0
 11
1.1639999999999999
 21
6.4529999999999994
 31
0.0
  0
LINE
  5
8F5
  8
PEN1
 10
1.1639999999999999
 20
6.4529999999999994
 30
0.0
 11
1.147999999999999
 21
6.4249999999999989
 31
0.0
  0
LINE
  5
8F6
  8
PEN1
 10
1.147999999999999
 20
6.4249999999999989
 30
0.0
 11
1.137999999999999
 21
6.4260000000000002
 31
0.0
  0
LINE
  5
8F7
  8
PEN1
 10
1.137999999999999
 20
6.4260000000000002
 30
0.0
 11
1.149
 21
6.4679999999999991
 31
0.0
  0
LINE
  5
8F8
  8
PEN1
 10
1.149
 20
6.4679999999999991
 30
0.0
 11
1.143
 21
6.4800000000000004
 31
0.0
  0
LINE
  5
8F9
  8
PEN1
 10
1.143
 20
6.4800000000000004
 30
0.0
 11
1.1240000000000001
 21
6.4169999999999998
 31
0.0
  0
LINE
  5
8FA
  8
PEN1
 10
1.1240000000000001
 20
6.4169999999999998
 30
0.0
 11
1.155
 21
6.395999999999999
 31
0.0
  0
LINE
  5
8FB
  8
PEN1
 10
1.155
 20
6.395999999999999
 30
0.0
 11
1.2050000000000001
 21
6.3729999999999993
 31
0.0
  0
LINE
  5
8FC
  8
PEN1
 10
1.2050000000000001
 20
6.3729999999999993
 30
0.0
 11
1.2090000000000001
 21
6.3520000000000003
 31
0.0
  0
LINE
  5
8FD
  8
PEN1
 10
1.2090000000000001
 20
6.3520000000000003
 30
0.0
 11
1.230999999999999
 21
6.3490000000000002
 31
0.0
  0
LINE
  5
8FE
  8
PEN1
 10
1.230999999999999
 20
6.3490000000000002
 30
0.0
 11
1.274
 21
6.2649999999999988
 31
0.0
  0
LINE
  5
8FF
  8
PEN1
 10
1.274
 20
6.2649999999999988
 30
0.0
 11
1.2669999999999999
 21
6.2370000000000001
 31
0.0
  0
LINE
  5
900
  8
PEN1
 10
1.2669999999999999
 20
6.2370000000000001
 30
0.0
 11
1.3340000000000001
 21
6.1799999999999988
 31
0.0
  0
LINE
  5
901
  8
PEN1
 10
1.3340000000000001
 20
6.1799999999999988
 30
0.0
 11
1.450999999999999
 21
6.1840000000000002
 31
0.0
  0
LINE
  5
902
  8
PEN1
 10
1.450999999999999
 20
6.1840000000000002
 30
0.0
 11
1.538
 21
6.1449999999999987
 31
0.0
  0
LINE
  5
903
  8
PEN1
 10
1.538
 20
6.1449999999999987
 30
0.0
 11
1.5800000000000001
 21
6.1529999999999987
 31
0.0
  0
LINE
  5
904
  8
PEN1
 10
1.5800000000000001
 20
6.1529999999999987
 30
0.0
 11
1.843
 21
6.1449999999999987
 31
0.0
  0
LINE
  5
905
  8
PEN1
 10
1.843
 20
6.1449999999999987
 30
0.0
 11
2.1429999999999998
 21
6.073999999999999
 31
0.0
  0
LINE
  5
906
  8
PEN1
 10
2.1429999999999998
 20
6.073999999999999
 30
0.0
 11
2.149
 21
6.1660000000000004
 31
0.0
  0
LINE
  5
907
  8
PEN1
 10
2.149
 20
6.1660000000000004
 30
0.0
 11
2.274
 21
6.7050000000000001
 31
0.0
  0
LINE
  5
908
  8
PEN1
 10
2.274
 20
6.7050000000000001
 30
0.0
 11
1.478
 21
6.9129999999999994
 31
0.0
  0
LINE
  5
909
  8
PEN1
 10
1.478
 20
6.9129999999999994
 30
0.0
 11
1.4690000000000001
 21
6.9089999999999989
 31
0.0
  0
LINE
  5
90A
  8
PEN1
 10
1.4690000000000001
 20
6.9089999999999989
 30
0.0
 11
1.474
 21
6.8970000000000002
 31
0.0
  0
LINE
  5
90B
  8
PEN1
 10
1.474
 20
6.8970000000000002
 30
0.0
 11
1.466
 21
6.8920000000000003
 31
0.0
  0
LINE
  5
90C
  8
PEN1
 10
1.466
 20
6.8920000000000003
 30
0.0
 11
1.474
 21
6.8810000000000002
 31
0.0
  0
LINE
  5
90D
  8
PEN1
 10
1.474
 20
6.8810000000000002
 30
0.0
 11
1.470999999999999
 21
6.8689999999999989
 31
0.0
  0
LINE
  5
90E
  8
PEN1
 10
1.470999999999999
 20
6.8689999999999989
 30
0.0
 11
1.474
 21
6.8550000000000004
 31
0.0
  0
LINE
  5
90F
  8
PEN1
 10
1.474
 20
6.8550000000000004
 30
0.0
 11
1.4859999999999991
 21
6.8600000000000003
 31
0.0
  0
LINE
  5
910
  8
PEN1
 10
1.4859999999999991
 20
6.8600000000000003
 30
0.0
 11
1.4990000000000001
 21
6.8529999999999989
 31
0.0
  0
LINE
  5
911
  8
PEN1
 10
1.4990000000000001
 20
6.8529999999999989
 30
0.0
 11
1.4930000000000001
 21
6.8300000000000001
 31
0.0
  0
LINE
  5
912
  8
PEN1
 10
1.4930000000000001
 20
6.8300000000000001
 30
0.0
 11
1.496999999999999
 21
6.8189999999999991
 31
0.0
  0
LINE
  5
913
  8
PEN1
 10
1.496999999999999
 20
6.8189999999999991
 30
0.0
 11
1.482
 21
6.7889999999999988
 31
0.0
  0
LINE
  5
914
  8
PEN1
 10
1.482
 20
6.7889999999999988
 30
0.0
 11
1.4630000000000001
 21
6.8079999999999989
 31
0.0
  0
LINE
  5
915
  8
PEN1
 10
1.4630000000000001
 20
6.8079999999999989
 30
0.0
 11
1.4559999999999991
 21
6.8049999999999988
 31
0.0
  0
LINE
  5
916
  8
PEN1
 10
1.4559999999999991
 20
6.8049999999999988
 30
0.0
 11
1.4559999999999991
 21
6.7910000000000004
 31
0.0
  0
LINE
  5
917
  8
PEN1
 10
1.4559999999999991
 20
6.7910000000000004
 30
0.0
 11
1.4699999999999991
 21
6.7879999999999994
 31
0.0
  0
LINE
  5
918
  8
PEN1
 10
1.4699999999999991
 20
6.7879999999999994
 30
0.0
 11
1.486999999999999
 21
6.7539999999999987
 31
0.0
  0
LINE
  5
919
  8
PEN1
 10
1.486999999999999
 20
6.7539999999999987
 30
0.0
 11
1.4790000000000001
 21
6.7110000000000003
 31
0.0
  0
LINE
  5
91A
  8
PEN1
 10
1.4790000000000001
 20
6.7110000000000003
 30
0.0
 11
1.4859999999999991
 21
6.6959999999999997
 31
0.0
  0
LINE
  5
91B
  8
PEN1
 10
1.4859999999999991
 20
6.6959999999999997
 30
0.0
 11
1.4959999999999991
 21
6.6929999999999987
 31
0.0
  0
LINE
  5
91C
  8
PEN1
 10
1.4959999999999991
 20
6.6929999999999987
 30
0.0
 11
1.49
 21
6.6849999999999987
 31
0.0
  0
LINE
  5
91D
  8
PEN1
 10
1.49
 20
6.6849999999999987
 30
0.0
 11
1.4790000000000001
 21
6.681
 31
0.0
  0
LINE
  5
91E
  8
PEN1
 10
1.4790000000000001
 20
6.681
 30
0.0
 11
1.4559999999999991
 21
6.6529999999999987
 31
0.0
  0
LINE
  5
91F
  8
PEN1
 10
1.4559999999999991
 20
6.6529999999999987
 30
0.0
 11
1.4559999999999991
 21
6.6440000000000001
 31
0.0
  0
LINE
  5
920
  8
PEN1
 10
1.4559999999999991
 20
6.6440000000000001
 30
0.0
 11
1.45
 21
6.6269999999999998
 31
0.0
  0
LINE
  5
921
  8
PEN1
 10
1.45
 20
6.6269999999999998
 30
0.0
 11
1.4439999999999991
 21
6.625
 31
0.0
  0
LINE
  5
922
  8
PEN1
 10
1.4439999999999991
 20
6.625
 30
0.0
 11
1.450999999999999
 21
6.6109999999999998
 31
0.0
  0
LINE
  5
923
  8
PEN1
 10
1.450999999999999
 20
6.6109999999999998
 30
0.0
 11
1.4409999999999989
 21
6.6079999999999988
 31
0.0
  0
LINE
  5
924
  8
PEN1
 10
1.4409999999999989
 20
6.6079999999999988
 30
0.0
 11
1.4399999999999991
 21
6.5590000000000002
 31
0.0
  0
LINE
  5
925
  8
PEN1
 10
1.4399999999999991
 20
6.5590000000000002
 30
0.0
 11
1.421
 21
6.552999999999999
 31
0.0
  0
LINE
  5
926
  8
PEN1
 10
1.421
 20
6.552999999999999
 30
0.0
 11
1.421
 21
6.5389999999999988
 31
0.0
  0
LINE
  5
927
  8
PEN1
 10
1.421
 20
6.5389999999999988
 30
0.0
 11
1.4069999999999989
 21
6.556
 31
0.0
  0
LINE
  5
928
  8
PEN1
 10
1.4069999999999989
 20
6.556
 30
0.0
 11
1.405
 21
6.5469999999999997
 31
0.0
  0
LINE
  5
929
  8
PEN1
 10
1.405
 20
6.5469999999999997
 30
0.0
 11
1.373
 21
6.5179999999999989
 31
0.0
  0
LINE
  5
92A
  8
PEN1
 10
1.373
 20
6.5179999999999989
 30
0.0
 11
1.361999999999999
 21
6.5220000000000002
 31
0.0
  0
LINE
  5
92B
  8
PEN1
 10
1.361999999999999
 20
6.5220000000000002
 30
0.0
 11
1.355999999999999
 21
6.5359999999999996
 31
0.0
  0
LINE
  5
92C
  8
PEN1
 10
1.355999999999999
 20
6.5359999999999996
 30
0.0
 11
1.351999999999999
 21
6.5270000000000001
 31
0.0
  0
LINE
  5
92D
  8
PEN1
 10
1.351999999999999
 20
6.5270000000000001
 30
0.0
 11
1.3449999999999991
 21
6.5339999999999989
 31
0.0
  0
LINE
  5
92E
  8
PEN1
 10
1.3449999999999991
 20
6.5339999999999989
 30
0.0
 11
1.3389999999999991
 21
6.512999999999999
 31
0.0
  0
LINE
  5
92F
  8
PEN1
 10
1.3389999999999991
 20
6.512999999999999
 30
0.0
 11
1.3349999999999991
 21
6.5149999999999988
 31
0.0
  0
LINE
  5
930
  8
PEN1
 10
1.3349999999999991
 20
6.5149999999999988
 30
0.0
 11
1.3369999999999991
 21
6.5300000000000002
 31
0.0
  0
LINE
  5
931
  8
PEN1
 10
1.3369999999999991
 20
6.5300000000000002
 30
0.0
 11
1.325999999999999
 21
6.5279999999999987
 31
0.0
  0
LINE
  5
932
  8
PEN1
 10
1.325999999999999
 20
6.5279999999999987
 30
0.0
 11
1.3389999999999991
 21
6.5410000000000004
 31
0.0
  0
LINE
  5
933
  8
PEN1
 10
1.3389999999999991
 20
6.5410000000000004
 30
0.0
 11
1.321999999999999
 21
6.5419999999999998
 31
0.0
  0
LINE
  5
934
  8
PEN1
 10
1.321999999999999
 20
6.5419999999999998
 30
0.0
 11
1.3349999999999991
 21
6.5499999999999989
 31
0.0
  0
LINE
  5
935
  8
PEN1
 10
1.3349999999999991
 20
6.5499999999999989
 30
0.0
 11
1.3200000000000001
 21
6.5539999999999994
 31
0.0
  0
LINE
  5
936
  8
PEN1
 10
1.3200000000000001
 20
6.5539999999999994
 30
0.0
 11
1.3269999999999991
 21
6.5640000000000001
 31
0.0
  0
LINE
  5
937
  8
PEN1
 10
1.3269999999999991
 20
6.5640000000000001
 30
0.0
 11
1.3409999999999991
 21
6.5539999999999994
 31
0.0
  0
LINE
  5
938
  8
PEN1
 10
1.3409999999999991
 20
6.5539999999999994
 30
0.0
 11
1.3489999999999991
 21
6.5679999999999987
 31
0.0
  0
LINE
  5
939
  8
PEN1
 10
1.3489999999999991
 20
6.5679999999999987
 30
0.0
 11
1.373
 21
6.5810000000000004
 31
0.0
  0
LINE
  5
93A
  8
PEN1
 10
1.373
 20
6.5810000000000004
 30
0.0
 11
1.3609999999999991
 21
6.5519999999999996
 31
0.0
  0
LINE
  5
93B
  8
PEN1
 10
1.3609999999999991
 20
6.5519999999999996
 30
0.0
 11
1.365999999999999
 21
6.5379999999999994
 31
0.0
  0
LINE
  5
93C
  8
PEN1
 10
1.365999999999999
 20
6.5379999999999994
 30
0.0
 11
1.375
 21
6.5650000000000004
 31
0.0
  0
LINE
  5
93D
  8
PEN1
 10
1.375
 20
6.5650000000000004
 30
0.0
 11
1.3969999999999989
 21
6.5759999999999996
 31
0.0
  0
LINE
  5
93E
  8
PEN1
 10
1.3969999999999989
 20
6.5759999999999996
 30
0.0
 11
1.385999999999999
 21
6.5579999999999989
 31
0.0
  0
LINE
  5
93F
  8
PEN1
 10
1.385999999999999
 20
6.5579999999999989
 30
0.0
 11
1.3979999999999999
 21
6.5479999999999992
 31
0.0
  0
LINE
  5
940
  8
PEN1
 10
1.3979999999999999
 20
6.5479999999999992
 30
0.0
 11
1.3979999999999999
 21
6.5629999999999988
 31
0.0
  0
LINE
  5
941
  8
PEN1
 10
1.3979999999999999
 20
6.5629999999999988
 30
0.0
 11
1.409999999999999
 21
6.5750000000000002
 31
0.0
  0
LINE
  5
942
  8
PEN1
 10
1.409999999999999
 20
6.5750000000000002
 30
0.0
 11
1.421999999999999
 21
6.5949999999999989
 31
0.0
  0
LINE
  5
943
  8
PEN1
 10
1.421999999999999
 20
6.5949999999999989
 30
0.0
 11
1.419
 21
6.6100000000000003
 31
0.0
  0
LINE
  5
944
  8
PEN1
 10
1.419
 20
6.6100000000000003
 30
0.0
 11
1.3979999999999999
 21
6.6089999999999991
 31
0.0
  0
LINE
  5
945
  8
PEN1
 10
1.3979999999999999
 20
6.6089999999999991
 30
0.0
 11
1.401999999999999
 21
6.6279999999999992
 31
0.0
  0
LINE
  5
946
  8
PEN1
 10
1.401999999999999
 20
6.6279999999999992
 30
0.0
 11
1.413
 21
6.617
 31
0.0
  0
LINE
  5
947
  8
PEN1
 10
1.413
 20
6.617
 30
0.0
 11
1.4139999999999999
 21
6.6479999999999988
 31
0.0
  0
LINE
  5
948
  8
PEN1
 10
1.4139999999999999
 20
6.6479999999999988
 30
0.0
 11
1.4409999999999989
 21
6.645999999999999
 31
0.0
  0
LINE
  5
949
  8
PEN1
 10
1.4409999999999989
 20
6.645999999999999
 30
0.0
 11
1.4430000000000001
 21
6.6760000000000002
 31
0.0
  0
LINE
  5
94A
  8
PEN1
 10
1.4430000000000001
 20
6.6760000000000002
 30
0.0
 11
1.4330000000000001
 21
6.6909999999999989
 31
0.0
  0
LINE
  5
94B
  8
PEN1
 10
1.4330000000000001
 20
6.6909999999999989
 30
0.0
 11
1.4319999999999991
 21
6.6639999999999988
 31
0.0
  0
LINE
  5
94C
  8
PEN1
 10
1.4319999999999991
 20
6.6639999999999988
 30
0.0
 11
1.425
 21
6.669999999999999
 31
0.0
  0
LINE
  5
94D
  8
PEN1
 10
1.425
 20
6.669999999999999
 30
0.0
 11
1.4069999999999989
 21
6.6559999999999997
 31
0.0
  0
LINE
  5
94E
  8
PEN1
 10
1.4069999999999989
 20
6.6559999999999997
 30
0.0
 11
1.395
 21
6.6389999999999993
 31
0.0
  0
LINE
  5
94F
  8
PEN1
 10
1.395
 20
6.6389999999999993
 30
0.0
 11
1.379999999999999
 21
6.637999999999999
 31
0.0
  0
LINE
  5
950
  8
PEN1
 10
1.379999999999999
 20
6.637999999999999
 30
0.0
 11
1.351999999999999
 21
6.6200000000000001
 31
0.0
  0
LINE
  5
951
  8
PEN1
 10
1.351999999999999
 20
6.6200000000000001
 30
0.0
 11
1.3309999999999991
 21
6.5949999999999989
 31
0.0
  0
LINE
  5
952
  8
PEN1
 10
1.3309999999999991
 20
6.5949999999999989
 30
0.0
 11
1.3689999999999991
 21
6.5939999999999994
 31
0.0
  0
LINE
  5
953
  8
PEN1
 10
1.3689999999999991
 20
6.5939999999999994
 30
0.0
 11
1.335999999999999
 21
6.5860000000000003
 31
0.0
  0
LINE
  5
954
  8
PEN1
 10
1.335999999999999
 20
6.5860000000000003
 30
0.0
 11
1.3200000000000001
 21
6.5919999999999996
 31
0.0
  0
LINE
  5
955
  8
PEN1
 10
1.3200000000000001
 20
6.5919999999999996
 30
0.0
 11
1.351999999999999
 21
6.637999999999999
 31
0.0
  0
LINE
  5
956
  8
PEN1
 10
1.351999999999999
 20
6.637999999999999
 30
0.0
 11
1.375
 21
6.649
 31
0.0
  0
LINE
  5
957
  8
PEN1
 10
1.375
 20
6.649
 30
0.0
 11
1.399
 21
6.677999999999999
 31
0.0
  0
LINE
  5
958
  8
PEN1
 10
1.399
 20
6.677999999999999
 30
0.0
 11
1.4039999999999999
 21
6.6619999999999999
 31
0.0
  0
LINE
  5
959
  8
PEN1
 10
1.4039999999999999
 20
6.6619999999999999
 30
0.0
 11
1.4179999999999999
 21
6.6760000000000002
 31
0.0
  0
LINE
  5
95A
  8
PEN1
 10
1.4179999999999999
 20
6.6760000000000002
 30
0.0
 11
1.4319999999999991
 21
6.7069999999999999
 31
0.0
  0
LINE
  5
95B
  8
PEN1
 10
1.4319999999999991
 20
6.7069999999999999
 30
0.0
 11
1.4279999999999999
 21
6.7279999999999989
 31
0.0
  0
LINE
  5
95C
  8
PEN1
 10
1.4279999999999999
 20
6.7279999999999989
 30
0.0
 11
1.423
 21
6.7119999999999997
 31
0.0
  0
LINE
  5
95D
  8
PEN1
 10
1.423
 20
6.7119999999999997
 30
0.0
 11
1.415
 21
6.7139999999999986
 31
0.0
  0
LINE
  5
95E
  8
PEN1
 10
1.415
 20
6.7139999999999986
 30
0.0
 11
1.421999999999999
 21
6.7370000000000001
 31
0.0
  0
LINE
  5
95F
  8
PEN1
 10
1.421999999999999
 20
6.7370000000000001
 30
0.0
 11
1.411999999999999
 21
6.7370000000000001
 31
0.0
  0
LINE
  5
960
  8
PEN1
 10
1.411999999999999
 20
6.7370000000000001
 30
0.0
 11
1.409999999999999
 21
6.7169999999999996
 31
0.0
  0
LINE
  5
961
  8
PEN1
 10
1.409999999999999
 20
6.7169999999999996
 30
0.0
 11
1.399999999999999
 21
6.7110000000000003
 31
0.0
  0
LINE
  5
962
  8
PEN1
 10
1.399999999999999
 20
6.7110000000000003
 30
0.0
 11
1.399
 21
6.7320000000000002
 31
0.0
  0
LINE
  5
963
  8
PEN1
 10
1.399
 20
6.7320000000000002
 30
0.0
 11
1.391
 21
6.7370000000000001
 31
0.0
  0
LINE
  5
964
  8
PEN1
 10
1.391
 20
6.7370000000000001
 30
0.0
 11
1.3839999999999999
 21
6.7270000000000003
 31
0.0
  0
LINE
  5
965
  8
PEN1
 10
1.3839999999999999
 20
6.7270000000000003
 30
0.0
 11
1.3709999999999991
 21
6.7560000000000002
 31
0.0
  0
LINE
  5
966
  8
PEN1
 10
1.3709999999999991
 20
6.7560000000000002
 30
0.0
 11
1.3440000000000001
 21
6.7569999999999997
 31
0.0
  0
LINE
  5
967
  8
PEN1
 10
1.3440000000000001
 20
6.7569999999999997
 30
0.0
 11
1.242999999999999
 21
6.8079999999999989
 31
0.0
  0
LINE
  5
968
  8
PEN1
 10
1.242999999999999
 20
6.8079999999999989
 30
0.0
 11
1.171999999999999
 21
6.8719999999999999
 31
0.0
  0
LINE
  5
969
  8
PEN1
 10
1.171999999999999
 20
6.8719999999999999
 30
0.0
 11
1.151
 21
6.8259999999999996
 31
0.0
  0
LINE
  5
96A
  8
PEN1
 10
1.151
 20
6.8259999999999996
 30
0.0
 11
1.149999999999999
 21
6.7679999999999989
 31
0.0
  0
LINE
  5
96B
  8
PEN1
 10
1.3939999999999999
 20
6.8360000000000003
 30
0.0
 11
1.3939999999999999
 21
6.8360000000000003
 31
0.0
  0
LINE
  5
96C
  8
PEN1
 10
1.3939999999999999
 20
6.8360000000000003
 30
0.0
 11
1.4369999999999989
 21
6.863999999999999
 31
0.0
  0
LINE
  5
96D
  8
PEN1
 10
1.4369999999999989
 20
6.863999999999999
 30
0.0
 11
1.446999999999999
 21
6.8369999999999997
 31
0.0
  0
LINE
  5
96E
  8
PEN1
 10
1.446999999999999
 20
6.8369999999999997
 30
0.0
 11
1.4379999999999999
 21
6.8010000000000002
 31
0.0
  0
LINE
  5
96F
  8
PEN1
 10
1.4379999999999999
 20
6.8010000000000002
 30
0.0
 11
1.3939999999999999
 21
6.8360000000000003
 31
0.0
  0
LINE
  5
970
  8
PEN1
 10
1.429999999999999
 20
6.7579999999999991
 30
0.0
 11
1.429999999999999
 21
6.7579999999999991
 31
0.0
  0
LINE
  5
971
  8
PEN1
 10
1.429999999999999
 20
6.7579999999999991
 30
0.0
 11
1.4530000000000001
 21
6.7829999999999986
 31
0.0
  0
LINE
  5
972
  8
PEN1
 10
1.4530000000000001
 20
6.7829999999999986
 30
0.0
 11
1.468
 21
6.7679999999999989
 31
0.0
  0
LINE
  5
973
  8
PEN1
 10
1.468
 20
6.7679999999999989
 30
0.0
 11
1.458
 21
6.6929999999999987
 31
0.0
  0
LINE
  5
974
  8
PEN1
 10
1.458
 20
6.6929999999999987
 30
0.0
 11
1.429999999999999
 21
6.7579999999999991
 31
0.0
  0
LINE
  5
975
  8
PEN1
 10
7.5369999999999999
 20
4.2060000000000004
 30
0.0
 11
7.5369999999999999
 21
4.2060000000000004
 31
0.0
  0
LINE
  5
976
  8
PEN1
 10
7.5369999999999999
 20
4.2060000000000004
 30
0.0
 11
7.5670000000000002
 21
4.1009999999999991
 31
0.0
  0
LINE
  5
977
  8
PEN1
 10
7.5670000000000002
 20
4.1009999999999991
 30
0.0
 11
7.6009999999999991
 21
4.0640000000000001
 31
0.0
  0
LINE
  5
978
  8
PEN1
 10
7.6009999999999991
 20
4.0640000000000001
 30
0.0
 11
7.6660000000000004
 21
4.0270000000000001
 31
0.0
  0
LINE
  5
979
  8
PEN1
 10
7.6660000000000004
 20
4.0270000000000001
 30
0.0
 11
7.7139999999999986
 21
3.968999999999999
 31
0.0
  0
LINE
  5
97A
  8
PEN1
 10
7.7139999999999986
 20
3.968999999999999
 30
0.0
 11
7.7750000000000004
 21
3.9980000000000002
 31
0.0
  0
LINE
  5
97B
  8
PEN1
 10
7.7750000000000004
 20
3.9980000000000002
 30
0.0
 11
7.7999999999999989
 21
3.98
 31
0.0
  0
LINE
  5
97C
  8
PEN1
 10
7.7999999999999989
 20
3.98
 30
0.0
 11
7.8369999999999997
 21
3.9980000000000002
 31
0.0
  0
LINE
  5
97D
  8
PEN1
 10
7.8369999999999997
 20
3.9980000000000002
 30
0.0
 11
7.8600000000000003
 21
4.0300000000000002
 31
0.0
  0
LINE
  5
97E
  8
PEN1
 10
7.8600000000000003
 20
4.0300000000000002
 30
0.0
 11
7.9260000000000002
 21
4.0410000000000004
 31
0.0
  0
LINE
  5
97F
  8
PEN1
 10
7.9260000000000002
 20
4.0410000000000004
 30
0.0
 11
7.9610000000000003
 21
4.0880000000000001
 31
0.0
  0
LINE
  5
980
  8
PEN1
 10
7.9610000000000003
 20
4.0880000000000001
 30
0.0
 11
7.9429999999999987
 21
4.1009999999999991
 31
0.0
  0
LINE
  5
981
  8
PEN1
 10
7.9429999999999987
 20
4.1009999999999991
 30
0.0
 11
8.0060000000000002
 21
4.2430000000000003
 31
0.0
  0
LINE
  5
982
  8
PEN1
 10
8.0060000000000002
 20
4.2430000000000003
 30
0.0
 11
8.0199999999999996
 21
4.3159999999999989
 31
0.0
  0
LINE
  5
983
  8
PEN1
 10
8.0199999999999996
 20
4.3159999999999989
 30
0.0
 11
8.0800000000000001
 21
4.286999999999999
 31
0.0
  0
LINE
  5
984
  8
PEN1
 10
8.0800000000000001
 20
4.286999999999999
 30
0.0
 11
8.1089999999999982
 21
4.3700000000000001
 31
0.0
  0
LINE
  5
985
  8
PEN1
 10
8.1089999999999982
 20
4.3700000000000001
 30
0.0
 11
8.141
 21
4.375
 31
0.0
  0
LINE
  5
986
  8
PEN1
 10
8.141
 20
4.375
 30
0.0
 11
8.1859999999999982
 21
4.4550000000000001
 31
0.0
  0
LINE
  5
987
  8
PEN1
 10
8.1859999999999982
 20
4.4550000000000001
 30
0.0
 11
8.1999999999999993
 21
4.54
 31
0.0
  0
LINE
  5
988
  8
PEN1
 10
8.1999999999999993
 20
4.54
 30
0.0
 11
8.2940000000000005
 21
4.4870000000000001
 31
0.0
  0
LINE
  5
989
  8
PEN1
 10
8.2940000000000005
 20
4.4870000000000001
 30
0.0
 11
8.3089999999999993
 21
4.5309999999999997
 31
0.0
  0
LINE
  5
98A
  8
PEN1
 10
8.3089999999999993
 20
4.5309999999999997
 30
0.0
 11
8.2850000000000001
 21
4.5650000000000004
 31
0.0
  0
LINE
  5
98B
  8
PEN1
 10
8.2850000000000001
 20
4.5650000000000004
 30
0.0
 11
8.2430000000000003
 21
4.5839999999999987
 31
0.0
  0
LINE
  5
98C
  8
PEN1
 10
8.2430000000000003
 20
4.5839999999999987
 30
0.0
 11
8.1920000000000002
 21
4.5780000000000003
 31
0.0
  0
LINE
  5
98D
  8
PEN1
 10
8.1920000000000002
 20
4.5780000000000003
 30
0.0
 11
8.1739999999999995
 21
4.5489999999999986
 31
0.0
  0
LINE
  5
98E
  8
PEN1
 10
8.1739999999999995
 20
4.5489999999999986
 30
0.0
 11
8.0809999999999995
 21
4.5229999999999988
 31
0.0
  0
LINE
  5
98F
  8
PEN1
 10
8.0809999999999995
 20
4.5229999999999988
 30
0.0
 11
8.0229999999999997
 21
4.4530000000000003
 31
0.0
  0
LINE
  5
990
  8
PEN1
 10
8.0229999999999997
 20
4.4530000000000003
 30
0.0
 11
8.0030000000000001
 21
4.5640000000000001
 31
0.0
  0
LINE
  5
991
  8
PEN1
 10
8.0030000000000001
 20
4.5640000000000001
 30
0.0
 11
7.8360000000000003
 21
4.5359999999999996
 31
0.0
  0
LINE
  5
992
  8
PEN1
 10
7.8360000000000003
 20
4.5359999999999996
 30
0.0
 11
7.8039999999999994
 21
4.7359999999999998
 31
0.0
  0
LINE
  5
993
  8
PEN1
 10
7.8039999999999994
 20
4.7359999999999998
 30
0.0
 11
7.7800000000000002
 21
4.7189999999999994
 31
0.0
  0
LINE
  5
994
  8
PEN1
 10
7.7800000000000002
 20
4.7189999999999994
 30
0.0
 11
7.7939999999999987
 21
4.6819999999999986
 31
0.0
  0
LINE
  5
995
  8
PEN1
 10
7.7939999999999987
 20
4.6819999999999986
 30
0.0
 11
7.7729999999999988
 21
4.5039999999999987
 31
0.0
  0
LINE
  5
996
  8
PEN1
 10
7.7729999999999988
 20
4.5039999999999987
 30
0.0
 11
7.7429999999999994
 21
4.464999999999999
 31
0.0
  0
LINE
  5
997
  8
PEN1
 10
7.7429999999999994
 20
4.464999999999999
 30
0.0
 11
7.6520000000000001
 21
4.3979999999999988
 31
0.0
  0
LINE
  5
998
  8
PEN1
 10
7.6520000000000001
 20
4.3979999999999988
 30
0.0
 11
7.6349999999999989
 21
4.3220000000000001
 31
0.0
  0
LINE
  5
999
  8
PEN1
 10
7.6349999999999989
 20
4.3220000000000001
 30
0.0
 11
7.6009999999999991
 21
4.3410000000000002
 31
0.0
  0
LINE
  5
99A
  8
PEN1
 10
7.6009999999999991
 20
4.3410000000000002
 30
0.0
 11
7.5910000000000002
 21
4.2519999999999989
 31
0.0
  0
LINE
  5
99B
  8
PEN1
 10
7.5910000000000002
 20
4.2519999999999989
 30
0.0
 11
7.5369999999999999
 21
4.2060000000000004
 31
0.0
  0
LINE
  5
99C
  8
PEN1
 10
5.7560000000000002
 20
5.6360000000000001
 30
0.0
 11
5.7560000000000002
 21
5.6360000000000001
 31
0.0
  0
LINE
  5
99D
  8
PEN1
 10
5.7560000000000002
 20
5.6360000000000001
 30
0.0
 11
5.7800000000000002
 21
5.5620000000000003
 31
0.0
  0
LINE
  5
99E
  8
PEN1
 10
5.7800000000000002
 20
5.5620000000000003
 30
0.0
 11
5.7770000000000001
 21
5.4450000000000003
 31
0.0
  0
LINE
  5
99F
  8
PEN1
 10
5.7770000000000001
 20
5.4450000000000003
 30
0.0
 11
5.8869999999999996
 21
5.3760000000000003
 31
0.0
  0
LINE
  5
9A0
  8
PEN1
 10
5.8869999999999996
 20
5.3760000000000003
 30
0.0
 11
5.931
 21
5.3279999999999994
 31
0.0
  0
LINE
  5
9A1
  8
PEN1
 10
5.931
 20
5.3279999999999994
 30
0.0
 11
5.9939999999999989
 21
5.2869999999999999
 31
0.0
  0
LINE
  5
9A2
  8
PEN1
 10
5.9939999999999989
 20
5.2869999999999999
 30
0.0
 11
6.0190000000000001
 21
5.2579999999999991
 31
0.0
  0
LINE
  5
9A3
  8
PEN1
 10
6.0190000000000001
 20
5.2579999999999991
 30
0.0
 11
6.032
 21
5.181
 31
0.0
  0
LINE
  5
9A4
  8
PEN1
 10
6.032
 20
5.181
 30
0.0
 11
6.0489999999999986
 21
5.0709999999999997
 31
0.0
  0
LINE
  5
9A5
  8
PEN1
 10
6.0489999999999986
 20
5.0709999999999997
 30
0.0
 11
6.1349999999999989
 21
4.9689999999999994
 31
0.0
  0
LINE
  5
9A6
  8
PEN1
 10
6.1349999999999989
 20
4.9689999999999994
 30
0.0
 11
6.5869999999999997
 21
4.9980000000000002
 31
0.0
  0
LINE
  5
9A7
  8
PEN1
 10
6.5869999999999997
 20
4.9980000000000002
 30
0.0
 11
6.5609999999999991
 21
5.1470000000000002
 31
0.0
  0
LINE
  5
9A8
  8
PEN1
 10
6.5609999999999991
 20
5.1470000000000002
 30
0.0
 11
6.577
 21
5.3010000000000002
 31
0.0
  0
LINE
  5
9A9
  8
PEN1
 10
6.577
 20
5.3010000000000002
 30
0.0
 11
6.6029999999999989
 21
5.3689999999999989
 31
0.0
  0
LINE
  5
9AA
  8
PEN1
 10
6.6029999999999989
 20
5.3689999999999989
 30
0.0
 11
6.5999999999999988
 21
5.4320000000000004
 31
0.0
  0
LINE
  5
9AB
  8
PEN1
 10
6.5999999999999988
 20
5.4320000000000004
 30
0.0
 11
6.657
 21
5.5700000000000003
 31
0.0
  0
LINE
  5
9AC
  8
PEN1
 10
6.657
 20
5.5700000000000003
 30
0.0
 11
6.6669999999999998
 21
5.605999999999999
 31
0.0
  0
LINE
  5
9AD
  8
PEN1
 10
6.6669999999999998
 20
5.605999999999999
 30
0.0
 11
6.6500000000000004
 21
5.6120000000000001
 31
0.0
  0
LINE
  5
9AE
  8
PEN1
 10
6.6500000000000004
 20
5.6120000000000001
 30
0.0
 11
6.6269999999999998
 21
5.5839999999999987
 31
0.0
  0
LINE
  5
9AF
  8
PEN1
 10
6.6269999999999998
 20
5.5839999999999987
 30
0.0
 11
6.6089999999999991
 21
5.5119999999999996
 31
0.0
  0
LINE
  5
9B0
  8
PEN1
 10
6.6089999999999991
 20
5.5119999999999996
 30
0.0
 11
6.5720000000000001
 21
5.5060000000000002
 31
0.0
  0
LINE
  5
9B1
  8
PEN1
 10
6.5720000000000001
 20
5.5060000000000002
 30
0.0
 11
6.5549999999999988
 21
5.4639999999999986
 31
0.0
  0
LINE
  5
9B2
  8
PEN1
 10
6.5549999999999988
 20
5.4639999999999986
 30
0.0
 11
6.5170000000000003
 21
5.4340000000000002
 31
0.0
  0
LINE
  5
9B3
  8
PEN1
 10
6.5170000000000003
 20
5.4340000000000002
 30
0.0
 11
6.520999999999999
 21
5.4800000000000004
 31
0.0
  0
LINE
  5
9B4
  8
PEN1
 10
6.520999999999999
 20
5.4800000000000004
 30
0.0
 11
6.544999999999999
 21
5.5279999999999987
 31
0.0
  0
LINE
  5
9B5
  8
PEN1
 10
6.544999999999999
 20
5.5279999999999987
 30
0.0
 11
6.5709999999999997
 21
5.5429999999999993
 31
0.0
  0
LINE
  5
9B6
  8
PEN1
 10
6.5709999999999997
 20
5.5429999999999993
 30
0.0
 11
6.5729999999999986
 21
5.5629999999999988
 31
0.0
  0
LINE
  5
9B7
  8
PEN1
 10
6.5729999999999986
 20
5.5629999999999988
 30
0.0
 11
6.524
 21
5.6950000000000003
 31
0.0
  0
LINE
  5
9B8
  8
PEN1
 10
6.524
 20
5.6950000000000003
 30
0.0
 11
6.4900000000000002
 21
5.7060000000000004
 31
0.0
  0
LINE
  5
9B9
  8
PEN1
 10
6.4900000000000002
 20
5.7060000000000004
 30
0.0
 11
6.4770000000000003
 21
5.7359999999999998
 31
0.0
  0
LINE
  5
9BA
  8
PEN1
 10
6.4770000000000003
 20
5.7359999999999998
 30
0.0
 11
6.3899999999999988
 21
5.7469999999999999
 31
0.0
  0
LINE
  5
9BB
  8
PEN1
 10
6.3899999999999988
 20
5.7469999999999999
 30
0.0
 11
6.2009999999999996
 21
5.7960000000000003
 31
0.0
  0
LINE
  5
9BC
  8
PEN1
 10
6.2009999999999996
 20
5.7960000000000003
 30
0.0
 11
6.1239999999999988
 21
5.8499999999999988
 31
0.0
  0
LINE
  5
9BD
  8
PEN1
 10
6.1239999999999988
 20
5.8499999999999988
 30
0.0
 11
6.0810000000000004
 21
5.8700000000000001
 31
0.0
  0
LINE
  5
9BE
  8
PEN1
 10
6.0810000000000004
 20
5.8700000000000001
 30
0.0
 11
6.0549999999999988
 21
5.8509999999999991
 31
0.0
  0
LINE
  5
9BF
  8
PEN1
 10
6.0549999999999988
 20
5.8509999999999991
 30
0.0
 11
6.0460000000000003
 21
5.8550000000000004
 31
0.0
  0
LINE
  5
9C0
  8
PEN1
 10
6.0460000000000003
 20
5.8550000000000004
 30
0.0
 11
6.0590000000000002
 21
5.8700000000000001
 31
0.0
  0
LINE
  5
9C1
  8
PEN1
 10
6.0590000000000002
 20
5.8700000000000001
 30
0.0
 11
6.0599999999999987
 21
5.8949999999999987
 31
0.0
  0
LINE
  5
9C2
  8
PEN1
 10
6.0599999999999987
 20
5.8949999999999987
 30
0.0
 11
6.0679999999999987
 21
5.9029999999999987
 31
0.0
  0
LINE
  5
9C3
  8
PEN1
 10
6.0679999999999987
 20
5.9029999999999987
 30
0.0
 11
6.0689999999999991
 21
5.9210000000000003
 31
0.0
  0
LINE
  5
9C4
  8
PEN1
 10
6.0689999999999991
 20
5.9210000000000003
 30
0.0
 11
6.0570000000000004
 21
5.927999999999999
 31
0.0
  0
LINE
  5
9C5
  8
PEN1
 10
6.0570000000000004
 20
5.927999999999999
 30
0.0
 11
5.9509999999999996
 21
5.879999999999999
 31
0.0
  0
LINE
  5
9C6
  8
PEN1
 10
5.9509999999999996
 20
5.879999999999999
 30
0.0
 11
5.9119999999999999
 21
5.8650000000000002
 31
0.0
  0
LINE
  5
9C7
  8
PEN1
 10
5.9119999999999999
 20
5.8650000000000002
 30
0.0
 11
5.895999999999999
 21
5.8629999999999987
 31
0.0
  0
LINE
  5
9C8
  8
PEN1
 10
5.895999999999999
 20
5.8629999999999987
 30
0.0
 11
5.8689999999999989
 21
5.8769999999999998
 31
0.0
  0
LINE
  5
9C9
  8
PEN1
 10
5.8689999999999989
 20
5.8769999999999998
 30
0.0
 11
5.863999999999999
 21
5.8650000000000002
 31
0.0
  0
LINE
  5
9CA
  8
PEN1
 10
5.863999999999999
 20
5.8650000000000002
 30
0.0
 11
5.8609999999999998
 21
5.8779999999999992
 31
0.0
  0
LINE
  5
9CB
  8
PEN1
 10
5.8609999999999998
 20
5.8779999999999992
 30
0.0
 11
5.839999999999999
 21
5.8589999999999991
 31
0.0
  0
LINE
  5
9CC
  8
PEN1
 10
5.839999999999999
 20
5.8589999999999991
 30
0.0
 11
5.8449999999999989
 21
5.7489999999999988
 31
0.0
  0
LINE
  5
9CD
  8
PEN1
 10
5.8449999999999989
 20
5.7489999999999988
 30
0.0
 11
5.7560000000000002
 21
5.6360000000000001
 31
0.0
  0
LINE
  5
9CE
  8
PEN1
 10
2.8369999999999989
 20
4.8259999999999996
 30
0.0
 11
2.8369999999999989
 21
4.8259999999999996
 31
0.0
  0
LINE
  5
9CF
  8
PEN1
 10
2.8369999999999989
 20
4.8259999999999996
 30
0.0
 11
2.8730000000000002
 21
5.0419999999999989
 31
0.0
  0
LINE
  5
9D0
  8
PEN1
 10
2.8730000000000002
 20
5.0419999999999989
 30
0.0
 11
2.9609999999999999
 21
5.577
 31
0.0
  0
LINE
  5
9D1
  8
PEN1
 10
2.9609999999999999
 20
5.577
 30
0.0
 11
2.98
 21
5.6849999999999987
 31
0.0
  0
LINE
  5
9D2
  8
PEN1
 10
2.98
 20
5.6849999999999987
 30
0.0
 11
3.4580000000000002
 21
5.613999999999999
 31
0.0
  0
LINE
  5
9D3
  8
PEN1
 10
3.4580000000000002
 20
5.613999999999999
 30
0.0
 11
4.0469999999999988
 21
5.5519999999999996
 31
0.0
  0
LINE
  5
9D4
  8
PEN1
 10
4.0469999999999988
 20
5.5519999999999996
 30
0.0
 11
4.0069999999999988
 21
5.1189999999999989
 31
0.0
  0
LINE
  5
9D5
  8
PEN1
 10
4.0069999999999988
 20
5.1189999999999989
 30
0.0
 11
3.9670000000000001
 21
4.6840000000000002
 31
0.0
  0
LINE
  5
9D6
  8
PEN1
 10
3.9670000000000001
 20
4.6840000000000002
 30
0.0
 11
3.1600000000000001
 21
4.7759999999999989
 31
0.0
  0
LINE
  5
9D7
  8
PEN1
 10
3.1600000000000001
 20
4.7759999999999989
 30
0.0
 11
2.8369999999999989
 21
4.8259999999999996
 31
0.0
  0
LINE
  5
9D8
  8
PEN1
 10
8.8710000000000004
 20
4.3300000000000001
 30
0.0
 11
8.7270000000000003
 21
4.3630000000000004
 31
0.0
  0
LINE
  5
9D9
  8
PEN1
 10
8.8470000000000013
 20
4.4939999999999989
 30
0.0
 11
8.7189999999999994
 21
4.4859999999999998
 31
0.0
  0
LINE
  5
9DA
  8
PEN1
 10
9.2910000000000004
 20
5.0999999999999988
 30
0.0
 11
9.1760000000000002
 21
5.2189999999999994
 31
0.0
  0
LINE
  5
9DB
  8
PEN1
 10
8.3589999999999982
 20
4.4139999999999988
 30
0.0
 11
8.4370000000000012
 21
4.4610000000000003
 31
0.0
  0
TEXT
  5
9DC
  8
0
 10
1.357966
 20
6.3496959999999989
 30
0.0
 40
0.078
  1
WASHINGTON
  0
TEXT
  5
9DD
  8
0
 10
1.227978
 20
5.759282999999999
 30
0.0
 40
0.078
  1
OREGON
  0
TEXT
  5
9DE
  8
0
 10
3.0599189999999989
 20
6.0002309999999994
 30
0.0
 40
0.078
  1
MONTANA
  0
TEXT
  5
9DF
  8
0
 10
2.2398839999999991
 20
5.4870679999999989
 30
0.0
 40
0.078
  1
IDAHO
  0
TEXT
  5
9E0
  8
0
 10
3.1864499999999989
 20
5.1164509999999996
 30
0.0
 40
0.078
  1
WYOMING
  0
TEXT
  5
9E1
  8
0
 10
1.6345379999999989
 20
4.6814580000000001
 30
0.0
 40
0.078
  1
NEVADA
  0
TEXT
  5
9E2
  8
0
 10
2.5738439999999989
 20
4.4529259999999997
 30
0.0
 40
0.078
  1
UTAH
  0
TEXT
  5
9E3
  8
0
 10
1.0945320000000001
 20
3.826646999999999
 30
0.0
 40
0.078
  1
CALIFORNIA
  0
TEXT
  5
9E4
  8
0
 10
2.2474899999999991
 20
3.387055999999999
 30
0.0
 40
0.078
  1
ARIZONA
  0
TEXT
  5
9E5
  8
0
 10
1.8049749999999991
 20
2.1643870000000001
 30
0.0
 40
0.078
  1
ALASKA
  0
TEXT
  5
9E6
  8
0
 10
3.5850589999999989
 20
1.128406
 30
0.0
 40
0.078
  1
HAWAII
  0
TEXT
  5
9E7
  8
0
 10
3.1249129999999998
 20
3.2330160000000001
 30
0.0
 40
0.078
  1
NEW MEXICO
  0
TEXT
  5
9E8
  8
0
 10
3.3741729999999999
 20
4.2197959999999988
 30
0.0
 40
0.078
  1
COLORADO
  0
TEXT
  5
9E9
  8
0
 10
4.1879850000000003
 20
5.9956319999999987
 30
0.0
 40
0.078
  1
NORTH DAKOTA
  0
TEXT
  5
9EA
  8
0
 10
5.2375739999999986
 20
5.9956319999999987
 30
0.0
 40
0.078
  1
MINNESOTA
  0
TEXT
  5
9EB
  8
0
 10
4.2042339999999987
 20
5.2373839999999987
 30
0.0
 40
0.078
  1
SOUTH DAKOTA
  0
TEXT
  5
9EC
  8
0
 10
5.6102550000000004
 20
4.8109589999999987
 30
0.0
 40
0.078
  1
IOWA
  0
TEXT
  5
9ED
  8
0
 10
5.617068999999999
 20
3.931441
 30
0.0
 40
0.078
  1
MISSOURI
  0
TEXT
  5
9EE
  8
0
 10
4.6543539999999988
 20
4.0567510000000002
 30
0.0
 40
0.078
  1
KANSAS
  0
TEXT
  5
9EF
  8
0
 10
4.4793219999999989
 20
4.6859219999999988
 30
0.0
 40
0.078
  1
NEBRASKA
  0
TEXT
  5
9F0
  8
0
 10
4.7597969999999989
 20
3.3962529999999989
 30
0.0
 40
0.078
  1
OKLAHOMA
  0
TEXT
  5
9F1
  8
0
 10
4.5143399999999989
 20
2.565812999999999
 30
0.0
 40
0.078
  1
TEXAS
  0
TEXT
  5
9F2
  8
0
 10
5.8557119999999996
 20
2.5961609999999991
 30
0.0
 40
0.078
  1
LA
  0
TEXT
  5
9F3
  8
0
 10
5.6202800000000002
 20
3.3470519999999988
 30
0.0
 40
0.078
  1
ARKANSAS
  0
TEXT
  5
9F4
  8
0
 10
5.8484519999999991
 20
5.510978999999999
 30
0.0
 40
0.078
  1
WISCONSIN
  0
TEXT
  5
9F5
  8
0
 10
6.1309009999999997
 20
4.464421999999999
 30
0.0
 40
0.078
  1
ILLINOIS
  0
TEXT
  5
9F6
  8
0
 10
6.87073
 20
4.5320159999999996
 30
0.0
 40
0.078
  1
IN
  0
TEXT
  5
9F7
  8
0
 10
6.8524070000000004
 20
5.1536970000000002
 30
0.0
 40
0.078
  1
MICHIGAN
  0
TEXT
  5
9F8
  8
0
 10
7.3288009999999986
 20
4.6124849999999986
 30
0.0
 40
0.078
  1
OHIO
  0
TEXT
  5
9F9
  8
0
 10
7.7080500000000001
 20
4.1696749999999989
 30
0.0
 40
0.078
  1
WV
  0
TEXT
  5
9FA
  8
0
 10
6.8022780000000003
 20
3.8767680000000002
 30
0.0
 40
0.078
  1
KENTUCKY
  0
TEXT
  5
9FB
  8
0
 10
6.5575119999999991
 20
3.5139680000000002
 30
0.0
 40
0.078
  1
TENNESSEE
  0
TEXT
  5
9FC
  8
0
 10
6.3535409999999999
 20
2.9663179999999998
 30
0.0
 40
0.078
  1
MS
  0
TEXT
  5
9FD
  8
0
 10
6.7189610000000002
 20
2.8003219999999991
 30
0.0
 40
0.078
  1
ALABAMA
  0
TEXT
  5
9FE
  8
0
 10
7.3668300000000002
 20
2.9111399999999992
 30
0.0
 40
0.078
  1
GEORGIA
  0
TEXT
  5
9FF
  8
0
 10
8.0229959999999991
 20
1.852166999999999
 30
0.0
 40
0.078
  1
FL
  0
TEXT
  5
A00
  8
0
 10
7.8333190000000004
 20
4.7786359999999988
 30
0.0
 40
0.078
  1
PENNSYLVANIA
  0
TEXT
  5
A01
  8
0
 10
8.2127929999999996
 20
4.3293460000000001
 30
0.0
 40
0.078
  1
DC
  0
TEXT
  5
A02
  8
0
 10
7.9996549999999997
 20
3.9969290000000002
 30
0.0
 40
0.078
  1
VIRGINIA
  0
TEXT
  5
A03
  8
0
 10
7.7363989999999996
 20
3.6215660000000001
 30
0.0
 40
0.078
  1
NO. CAROLINA
  0
TEXT
  5
A04
  8
0
 10
7.8842780000000001
 20
3.3634940000000002
 30
0.0
 40
0.078
  1
SO.
  0
TEXT
  5
A05
  8
0
 10
7.708308999999999
 20
3.2357580000000001
 30
0.0
 40
0.078
  1
CAROLINA
  0
TEXT
  5
A06
  8
0
 10
8.6984060000000003
 20
4.6369860000000003
 30
0.0
 40
0.078
  1
NJ
  0
TEXT
  5
A07
  8
0
 10
8.8835060000000006
 20
4.4585800000000004
 30
0.0
 40
0.078
  1
DE
  0
TEXT
  5
A08
  8
0
 10
8.8973929999999992
 20
4.2925550000000001
 30
0.0
 40
0.078
  1
MD
  0
TEXT
  5
A09
  8
0
 10
8.2048249999999996
 20
5.2434310000000002
 30
0.0
 40
0.078
  1
NEW YORK
  0
TEXT
  5
A0A
  8
0
 10
9.3195479999999993
 20
5.0159079999999996
 30
0.0
 40
0.078
  1
RI
  0
TEXT
  5
A0B
  8
0
 10
8.8200970000000005
 20
5.7354159999999998
 30
0.0
 40
0.078
  1
VT
  0
TEXT
  5
A0C
  8
0
 10
8.9540769999999998
 20
5.1697540000000002
 30
0.0
 40
0.078
  1
CT
  0
TEXT
  5
A0D
  8
0
 10
9.0142009999999981
 20
5.3420709999999989
 30
0.0
 40
0.078
  1
MA
  0
TEXT
  5
A0E
  8
0
 10
9.0048919999999981
 20
5.5450359999999987
 30
0.0
 40
0.078
  1
NH
  0
TEXT
  5
A0F
  8
0
 10
9.2131869999999996
 20
6.0739609999999988
 30
0.0
 40
0.078
  1
MAINE
  0
ENDSEC
  0
EOF
