0
SECTION
2
HEADER
9
$INSUNITS
70
4
9
$ACADVER
1
AC1014
9
$HANDSEED
5
FFFF
0
ENDSEC
0
SECTION
2
TABLES
0
TABLE
2
VPORT
5
8
100
AcDbSymbolTable
0
ENDTAB
0
TABLE
2
LTYPE
5
5
100
AcDbSymbolTable
0
LTYPE
5
14
100
AcDbSymbolTableRecord
100
AcDbLinetypeTableRecord
2
BYBLOCK
70
0
0
LTYPE
5
15
100
AcDbSymbolTableRecord
100
AcDbLinetypeTableRecord
2
BYLAYER
70
0
0
ENDTAB
0
TABLE
2
LAYER
5
2
100
AcDbSymbolTable
70
2
0
LAYER
5
50
100
AcDbSymbolTableRecord
100
AcDbLayerTableRecord
2
0
70
0
6
CONTINUOUS
0
ENDTAB
0
TABLE
2
STYLE
5
3
100
AcDbSymbolTable
70
1
0
STYLE
5
11
100
AcDbSymbolTableRecord
100
AcDbTextStyleTableRecord
2
STANDARD
70
0
0
ENDTAB
0
TABLE
2
VIEW
5
6
100
AcDbSymbolTable
70
0
0
ENDTAB
0
TABLE
2
UCS
5
7
100
AcDbSymbolTable
70
0
0
ENDTAB
0
TABLE
2
APPID
5
9
100
AcDbSymbolTable
70
2
0
APPID
5
12
100
AcDbSymbolTableRecord
100
AcDbRegAppTableRecord
2
ACAD
70
0
0
ENDTAB
0
TABLE
2
DIMSTYLE
5
A
100
AcDbSymbolTable
70
1
0
ENDTAB
0
TABLE
2
BLOCK_RECORD
5
1
100
AcDbSymbolTable
70
1
0
BLOCK_RECORD
5
1F
100
AcDbSymbolTableRecord
100
AcDbBlockTableRecord
2
*MODEL_SPACE
0
BLOCK_RECORD
5
1B
100
AcDbSymbolTableRecord
100
AcDbBlockTableRecord
2
*PAPER_SPACE
0
ENDTAB
0
ENDSEC
0
SECTION
2
BLOCKS
0
BLOCK
5
20
100
AcDbEntity
100
AcDbBlockBegin
2
*MODEL_SPACE
0
ENDBLK
5
21
100
AcDbEntity
100
AcDbBlockEnd
0
BLOCK
5
1C
100
AcDbEntity
100
AcDbBlockBegin
2
*PAPER_SPACE
0
ENDBLK
5
1D
100
AcDbEntity
100
AcDbBlockEnd
0
ENDSEC
0
SECTION
2
ENTITIES
0
LWPOLYLINE
5
100
100
AcDbEntity
8
0
100
AcDbPolyline
90
10
70
1
43
0.0
10
33.859649122807042
20
37.878471495680898
42
-0.37859603715567453
10
40.000000000000014
20
30.931457505076221
10
39.999999999999957
20
-62.500000000000007
42
-0.41421356237309537
10
4.9999999999999556
20
-97.5
10
-5.0000000000000195
20
-97.5
42
-0.41421356237309503
10
-40.000000000000014
20
-62.499999999999986
10
-39.999999999999972
20
30.9314575050762
42
-0.37859603715567347
10
-33.859649122806999
20
37.87847149568087
42
0.1608395347541203
10
-5.5172413793103212
20
51.293103448275865
42
-0.40000000000000047
10
5.5172413793103825
20
51.293103448275872
42
0.1608395347541203
0
CIRCLE
5
101
100
AcDbEntity
8
0
100
AcDbCircle
10
3.5874081483200371e-14
20
45.500000000000007
30
0
40
3.1749999999999994
0
CIRCLE
5
102
100
AcDbEntity
8
0
100
AcDbCircle
10
-2.2204460492503131e-15
20
-66
30
0
40
2.5
0
CIRCLE
5
103
100
AcDbEntity
8
0
100
AcDbCircle
10
-2.2204460492503131e-15
20
-86
30
0
40
2.5
0
CIRCLE
5
104
100
AcDbEntity
8
0
100
AcDbCircle
10
-2.2204460492503131e-15
20
-30.5
30
0
40
12.499999999999998
0
CIRCLE
5
105
100
AcDbEntity
8
0
100
AcDbCircle
10
-15.500000000000004
20
-46
30
0
40
1.8500000000000003
0
CIRCLE
5
106
100
AcDbEntity
8
0
100
AcDbCircle
10
15.499999999999998
20
-15
30
0
40
1.8500000000000003
0
CIRCLE
5
107
100
AcDbEntity
8
0
100
AcDbCircle
10
15.499999999999998
20
-46
30
0
40
1.8500000000000003
0
CIRCLE
5
108
100
AcDbEntity
8
0
100
AcDbCircle
10
-15.500000000000004
20
-15
30
0
40
1.8500000000000003
0
CIRCLE
5
109
100
AcDbEntity
8
0
100
AcDbCircle
10
32.5
20
29.999999999999996
30
0
40
2.5
0
CIRCLE
5
110
100
AcDbEntity
8
0
100
AcDbCircle
10
-32.5
20
29.999999999999996
30
0
40
2.5
0
CIRCLE
5
111
100
AcDbEntity
8
0
100
AcDbCircle
10
3.5874081483200371e-14
20
45.500000000000007
30
0
40
3.1749999999999994
0
CIRCLE
5
112
100
AcDbEntity
8
0
100
AcDbCircle
10
-2.2204460492503131e-15
20
-66
30
0
40
2.5
0
CIRCLE
5
113
100
AcDbEntity
8
0
100
AcDbCircle
10
-2.2204460492503131e-15
20
-86
30
0
40
2.5
0
CIRCLE
5
114
100
AcDbEntity
8
0
100
AcDbCircle
10
-2.2204460492503131e-15
20
-30.5
30
0
40
12.499999999999998
0
CIRCLE
5
115
100
AcDbEntity
8
0
100
AcDbCircle
10
-15.500000000000004
20
-46
30
0
40
1.8500000000000003
0
CIRCLE
5
116
100
AcDbEntity
8
0
100
AcDbCircle
10
15.499999999999998
20
-15
30
0
40
1.8500000000000003
0
CIRCLE
5
117
100
AcDbEntity
8
0
100
AcDbCircle
10
15.499999999999998
20
-46
30
0
40
1.8500000000000003
0
CIRCLE
5
118
100
AcDbEntity
8
0
100
AcDbCircle
10
-15.500000000000004
20
-15
30
0
40
1.8500000000000003
0
CIRCLE
5
119
100
AcDbEntity
8
0
100
AcDbCircle
10
32.5
20
29.999999999999996
30
0
40
2.5
0
CIRCLE
5
120
100
AcDbEntity
8
0
100
AcDbCircle
10
-32.5
20
29.999999999999996
30
0
40
2.5
0
LWPOLYLINE
5
121
100
AcDbEntity
8
0
100
AcDbPolyline
90
10
70
1
43
0.0
10
33.859649122807042
20
37.878471495680898
42
-0.37859603715567369
10
40.000000000000014
20
30.931457505076221
10
39.999999999999957
20
-62.500000000000014
42
-0.41421356237309498
10
4.9999999999999485
20
-97.5
10
-5.0000000000000258
20
-97.5
42
-0.4142135623730952
10
-40.000000000000028
20
-62.499999999999972
10
-39.999999999999972
20
30.931457505076203
42
-0.37859603715567336
10
-33.859649122806992
20
37.87847149568087
42
0.1608395347541203
10
-5.5172413793103194
20
51.293103448275858
42
-0.4000000000000008
10
5.5172413793103825
20
51.293103448275865
42
0.16083953475412024
0
LINE
5
122
100
AcDbEntity
8
0
100
AcDbLine
10
45
20
-106.56140661393334
30
0
11
-45
21
-106.56140661393334
31
0
0
LINE
5
123
100
AcDbEntity
8
0
100
AcDbLine
10
-45
20
-106.56140661393334
30
0
11
-45
21
63.438593386066671
31
0
0
LINE
5
124
100
AcDbEntity
8
0
100
AcDbLine
10
-45
20
63.438593386066671
30
0
11
45
21
63.438593386066664
31
0
0
LINE
5
125
100
AcDbEntity
8
0
100
AcDbLine
10
45
20
63.438593386066664
30
0
11
45
21
-106.56140661393334
31
0
0
LINE
5
126
100
AcDbEntity
8
0
100
AcDbLine
10
45
20
-106.56140661393334
30
0
11
-45
21
63.438593386066671
31
0
0
LINE
5
127
100
AcDbEntity
8
0
100
AcDbLine
10
-45
20
-106.56140661393334
30
0
11
45
21
63.438593386066664
31
0
0
LINE
5
128
100
AcDbEntity
8
0
100
AcDbLine
10
-3.2500000000000018
20
-58.912400000000005
30
0
11
3.2500000000000018
21
-58.912400000000005
31
0
0
LINE
5
129
100
AcDbEntity
8
0
100
AcDbLine
10
3.2500000000000018
20
-58.912400000000005
30
0
11
3.2500000000000018
21
-61.112399999999994
31
0
0
LINE
5
130
100
AcDbEntity
8
0
100
AcDbLine
10
3.2500000000000018
20
-61.112399999999994
30
0
11
-3.2500000000000018
21
-61.112399999999994
31
0
0
LINE
5
131
100
AcDbEntity
8
0
100
AcDbLine
10
-3.2500000000000018
20
-61.112399999999994
30
0
11
-3.2500000000000018
21
-58.912400000000005
31
0
0
LINE
5
132
100
AcDbEntity
8
0
100
AcDbLine
10
-3.2500000000000018
20
-58.912400000000005
30
0
11
3.2500000000000018
21
-61.112399999999994
31
0
0
LINE
5
133
100
AcDbEntity
8
0
100
AcDbLine
10
3.2500000000000018
20
-58.912400000000005
30
0
11
-3.2500000000000018
21
-61.112399999999994
31
0
0
LINE
5
134
100
AcDbEntity
8
0
100
AcDbLine
10
-2.2551405187698492e-15
20
-63.5
30
0
11
-2.7939999662339687
21
-63.5
31
0
0
CIRCLE
5
135
100
AcDbEntity
8
0
100
AcDbCircle
10
32.499999999999993
20
-29.999999999999996
30
0
40
3.5000000000000004
0
CIRCLE
5
136
100
AcDbEntity
8
0
100
AcDbCircle
10
-32.499999999999993
20
-29.999999999999996
30
0
40
3.5000000000000004
0
CIRCLE
5
137
100
AcDbEntity
8
0
100
AcDbCircle
10
32.499999999999993
20
-29.999999999999996
30
0
40
3.5000000000000004
0
CIRCLE
5
138
100
AcDbEntity
8
0
100
AcDbCircle
10
-32.499999999999993
20
-29.999999999999996
30
0
40
3.5000000000000004
0
ENDSEC
0
SECTION
2
OBJECTS
0
DICTIONARY
5
C
100
AcDbDictionary
3
ACAD_GROUP
350
D
3
ACAD_MLINESTYLE
350
17
0
DICTIONARY
5
D
100
AcDbDictionary
0
DICTIONARY
5
1A
330
C
100
AcDbDictionary
0
DICTIONARY
5
17
100
AcDbDictionary
0
ENDSEC
0
EOF
