  0
SECTION
  2
HEADER
  9
$ACADVER
  1
AC1009
  9
$DWGCODEPAGE
  3
ansi_1252
  9
$INSBASE
 10
0.0
 20
0.0
 30
0.0
  9
$EXTMIN
 10
1.965242352345531
 20
0.9100549267257668
 30
0.0
  9
$EXTMAX
 10
25.16593375042518
 20
11.53997618652577
 30
0.0
  9
$LIMMIN
 10
0.0
 20
0.0
  9
$LIMMAX
 10
12.0
 20
9.0
  9
$ORTHOMODE
 70
     0
  9
$REGENMODE
 70
     1
  9
$FILLMODE
 70
     1
  9
$QTEXTMODE
 70
     0
  9
$MIRRTEXT
 70
     1
  9
$DRAGMODE
 70
     2
  9
$LTSCALE
 40
1.0
  9
$OSMODE
 70
    37
  9
$ATTMODE
 70
     1
  9
$TEXTSIZE
 40
0.2
  9
$TRACEWID
 40
0.05
  9
$TEXTSTYLE
  7
STANDARD
  9
$CLAYER
  8
0
  9
$CELTYPE
  6
BYLAYER
  9
$CECOLOR
 62
   256
  9
$DIMSCALE
 40
1.0
  9
$DIMASZ
 40
0.18
  9
$DIMEXO
 40
0.0625
  9
$DIMDLI
 40
0.38
  9
$DIMRND
 40
0.0
  9
$DIMDLE
 40
0.0
  9
$DIMEXE
 40
0.18
  9
$DIMTP
 40
0.0
  9
$DIMTM
 40
0.0
  9
$DIMTXT
 40
0.18
  9
$DIMCEN
 40
0.09
  9
$DIMTSZ
 40
0.0
  9
$DIMTOL
 70
     0
  9
$DIMLIM
 70
     0
  9
$DIMTIH
 70
     1
  9
$DIMTOH
 70
     1
  9
$DIMSE1
 70
     0
  9
$DIMSE2
 70
     0
  9
$DIMTAD
 70
     0
  9
$DIMZIN
 70
     0
  9
$DIMBLK
  1

  9
$DIMASO
 70
     1
  9
$DIMSHO
 70
     1
  9
$DIMPOST
  1

  9
$DIMAPOST
  1

  9
$DIMALT
 70
     0
  9
$DIMALTD
 70
     2
  9
$DIMALTF
 40
25.4
  9
$DIMLFAC
 40
1.0
  9
$DIMTOFL
 70
     0
  9
$DIMTVP
 40
0.0
  9
$DIMTIX
 70
     0
  9
$DIMSOXD
 70
     0
  9
$DIMSAH
 70
     0
  9
$DIMBLK1
  1

  9
$DIMBLK2
  1

  9
$DIMSTYLE
  2
STANDARD
  9
$DIMCLRD
 70
     0
  9
$DIMCLRE
 70
     0
  9
$DIMCLRT
 70
     0
  9
$DIMTFAC
 40
1.0
  9
$DIMGAP
 40
0.09
  9
$LUNITS
 70
     2
  9
$LUPREC
 70
     4
  9
$SKETCHINC
 40
0.1
  9
$FILLETRAD
 40
0.5
  9
$AUNITS
 70
     0
  9
$AUPREC
 70
     0
  9
$MENU
  1
.
  9
$ELEVATION
 40
0.0
  9
$PELEVATION
 40
0.0
  9
$THICKNESS
 40
0.0
  9
$LIMCHECK
 70
     0
  9
$CHAMFERA
 40
0.0
  9
$CHAMFERB
 40
0.0
  9
$SKPOLY
 70
     0
  9
$TDCREATE
 40
2454910.5
  9
$TDUPDATE
 40
2457434.705592778
  9
$TDINDWG
 40
0.0000000116
  9
$TDUSRTIMER
 40
0.0000000116
  9
$USRTIMER
 70
     1
  9
$ANGBASE
 50
0.0
  9
$ANGDIR
 70
     0
  9
$PDMODE
 70
     0
  9
$PDSIZE
 40
0.0
  9
$PLINEWID
 40
0.0
  9
$COORDS
 70
     1
  9
$SPLFRAME
 70
     0
  9
$SPLINETYPE
 70
     6
  9
$SPLINESEGS
 70
     8
  9
$ATTDIA
 70
     0
  9
$ATTREQ
 70
     1
  9
$HANDLING
 70
     1
  9
$HANDSEED
  5
455
  9
$SURFTAB1
 70
     6
  9
$SURFTAB2
 70
     6
  9
$SURFTYPE
 70
     6
  9
$SURFU
 70
     6
  9
$SURFV
 70
     6
  9
$UCSNAME
  2

  9
$UCSORG
 10
0.0
 20
0.0
 30
0.0
  9
$UCSXDIR
 10
1.0
 20
0.0
 30
0.0
  9
$UCSYDIR
 10
0.0
 20
1.0
 30
0.0
  9
$PUCSNAME
  2

  9
$PUCSORG
 10
0.0
 20
0.0
 30
0.0
  9
$PUCSXDIR
 10
1.0
 20
0.0
 30
0.0
  9
$PUCSYDIR
 10
0.0
 20
1.0
 30
0.0
  9
$USERI1
 70
     0
  9
$USERI2
 70
     0
  9
$USERI3
 70
     0
  9
$USERI4
 70
     0
  9
$USERI5
 70
     0
  9
$USERR1
 40
0.0
  9
$USERR2
 40
0.0
  9
$USERR3
 40
0.0
  9
$USERR4
 40
0.0
  9
$USERR5
 40
0.0
  9
$WORLDVIEW
 70
     1
  9
$SHADEDGE
 70
     3
  9
$SHADEDIF
 70
    70
  9
$TILEMODE
 70
     1
  9
$MAXACTVP
 70
    64
  9
$PLIMCHECK
 70
     0
  9
$PEXTMIN
 10
1.000000000000000E+20
 20
1.000000000000000E+20
 30
1.000000000000000E+20
  9
$PEXTMAX
 10
-1.000000000000000E+20
 20
-1.000000000000000E+20
 30
-1.000000000000000E+20
  9
$PLIMMIN
 10
0.0
 20
0.0
  9
$PLIMMAX
 10
12.0
 20
9.0
  9
$UNITMODE
 70
     0
  9
$VISRETAIN
 70
     1
  9
$PLINEGEN
 70
     0
  9
$PSLTSCALE
 70
     1
  0
ENDSEC
  0
SECTION
  2
TABLES
  0
TABLE
  2
VPORT
 70
     1
  0
VPORT
  2
*ACTIVE
 70
     0
 10
0.0
 20
0.0
 11
1.0
 21
1.0
 12
10.42990654205607
 22
4.5
 13
0.0
 23
0.0
 14
0.5
 24
0.5
 15
0.5
 25
0.5
 16
0.0
 26
0.0
 36
1.0
 17
0.0
 27
0.0
 37
0.0
 40
9.0
 41
1.972972972850329
 42
50.0
 43
0.0
 44
0.0
 50
0.0
 51
0.0
 71
     0
 72
   100
 73
     1
 74
     3
 75
     0
 76
     0
 77
     0
 78
     0
  0
ENDTAB
  0
TABLE
  2
LTYPE
 70
     2
  0
LTYPE
  2
CONTINUOUS
 70
     0
  3
Solid line
 72
    65
 73
     0
 40
0.0
  0
LTYPE
  2
CONTINUOUS2
 70
     0
  3
Solid Line
 72
    65
 73
     0
 40
0.0
  0
ENDTAB
  0
TABLE
  2
LAYER
 70
     2
  0
LAYER
  2
0
 70
     0
 62
     7
  6
CONTINUOUS
  0
LAYER
  2
CONSTRUCTION
 70
     0
 62
    18
  6
CONTINUOUS
  0
ENDTAB
  0
TABLE
  2
STYLE
 70
     1
  0
STYLE
  2
STANDARD
 70
     0
 40
0.0
 41
1.0
 50
0.0
 71
     0
 42
0.2
  3
txt
  4

  0
ENDTAB
  0
TABLE
  2
VIEW
 70
     0
  0
ENDTAB
  0
TABLE
  2
UCS
 70
     0
  0
ENDTAB
  0
TABLE
  2
APPID
 70
     1
  0
APPID
  2
ACAD
 70
     0
  0
ENDTAB
  0
TABLE
  2
DIMSTYLE
 70
     1
  0
DIMSTYLE
  2
STANDARD
 70
     0
  3

  4

  5

  6

  7

 40
1.0
 41
0.18
 42
0.0625
 43
0.38
 44
0.18
 45
0.0
 46
0.0
 47
0.0
 48
0.0
140
0.18
141
0.09
142
0.0
143
25.4
144
1.0
145
0.0
146
1.0
147
0.09
 71
     0
 72
     0
 73
     1
 74
     1
 75
     0
 76
     0
 77
     0
 78
     0
170
     0
171
     2
172
     0
173
     0
174
     0
175
     0
176
     0
177
     0
178
     0
  0
ENDTAB
  0
ENDSEC
  0
SECTION
  2
BLOCKS
  0
BLOCK
  8
0
  2
$MODEL_SPACE
 70
     0
 10
0.0
 20
0.0
 30
0.0
  3
$MODEL_SPACE
  1

  0
ENDBLK
  5
21
  8
0
  0
BLOCK
 67
     1
  8
0
  2
$PAPER_SPACE
 70
     0
 10
0.0
 20
0.0
 30
0.0
  3
$PAPER_SPACE
  1

  0
ENDBLK
  5
1D
 67
     1
  8
0
  0
ENDSEC
  0
SECTION
  2
ENTITIES
  0
POLYLINE
  5
6F
  8
0
 66
     1
 10
0.0
 20
0.0
 30
0.0
 70
     1
  0
VERTEX
  5
F3
  8
0
 10
2.624691171240531
 20
6.884464375520757
 30
0.0
 42
0.4142135623730951
  0
VERTEX
  5
F4
  8
0
 10
2.565636053130531
 20
6.825409257410757
 30
0.0
 42
0.4142135623730951
  0
VERTEX
  5
F5
  8
0
 10
2.624691171240531
 20
6.766354139300757
 30
0.0
 42
0.4142135623730951
  0
VERTEX
  5
F6
  8
0
 10
2.68374628935053
 20
6.825409257410757
 30
0.0
 42
0.4142135623730951
  0
SEQEND
  5
3D9
  8
0
  0
POLYLINE
  5
70
  8
0
 66
     1
 10
0.0
 20
0.0
 30
0.0
 70
     1
  0
VERTEX
  5
F7
  8
0
 10
2.624691171240531
 20
5.683676973950766
 30
0.0
 42
0.4142135623730951
  0
VERTEX
  5
F8
  8
0
 10
2.565636053130531
 20
5.624621855840766
 30
0.0
 42
0.4142135623730951
  0
VERTEX
  5
F9
  8
0
 10
2.624691171240531
 20
5.565566737730766
 30
0.0
 42
0.4142135623730951
  0
VERTEX
  5
FA
  8
0
 10
2.68374628935053
 20
5.624621855840766
 30
0.0
 42
0.4142135623730951
  0
SEQEND
  5
3DA
  8
0
  0
POLYLINE
  5
71
  8
0
 66
     1
 10
0.0
 20
0.0
 30
0.0
 70
     1
  0
VERTEX
  5
FB
  8
0
 10
3.825478572810531
 20
6.884464375520757
 30
0.0
 42
0.4142135623730951
  0
VERTEX
  5
FC
  8
0
 10
3.766423454700531
 20
6.825409257410757
 30
0.0
 42
0.4142135623730951
  0
VERTEX
  5
FD
  8
0
 10
3.825478572810531
 20
6.766354139300757
 30
0.0
 42
0.4142135623730951
  0
VERTEX
  5
FE
  8
0
 10
3.884533690920531
 20
6.825409257410757
 30
0.0
 42
0.4142135623730951
  0
SEQEND
  5
3DB
  8
0
  0
POLYLINE
  5
72
  8
0
 66
     1
 10
0.0
 20
0.0
 30
0.0
 70
     1
  0
VERTEX
  5
FF
  8
0
 10
3.825478572810531
 20
5.683676973950766
 30
0.0
 42
0.4142135623730951
  0
VERTEX
  5
100
  8
0
 10
3.766423454700531
 20
5.624621855840766
 30
0.0
 42
0.4142135623730951
  0
VERTEX
  5
101
  8
0
 10
3.825478572810531
 20
5.565566737730766
 30
0.0
 42
0.4142135623730951
  0
VERTEX
  5
102
  8
0
 10
3.884533690920531
 20
5.624621855840766
 30
0.0
 42
0.4142135623730951
  0
SEQEND
  5
3DC
  8
0
  0
POLYLINE
  5
73
  8
0
 66
     1
 10
0.0
 20
0.0
 30
0.0
 70
     1
  0
VERTEX
  5
103
  8
0
 10
3.132641348825745
 20
10.92580295818177
 30
0.0
  0
VERTEX
  5
104
  8
0
 10
3.132641348825745
 20
10.47304705267177
 30
0.0
 42
0.4142135623730951
  0
VERTEX
  5
105
  8
0
 10
3.191696466935745
 20
10.41399193456177
 30
0.0
 42
0.4142135623730951
  0
VERTEX
  5
106
  8
0
 10
3.250751585045745
 20
10.47304705267177
 30
0.0
  0
VERTEX
  5
107
  8
0
 10
3.250751585045745
 20
10.92580295818177
 30
0.0
 42
0.4142135623730951
  0
VERTEX
  5
108
  8
0
 10
3.191696466935745
 20
10.98485807629177
 30
0.0
 42
0.4142135623730951
  0
SEQEND
  5
3DD
  8
0
  0
POLYLINE
  5
74
  8
0
 66
     1
 10
0.0
 20
0.0
 30
0.0
 70
     1
  0
VERTEX
  5
109
  8
0
 10
3.250751585045745
 20
11.22501555660576
 30
0.0
  0
VERTEX
  5
10A
  8
0
 10
2.778310640165745
 20
11.22501555660576
 30
0.0
 42
0.4142135623730951
  0
VERTEX
  5
10B
  8
0
 10
2.719255522055745
 20
11.16596043849577
 30
0.0
 42
0.4142135623730951
  0
VERTEX
  5
10C
  8
0
 10
2.778310640165745
 20
11.10690532038577
 30
0.0
  0
VERTEX
  5
10D
  8
0
 10
3.250751585045745
 20
11.10690532038577
 30
0.0
 42
0.4142135623730951
  0
VERTEX
  5
10E
  8
0
 10
3.309806703155745
 20
11.16596043849577
 30
0.0
 42
0.4142135623730951
  0
SEQEND
  5
3DE
  8
0
  0
POLYLINE
  5
75
  8
0
 66
     1
 10
0.0
 20
0.0
 30
0.0
 70
     1
  0
VERTEX
  5
10F
  8
0
 10
2.142407706675531
 20
9.827377761335766
 30
0.0
 42
0.4142135623730951
  0
VERTEX
  5
110
  8
0
 10
2.083352588565531
 20
9.768322643225765
 30
0.0
 42
0.4142135623730951
  0
VERTEX
  5
111
  8
0
 10
2.142407706675531
 20
9.709267525115767
 30
0.0
 42
0.4142135623730951
  0
VERTEX
  5
112
  8
0
 10
2.201462824785531
 20
9.768322643225765
 30
0.0
 42
0.4142135623730951
  0
SEQEND
  5
3DF
  8
0
  0
POLYLINE
  5
76
  8
0
 66
     1
 10
0.0
 20
0.0
 30
0.0
 70
     1
  0
VERTEX
  5
113
  8
0
 10
2.142407706675531
 20
2.740763588135767
 30
0.0
 42
0.4142135623730951
  0
VERTEX
  5
114
  8
0
 10
2.083352588565531
 20
2.681708470025766
 30
0.0
 42
0.4142135623730951
  0
VERTEX
  5
115
  8
0
 10
2.142407706675531
 20
2.622653351915766
 30
0.0
 42
0.4142135623730951
  0
VERTEX
  5
116
  8
0
 10
2.201462824785531
 20
2.681708470025766
 30
0.0
 42
0.4142135623730951
  0
SEQEND
  5
3E0
  8
0
  0
POLYLINE
  5
77
  8
0
 66
     1
 10
0.0
 20
0.0
 30
0.0
 70
     1
  0
VERTEX
  5
117
  8
0
 10
2.142407706675531
 20
5.102968312535766
 30
0.0
 42
0.4142135623730951
  0
VERTEX
  5
118
  8
0
 10
2.083352588565531
 20
5.043913194425766
 30
0.0
 42
0.4142135623730951
  0
VERTEX
  5
119
  8
0
 10
2.142407706675531
 20
4.984858076315766
 30
0.0
 42
0.4142135623730951
  0
VERTEX
  5
11A
  8
0
 10
2.201462824785531
 20
5.043913194425766
 30
0.0
 42
0.4142135623730951
  0
SEQEND
  5
3E1
  8
0
  0
POLYLINE
  5
78
  8
0
 66
     1
 10
0.0
 20
0.0
 30
0.0
 70
     1
  0
VERTEX
  5
11B
  8
0
 10
2.142407706675531
 20
7.465173036935767
 30
0.0
 42
0.4142135623730951
  0
VERTEX
  5
11C
  8
0
 10
2.083352588565531
 20
7.406117918825766
 30
0.0
 42
0.4142135623730951
  0
VERTEX
  5
11D
  8
0
 10
2.142407706675531
 20
7.347062800715766
 30
0.0
 42
0.4142135623730951
  0
VERTEX
  5
11E
  8
0
 10
2.201462824785531
 20
7.406117918825766
 30
0.0
 42
0.4142135623730951
  0
SEQEND
  5
3E2
  8
0
  0
POLYLINE
  5
79
  8
0
 66
     1
 10
0.0
 20
0.0
 30
0.0
 70
     1
  0
VERTEX
  5
11F
  8
0
 10
2.142407706675531
 20
6.284070674735766
 30
0.0
 42
0.4142135623730951
  0
VERTEX
  5
120
  8
0
 10
2.083352588565531
 20
6.225015556625766
 30
0.0
 42
0.4142135623730951
  0
VERTEX
  5
121
  8
0
 10
2.142407706675531
 20
6.165960438515766
 30
0.0
 42
0.4142135623730951
  0
VERTEX
  5
122
  8
0
 10
2.201462824785531
 20
6.225015556625766
 30
0.0
 42
0.4142135623730951
  0
SEQEND
  5
3E3
  8
0
  0
POLYLINE
  5
7A
  8
0
 66
     1
 10
0.0
 20
0.0
 30
0.0
 70
     1
  0
VERTEX
  5
123
  8
0
 10
2.142407706675531
 20
3.213204533015766
 30
0.0
 42
0.4142135623730951
  0
VERTEX
  5
124
  8
0
 10
2.083352588565531
 20
3.154149414905766
 30
0.0
 42
0.4142135623730951
  0
VERTEX
  5
125
  8
0
 10
2.142407706675531
 20
3.095094296795766
 30
0.0
 42
0.4142135623730951
  0
VERTEX
  5
126
  8
0
 10
2.201462824785531
 20
3.154149414905766
 30
0.0
 42
0.4142135623730951
  0
SEQEND
  5
3E4
  8
0
  0
POLYLINE
  5
7B
  8
0
 66
     1
 10
0.0
 20
0.0
 30
0.0
 70
     1
  0
VERTEX
  5
127
  8
0
 10
2.142407706675531
 20
9.354936816455766
 30
0.0
 42
0.4142135623730951
  0
VERTEX
  5
128
  8
0
 10
2.083352588565531
 20
9.295881698345767
 30
0.0
 42
0.4142135623730951
  0
VERTEX
  5
129
  8
0
 10
2.142407706675531
 20
9.236826580235766
 30
0.0
 42
0.4142135623730951
  0
VERTEX
  5
12A
  8
0
 10
2.201462824785531
 20
9.295881698345767
 30
0.0
 42
0.4142135623730951
  0
SEQEND
  5
3E5
  8
0
  0
POLYLINE
  5
7C
  8
0
 66
     1
 10
0.0
 20
0.0
 30
0.0
 70
     1
  0
VERTEX
  5
12B
  8
0
 10
3.250751585045745
 20
10.28013366684577
 30
0.0
  0
VERTEX
  5
12C
  8
0
 10
2.778310640165745
 20
10.28013366684577
 30
0.0
 42
0.4142135623730951
  0
VERTEX
  5
12D
  8
0
 10
2.719255522055745
 20
10.22107854873576
 30
0.0
 42
0.4142135623730951
  0
VERTEX
  5
12E
  8
0
 10
2.778310640165745
 20
10.16202343062577
 30
0.0
  0
VERTEX
  5
12F
  8
0
 10
3.250751585045745
 20
10.16202343062577
 30
0.0
 42
0.4142135623730951
  0
VERTEX
  5
130
  8
0
 10
3.309806703155745
 20
10.22107854873576
 30
0.0
 42
0.4142135623730951
  0
SEQEND
  5
3E6
  8
0
  0
POLYLINE
  5
7D
  8
0
 66
     1
 10
0.0
 20
0.0
 30
0.0
 70
     1
  0
VERTEX
  5
131
  8
0
 10
4.307762037375529
 20
9.827377761335766
 30
0.0
 42
0.4142135623730951
  0
VERTEX
  5
132
  8
0
 10
4.248706919265529
 20
9.768322643225765
 30
0.0
 42
0.4142135623730951
  0
VERTEX
  5
133
  8
0
 10
4.307762037375529
 20
9.709267525115767
 30
0.0
 42
0.4142135623730951
  0
VERTEX
  5
134
  8
0
 10
4.366817155485529
 20
9.768322643225765
 30
0.0
 42
0.4142135623730951
  0
SEQEND
  5
3E7
  8
0
  0
POLYLINE
  5
7E
  8
0
 66
     1
 10
0.0
 20
0.0
 30
0.0
 70
     1
  0
VERTEX
  5
135
  8
0
 10
4.307762037375529
 20
2.740763588135767
 30
0.0
 42
0.4142135623730951
  0
VERTEX
  5
136
  8
0
 10
4.248706919265529
 20
2.681708470025766
 30
0.0
 42
0.4142135623730951
  0
VERTEX
  5
137
  8
0
 10
4.307762037375529
 20
2.622653351915766
 30
0.0
 42
0.4142135623730951
  0
VERTEX
  5
138
  8
0
 10
4.366817155485529
 20
2.681708470025766
 30
0.0
 42
0.4142135623730951
  0
SEQEND
  5
3E8
  8
0
  0
POLYLINE
  5
7F
  8
0
 66
     1
 10
0.0
 20
0.0
 30
0.0
 70
     1
  0
VERTEX
  5
139
  8
0
 10
4.307762037375529
 20
5.102968312535766
 30
0.0
 42
0.4142135623730951
  0
VERTEX
  5
13A
  8
0
 10
4.248706919265529
 20
5.043913194425766
 30
0.0
 42
0.4142135623730951
  0
VERTEX
  5
13B
  8
0
 10
4.307762037375529
 20
4.984858076315766
 30
0.0
 42
0.4142135623730951
  0
VERTEX
  5
13C
  8
0
 10
4.366817155485529
 20
5.043913194425766
 30
0.0
 42
0.4142135623730951
  0
SEQEND
  5
3E9
  8
0
  0
POLYLINE
  5
80
  8
0
 66
     1
 10
0.0
 20
0.0
 30
0.0
 70
     1
  0
VERTEX
  5
13D
  8
0
 10
4.307762037375529
 20
7.465173036935767
 30
0.0
 42
0.4142135623730951
  0
VERTEX
  5
13E
  8
0
 10
4.248706919265529
 20
7.406117918825766
 30
0.0
 42
0.4142135623730951
  0
VERTEX
  5
13F
  8
0
 10
4.307762037375529
 20
7.347062800715766
 30
0.0
 42
0.4142135623730951
  0
VERTEX
  5
140
  8
0
 10
4.366817155485529
 20
7.406117918825766
 30
0.0
 42
0.4142135623730951
  0
SEQEND
  5
3EA
  8
0
  0
POLYLINE
  5
81
  8
0
 66
     1
 10
0.0
 20
0.0
 30
0.0
 70
     1
  0
VERTEX
  5
141
  8
0
 10
4.307762037375529
 20
6.284070674735766
 30
0.0
 42
0.4142135623730951
  0
VERTEX
  5
142
  8
0
 10
4.248706919265529
 20
6.225015556625766
 30
0.0
 42
0.4142135623730951
  0
VERTEX
  5
143
  8
0
 10
4.307762037375529
 20
6.165960438515766
 30
0.0
 42
0.4142135623730951
  0
VERTEX
  5
144
  8
0
 10
4.366817155485529
 20
6.225015556625766
 30
0.0
 42
0.4142135623730951
  0
SEQEND
  5
3EB
  8
0
  0
POLYLINE
  5
82
  8
0
 66
     1
 10
0.0
 20
0.0
 30
0.0
 70
     1
  0
VERTEX
  5
145
  8
0
 10
4.307762037375529
 20
3.213204533015766
 30
0.0
 42
0.4142135623730951
  0
VERTEX
  5
146
  8
0
 10
4.248706919265529
 20
3.154149414905766
 30
0.0
 42
0.4142135623730951
  0
VERTEX
  5
147
  8
0
 10
4.307762037375529
 20
3.095094296795766
 30
0.0
 42
0.4142135623730951
  0
VERTEX
  5
148
  8
0
 10
4.366817155485529
 20
3.154149414905766
 30
0.0
 42
0.4142135623730951
  0
SEQEND
  5
3EC
  8
0
  0
POLYLINE
  5
83
  8
0
 66
     1
 10
0.0
 20
0.0
 30
0.0
 70
     1
  0
VERTEX
  5
149
  8
0
 10
4.307762037375529
 20
9.354936816455766
 30
0.0
 42
0.4142135623730951
  0
VERTEX
  5
14A
  8
0
 10
4.248706919265529
 20
9.295881698345767
 30
0.0
 42
0.4142135623730951
  0
VERTEX
  5
14B
  8
0
 10
4.307762037375529
 20
9.236826580235766
 30
0.0
 42
0.4142135623730951
  0
VERTEX
  5
14C
  8
0
 10
4.366817155485529
 20
9.295881698345767
 30
0.0
 42
0.4142135623730951
  0
SEQEND
  5
3ED
  8
0
  0
POLYLINE
  5
84
  8
0
 66
     1
 10
0.0
 20
0.0
 30
0.0
 70
     1
  0
VERTEX
  5
14D
  8
0
 10
8.616580267544766
 20
10.48418923143954
 30
0.0
 42
0.4142135623730951
  0
VERTEX
  5
14E
  8
0
 10
8.557525149434767
 20
10.42513411332954
 30
0.0
 42
0.4142135623730951
  0
VERTEX
  5
14F
  8
0
 10
8.616580267544766
 20
10.36607899521954
 30
0.0
 42
0.4142135623730951
  0
VERTEX
  5
150
  8
0
 10
8.675635385654767
 20
10.42513411332954
 30
0.0
 42
0.4142135623730951
  0
SEQEND
  5
3EE
  8
0
  0
POLYLINE
  5
85
  8
0
 66
     1
 10
0.0
 20
0.0
 30
0.0
 70
     1
  0
VERTEX
  5
151
  8
0
 10
8.616580267544766
 20
3.397575058239545
 30
0.0
 42
0.4142135623730951
  0
VERTEX
  5
152
  8
0
 10
8.557525149434767
 20
3.338519940129545
 30
0.0
 42
0.4142135623730951
  0
VERTEX
  5
153
  8
0
 10
8.616580267544766
 20
3.279464822019545
 30
0.0
 42
0.4142135623730951
  0
VERTEX
  5
154
  8
0
 10
8.675635385654767
 20
3.338519940129545
 30
0.0
 42
0.4142135623730951
  0
SEQEND
  5
3EF
  8
0
  0
POLYLINE
  5
86
  8
0
 66
     1
 10
0.0
 20
0.0
 30
0.0
 70
     1
  0
VERTEX
  5
155
  8
0
 10
8.616580267544766
 20
5.759779782639543
 30
0.0
 42
0.4142135623730951
  0
VERTEX
  5
156
  8
0
 10
8.557525149434767
 20
5.700724664529544
 30
0.0
 42
0.4142135623730951
  0
VERTEX
  5
157
  8
0
 10
8.616580267544766
 20
5.641669546419544
 30
0.0
 42
0.4142135623730951
  0
VERTEX
  5
158
  8
0
 10
8.675635385654767
 20
5.700724664529544
 30
0.0
 42
0.4142135623730951
  0
SEQEND
  5
3F0
  8
0
  0
POLYLINE
  5
87
  8
0
 66
     1
 10
0.0
 20
0.0
 30
0.0
 70
     1
  0
VERTEX
  5
159
  8
0
 10
8.616580267544766
 20
8.121984507039544
 30
0.0
 42
0.4142135623730951
  0
VERTEX
  5
15A
  8
0
 10
8.557525149434767
 20
8.062929388929543
 30
0.0
 42
0.4142135623730951
  0
VERTEX
  5
15B
  8
0
 10
8.616580267544766
 20
8.003874270819544
 30
0.0
 42
0.4142135623730951
  0
VERTEX
  5
15C
  8
0
 10
8.675635385654767
 20
8.062929388929543
 30
0.0
 42
0.4142135623730951
  0
SEQEND
  5
3F1
  8
0
  0
POLYLINE
  5
88
  8
0
 66
     1
 10
0.0
 20
0.0
 30
0.0
 70
     1
  0
VERTEX
  5
15D
  8
0
 10
10.78193459824477
 20
10.48418923143954
 30
0.0
 42
0.4142135623730951
  0
VERTEX
  5
15E
  8
0
 10
10.72287948013476
 20
10.42513411332954
 30
0.0
 42
0.4142135623730951
  0
VERTEX
  5
15F
  8
0
 10
10.78193459824477
 20
10.36607899521954
 30
0.0
 42
0.4142135623730951
  0
VERTEX
  5
160
  8
0
 10
10.84098971635477
 20
10.42513411332954
 30
0.0
 42
0.4142135623730951
  0
SEQEND
  5
3F2
  8
0
  0
POLYLINE
  5
89
  8
0
 66
     1
 10
0.0
 20
0.0
 30
0.0
 70
     1
  0
VERTEX
  5
161
  8
0
 10
10.78193459824477
 20
3.397575058239545
 30
0.0
 42
0.4142135623730951
  0
VERTEX
  5
162
  8
0
 10
10.72287948013476
 20
3.338519940129545
 30
0.0
 42
0.4142135623730951
  0
VERTEX
  5
163
  8
0
 10
10.78193459824477
 20
3.279464822019545
 30
0.0
 42
0.4142135623730951
  0
VERTEX
  5
164
  8
0
 10
10.84098971635477
 20
3.338519940129545
 30
0.0
 42
0.4142135623730951
  0
SEQEND
  5
3F3
  8
0
  0
POLYLINE
  5
8A
  8
0
 66
     1
 10
0.0
 20
0.0
 30
0.0
 70
     1
  0
VERTEX
  5
165
  8
0
 10
10.78193459824477
 20
5.759779782639543
 30
0.0
 42
0.4142135623730951
  0
VERTEX
  5
166
  8
0
 10
10.72287948013476
 20
5.700724664529544
 30
0.0
 42
0.4142135623730951
  0
VERTEX
  5
167
  8
0
 10
10.78193459824477
 20
5.641669546419544
 30
0.0
 42
0.4142135623730951
  0
VERTEX
  5
168
  8
0
 10
10.84098971635477
 20
5.700724664529544
 30
0.0
 42
0.4142135623730951
  0
SEQEND
  5
3F4
  8
0
  0
POLYLINE
  5
8B
  8
0
 66
     1
 10
0.0
 20
0.0
 30
0.0
 70
     1
  0
VERTEX
  5
169
  8
0
 10
10.78193459824477
 20
8.121984507039544
 30
0.0
 42
0.4142135623730951
  0
VERTEX
  5
16A
  8
0
 10
10.72287948013476
 20
8.062929388929543
 30
0.0
 42
0.4142135623730951
  0
VERTEX
  5
16B
  8
0
 10
10.78193459824477
 20
8.003874270819544
 30
0.0
 42
0.4142135623730951
  0
VERTEX
  5
16C
  8
0
 10
10.84098971635477
 20
8.062929388929543
 30
0.0
 42
0.4142135623730951
  0
SEQEND
  5
3F5
  8
0
  0
POLYLINE
  5
8C
  8
0
 66
     1
 10
0.0
 20
0.0
 30
0.0
 70
     1
  0
VERTEX
  5
16D
  8
0
 10
9.699257432894766
 20
10.24796875899954
 30
0.0
 42
0.4142135623730951
  0
VERTEX
  5
16E
  8
0
 10
9.640202314784766
 20
10.18891364088954
 30
0.0
 42
0.4142135623730951
  0
VERTEX
  5
16F
  8
0
 10
9.699257432894766
 20
10.12985852277954
 30
0.0
 42
0.4142135623730951
  0
VERTEX
  5
170
  8
0
 10
9.758312551004767
 20
10.18891364088954
 30
0.0
 42
0.4142135623730951
  0
SEQEND
  5
3F6
  8
0
  0
POLYLINE
  5
8D
  8
0
 66
     1
 10
0.0
 20
0.0
 30
0.0
 70
     1
  0
VERTEX
  5
171
  8
0
 10
10.17169837777477
 20
10.31686639679454
 30
0.0
 42
0.4142135623730951
  0
VERTEX
  5
172
  8
0
 10
10.04374562186977
 20
10.18891364088954
 30
0.0
 42
0.4142135623730951
  0
VERTEX
  5
173
  8
0
 10
10.17169837777477
 20
10.06096088498454
 30
0.0
 42
0.4142135623730951
  0
VERTEX
  5
174
  8
0
 10
10.29965113367976
 20
10.18891364088954
 30
0.0
 42
0.4142135623730951
  0
SEQEND
  5
3F7
  8
0
  0
POLYLINE
  5
8E
  8
0
 66
     1
 10
0.0
 20
0.0
 30
0.0
 70
     1
  0
VERTEX
  5
175
  8
0
 10
9.226816488014766
 20
10.31686639679454
 30
0.0
 42
0.4142135623730951
  0
VERTEX
  5
176
  8
0
 10
9.098863732109766
 20
10.18891364088954
 30
0.0
 42
0.4142135623730951
  0
VERTEX
  5
177
  8
0
 10
9.226816488014766
 20
10.06096088498454
 30
0.0
 42
0.4142135623730951
  0
VERTEX
  5
178
  8
0
 10
9.354769243919767
 20
10.18891364088954
 30
0.0
 42
0.4142135623730951
  0
SEQEND
  5
3F8
  8
0
  0
POLYLINE
  5
8F
  8
0
 66
     1
 10
0.0
 20
0.0
 30
0.0
 70
     1
  0
VERTEX
  5
179
  8
0
 10
9.699257432894766
 20
9.484340485180642
 30
0.0
 42
0.4142135623730951
  0
VERTEX
  5
17A
  8
0
 10
9.571304676989767
 20
9.35638772927564
 30
0.0
 42
0.4142135623730951
  0
VERTEX
  5
17B
  8
0
 10
9.699257432894766
 20
9.228434973370641
 30
0.0
 42
0.4142135623730951
  0
VERTEX
  5
17C
  8
0
 10
9.827210188799766
 20
9.35638772927564
 30
0.0
 42
0.4142135623730951
  0
SEQEND
  5
3F9
  8
0
  0
POLYLINE
  5
90
  8
0
 66
     1
 10
0.0
 20
0.0
 30
0.0
 70
     1
  0
VERTEX
  5
17D
  8
0
 10
9.699257432894766
 20
3.623953010994563
 30
0.0
 42
0.4142135623730951
  0
VERTEX
  5
17E
  8
0
 10
9.571304676989767
 20
3.496000255089563
 30
0.0
 42
0.4142135623730951
  0
VERTEX
  5
17F
  8
0
 10
9.699257432894766
 20
3.368047499184563
 30
0.0
 42
0.4142135623730951
  0
VERTEX
  5
180
  8
0
 10
9.827210188799766
 20
3.496000255089563
 30
0.0
 42
0.4142135623730951
  0
SEQEND
  5
3FA
  8
0
  0
POLYLINE
  5
91
  8
0
 66
     1
 10
0.0
 20
0.0
 30
0.0
 70
     1
  0
VERTEX
  5
181
  8
0
 10
9.095170043077738
 20
7.541275845624535
 30
0.0
 42
0.4142135623730951
  0
VERTEX
  5
182
  8
0
 10
9.036114924967737
 20
7.482220727514536
 30
0.0
 42
0.4142135623730951
  0
VERTEX
  5
183
  8
0
 10
9.095170043077738
 20
7.423165609404536
 30
0.0
 42
0.4142135623730951
  0
VERTEX
  5
184
  8
0
 10
9.154225161187737
 20
7.482220727514536
 30
0.0
 42
0.4142135623730951
  0
SEQEND
  5
3FB
  8
0
  0
POLYLINE
  5
92
  8
0
 66
     1
 10
0.0
 20
0.0
 30
0.0
 70
     1
  0
VERTEX
  5
185
  8
0
 10
9.095170043077738
 20
6.340488444054543
 30
0.0
 42
0.4142135623730951
  0
VERTEX
  5
186
  8
0
 10
9.036114924967737
 20
6.281433325944543
 30
0.0
 42
0.4142135623730951
  0
VERTEX
  5
187
  8
0
 10
9.095170043077738
 20
6.222378207834543
 30
0.0
 42
0.4142135623730951
  0
VERTEX
  5
188
  8
0
 10
9.154225161187737
 20
6.281433325944543
 30
0.0
 42
0.4142135623730951
  0
SEQEND
  5
3FC
  8
0
  0
POLYLINE
  5
93
  8
0
 66
     1
 10
0.0
 20
0.0
 30
0.0
 70
     1
  0
VERTEX
  5
189
  8
0
 10
10.29595744464774
 20
7.541275845624535
 30
0.0
 42
0.4142135623730951
  0
VERTEX
  5
18A
  8
0
 10
10.23690232653774
 20
7.482220727514536
 30
0.0
 42
0.4142135623730951
  0
VERTEX
  5
18B
  8
0
 10
10.29595744464774
 20
7.423165609404536
 30
0.0
 42
0.4142135623730951
  0
VERTEX
  5
18C
  8
0
 10
10.35501256275774
 20
7.482220727514536
 30
0.0
 42
0.4142135623730951
  0
SEQEND
  5
3FD
  8
0
  0
POLYLINE
  5
94
  8
0
 66
     1
 10
0.0
 20
0.0
 30
0.0
 70
     1
  0
VERTEX
  5
18D
  8
0
 10
10.29595744464774
 20
6.340488444054543
 30
0.0
 42
0.4142135623730951
  0
VERTEX
  5
18E
  8
0
 10
10.23690232653774
 20
6.281433325944543
 30
0.0
 42
0.4142135623730951
  0
VERTEX
  5
18F
  8
0
 10
10.29595744464774
 20
6.222378207834543
 30
0.0
 42
0.4142135623730951
  0
VERTEX
  5
190
  8
0
 10
10.35501256275774
 20
6.281433325944543
 30
0.0
 42
0.4142135623730951
  0
SEQEND
  5
3FE
  8
0
  0
POLYLINE
  5
95
  8
0
 66
     1
 10
0.0
 20
0.0
 30
0.0
 70
     1
  0
VERTEX
  5
191
  8
0
 10
3.228778561057559
 20
9.827377761335766
 30
0.0
 42
0.4142135623730951
  0
VERTEX
  5
192
  8
0
 10
3.169723442947559
 20
9.768322643225765
 30
0.0
 42
0.4142135623730951
  0
VERTEX
  5
193
  8
0
 10
3.228778561057559
 20
9.709267525115767
 30
0.0
 42
0.4142135623730951
  0
VERTEX
  5
194
  8
0
 10
3.287833679167559
 20
9.768322643225765
 30
0.0
 42
0.4142135623730951
  0
SEQEND
  5
3FF
  8
0
  0
POLYLINE
  5
96
  8
0
 66
     1
 10
0.0
 20
0.0
 30
0.0
 70
     1
  0
VERTEX
  5
195
  8
0
 10
15.66368758156804
 20
7.169561048579385
 30
0.0
 42
0.4142135623730951
  0
VERTEX
  5
196
  8
0
 10
15.60463246345804
 20
7.110505930469384
 30
0.0
 42
0.4142135623730951
  0
VERTEX
  5
197
  8
0
 10
15.66368758156804
 20
7.051450812359384
 30
0.0
 42
0.4142135623730951
  0
VERTEX
  5
198
  8
0
 10
15.72274269967804
 20
7.110505930469384
 30
0.0
 42
0.4142135623730951
  0
SEQEND
  5
400
  8
0
  0
POLYLINE
  5
97
  8
0
 66
     1
 10
0.0
 20
0.0
 30
0.0
 70
     1
  0
VERTEX
  5
199
  8
0
 10
15.66368758156804
 20
5.968773647009397
 30
0.0
 42
0.4142135623730951
  0
VERTEX
  5
19A
  8
0
 10
15.60463246345804
 20
5.909718528899397
 30
0.0
 42
0.4142135623730951
  0
VERTEX
  5
19B
  8
0
 10
15.66368758156804
 20
5.850663410789397
 30
0.0
 42
0.4142135623730951
  0
VERTEX
  5
19C
  8
0
 10
15.72274269967804
 20
5.909718528899397
 30
0.0
 42
0.4142135623730951
  0
SEQEND
  5
401
  8
0
  0
POLYLINE
  5
98
  8
0
 66
     1
 10
0.0
 20
0.0
 30
0.0
 70
     1
  0
VERTEX
  5
19D
  8
0
 10
16.86447498313804
 20
7.169561048579385
 30
0.0
 42
0.4142135623730951
  0
VERTEX
  5
19E
  8
0
 10
16.80541986502804
 20
7.110505930469384
 30
0.0
 42
0.4142135623730951
  0
VERTEX
  5
19F
  8
0
 10
16.86447498313804
 20
7.051450812359384
 30
0.0
 42
0.4142135623730951
  0
VERTEX
  5
1A0
  8
0
 10
16.92353010124804
 20
7.110505930469384
 30
0.0
 42
0.4142135623730951
  0
SEQEND
  5
402
  8
0
  0
POLYLINE
  5
99
  8
0
 66
     1
 10
0.0
 20
0.0
 30
0.0
 70
     1
  0
VERTEX
  5
1A1
  8
0
 10
16.86447498313804
 20
5.968773647009397
 30
0.0
 42
0.4142135623730951
  0
VERTEX
  5
1A2
  8
0
 10
16.80541986502804
 20
5.909718528899397
 30
0.0
 42
0.4142135623730951
  0
VERTEX
  5
1A3
  8
0
 10
16.86447498313804
 20
5.850663410789397
 30
0.0
 42
0.4142135623730951
  0
VERTEX
  5
1A4
  8
0
 10
16.92353010124804
 20
5.909718528899397
 30
0.0
 42
0.4142135623730951
  0
SEQEND
  5
403
  8
0
  0
POLYLINE
  5
9A
  8
0
 66
     1
 10
0.0
 20
0.0
 30
0.0
 70
     1
  0
VERTEX
  5
1A5
  8
0
 10
15.18140411700304
 20
6.569167347794393
 30
0.0
 42
0.4142135623730951
  0
VERTEX
  5
1A6
  8
0
 10
15.12234899889304
 20
6.510112229684394
 30
0.0
 42
0.4142135623730951
  0
VERTEX
  5
1A7
  8
0
 10
15.18140411700304
 20
6.451057111574394
 30
0.0
 42
0.4142135623730951
  0
VERTEX
  5
1A8
  8
0
 10
15.24045923511304
 20
6.510112229684394
 30
0.0
 42
0.4142135623730951
  0
SEQEND
  5
404
  8
0
  0
POLYLINE
  5
9B
  8
0
 66
     1
 10
0.0
 20
0.0
 30
0.0
 70
     1
  0
VERTEX
  5
1A9
  8
0
 10
15.18140411700304
 20
3.498301206074395
 30
0.0
 42
0.4142135623730951
  0
VERTEX
  5
1AA
  8
0
 10
15.12234899889304
 20
3.439246087964395
 30
0.0
 42
0.4142135623730951
  0
VERTEX
  5
1AB
  8
0
 10
15.18140411700304
 20
3.380190969854395
 30
0.0
 42
0.4142135623730951
  0
VERTEX
  5
1AC
  8
0
 10
15.24045923511304
 20
3.439246087964395
 30
0.0
 42
0.4142135623730951
  0
SEQEND
  5
405
  8
0
  0
POLYLINE
  5
9C
  8
0
 66
     1
 10
0.0
 20
0.0
 30
0.0
 70
     1
  0
VERTEX
  5
1AD
  8
0
 10
15.18140411700304
 20
9.640033489514398
 30
0.0
 42
0.4142135623730951
  0
VERTEX
  5
1AE
  8
0
 10
15.12234899889304
 20
9.580978371404397
 30
0.0
 42
0.4142135623730951
  0
VERTEX
  5
1AF
  8
0
 10
15.18140411700304
 20
9.521923253294396
 30
0.0
 42
0.4142135623730951
  0
VERTEX
  5
1B0
  8
0
 10
15.24045923511304
 20
9.580978371404397
 30
0.0
 42
0.4142135623730951
  0
SEQEND
  5
406
  8
0
  0
POLYLINE
  5
9D
  8
0
 66
     1
 10
0.0
 20
0.0
 30
0.0
 70
     1
  0
VERTEX
  5
1B1
  8
0
 10
14.77157102384905
 20
8.544700582406254
 30
0.0
 42
0.4142135623730951
  0
VERTEX
  5
1B2
  8
0
 10
14.71251590573904
 20
8.485645464296255
 30
0.0
 42
0.4142135623730951
  0
VERTEX
  5
1B3
  8
0
 10
14.77157102384905
 20
8.426590346186254
 30
0.0
 42
0.4142135623730951
  0
VERTEX
  5
1B4
  8
0
 10
14.83062614195904
 20
8.485645464296255
 30
0.0
 42
0.4142135623730951
  0
SEQEND
  5
407
  8
0
  0
POLYLINE
  5
9E
  8
0
 66
     1
 10
0.0
 20
0.0
 30
0.0
 70
     1
  0
VERTEX
  5
1B5
  8
0
 10
14.91968998355642
 20
8.951654079595375
 30
0.0
 42
0.4142135623730951
  0
VERTEX
  5
1B6
  8
0
 10
14.86063486544642
 20
8.892598961485374
 30
0.0
 42
0.4142135623730951
  0
VERTEX
  5
1B7
  8
0
 10
14.91968998355642
 20
8.833543843375375
 30
0.0
 42
0.4142135623730951
  0
VERTEX
  5
1B8
  8
0
 10
14.97874510166642
 20
8.892598961485374
 30
0.0
 42
0.4142135623730951
  0
SEQEND
  5
408
  8
0
  0
POLYLINE
  5
9F
  8
0
 66
     1
 10
0.0
 20
0.0
 30
0.0
 70
     1
  0
VERTEX
  5
1B9
  8
0
 10
14.43874494142383
 20
9.126703759249548
 30
0.0
 42
0.4142135623730951
  0
VERTEX
  5
1BA
  8
0
 10
14.37968982331383
 20
9.067648641139549
 30
0.0
 42
0.4142135623730951
  0
VERTEX
  5
1BB
  8
0
 10
14.43874494142383
 20
9.008593523029548
 30
0.0
 42
0.4142135623730951
  0
VERTEX
  5
1BC
  8
0
 10
14.49780005953383
 20
9.067648641139549
 30
0.0
 42
0.4142135623730951
  0
SEQEND
  5
409
  8
0
  0
POLYLINE
  5
A0
  8
0
 66
     1
 10
0.0
 20
0.0
 30
0.0
 70
     1
  0
VERTEX
  5
1BD
  8
0
 10
14.29062598171645
 20
8.71975026206043
 30
0.0
 42
0.4142135623730951
  0
VERTEX
  5
1BE
  8
0
 10
14.23157086360645
 20
8.660695143950429
 30
0.0
 42
0.4142135623730951
  0
VERTEX
  5
1BF
  8
0
 10
14.29062598171645
 20
8.601640025840428
 30
0.0
 42
0.4142135623730951
  0
VERTEX
  5
1C0
  8
0
 10
14.34968109982645
 20
8.660695143950429
 30
0.0
 42
0.4142135623730951
  0
SEQEND
  5
40A
  8
0
  0
POLYLINE
  5
A1
  8
0
 66
     1
 10
0.0
 20
0.0
 30
0.0
 70
     1
  0
VERTEX
  5
1C1
  8
0
 10
14.77157102384905
 20
4.593634113182535
 30
0.0
 42
0.4142135623730951
  0
VERTEX
  5
1C2
  8
0
 10
14.71251590573904
 20
4.534578995072535
 30
0.0
 42
0.4142135623730951
  0
VERTEX
  5
1C3
  8
0
 10
14.77157102384905
 20
4.475523876962535
 30
0.0
 42
0.4142135623730951
  0
VERTEX
  5
1C4
  8
0
 10
14.83062614195904
 20
4.534578995072535
 30
0.0
 42
0.4142135623730951
  0
SEQEND
  5
40B
  8
0
  0
POLYLINE
  5
A2
  8
0
 66
     1
 10
0.0
 20
0.0
 30
0.0
 70
     1
  0
VERTEX
  5
1C5
  8
0
 10
14.91968998355642
 20
4.186680615993415
 30
0.0
 42
0.4142135623730951
  0
VERTEX
  5
1C6
  8
0
 10
14.86063486544642
 20
4.127625497883415
 30
0.0
 42
0.4142135623730951
  0
VERTEX
  5
1C7
  8
0
 10
14.91968998355642
 20
4.068570379773415
 30
0.0
 42
0.4142135623730951
  0
VERTEX
  5
1C8
  8
0
 10
14.97874510166642
 20
4.127625497883415
 30
0.0
 42
0.4142135623730951
  0
SEQEND
  5
40C
  8
0
  0
POLYLINE
  5
A3
  8
0
 66
     1
 10
0.0
 20
0.0
 30
0.0
 70
     1
  0
VERTEX
  5
1C9
  8
0
 10
14.43874494142383
 20
4.011630936339241
 30
0.0
 42
0.4142135623730951
  0
VERTEX
  5
1CA
  8
0
 10
14.37968982331383
 20
3.952575818229241
 30
0.0
 42
0.4142135623730951
  0
VERTEX
  5
1CB
  8
0
 10
14.43874494142383
 20
3.893520700119241
 30
0.0
 42
0.4142135623730951
  0
VERTEX
  5
1CC
  8
0
 10
14.49780005953383
 20
3.952575818229241
 30
0.0
 42
0.4142135623730951
  0
SEQEND
  5
40D
  8
0
  0
POLYLINE
  5
A4
  8
0
 66
     1
 10
0.0
 20
0.0
 30
0.0
 70
     1
  0
VERTEX
  5
1CD
  8
0
 10
14.29062598171645
 20
4.418584433528362
 30
0.0
 42
0.4142135623730951
  0
VERTEX
  5
1CE
  8
0
 10
14.23157086360645
 20
4.359529315418361
 30
0.0
 42
0.4142135623730951
  0
VERTEX
  5
1CF
  8
0
 10
14.29062598171645
 20
4.300474197308361
 30
0.0
 42
0.4142135623730951
  0
VERTEX
  5
1D0
  8
0
 10
14.34968109982645
 20
4.359529315418361
 30
0.0
 42
0.4142135623730951
  0
SEQEND
  5
40E
  8
0
  0
POLYLINE
  5
A5
  8
0
 66
     1
 10
0.0
 20
0.0
 30
0.0
 70
     1
  0
VERTEX
  5
1D1
  8
0
 10
16.26408128235305
 20
9.167592544634397
 30
0.0
 42
0.4142135623730951
  0
VERTEX
  5
1D2
  8
0
 10
16.20502616424305
 20
9.108537426524396
 30
0.0
 42
0.4142135623730951
  0
VERTEX
  5
1D3
  8
0
 10
16.26408128235305
 20
9.049482308414397
 30
0.0
 42
0.4142135623730951
  0
VERTEX
  5
1D4
  8
0
 10
16.32313640046305
 20
9.108537426524396
 30
0.0
 42
0.4142135623730951
  0
SEQEND
  5
40F
  8
0
  0
POLYLINE
  5
A6
  8
0
 66
     1
 10
0.0
 20
0.0
 30
0.0
 70
     1
  0
VERTEX
  5
1D5
  8
0
 10
16.26408128235305
 20
3.970742150954396
 30
0.0
 42
0.4142135623730951
  0
VERTEX
  5
1D6
  8
0
 10
16.20502616424305
 20
3.911687032844396
 30
0.0
 42
0.4142135623730951
  0
VERTEX
  5
1D7
  8
0
 10
16.26408128235305
 20
3.852631914734396
 30
0.0
 42
0.4142135623730951
  0
VERTEX
  5
1D8
  8
0
 10
16.32313640046305
 20
3.911687032844396
 30
0.0
 42
0.4142135623730951
  0
SEQEND
  5
410
  8
0
  0
POLYLINE
  5
A7
  8
0
 66
     1
 10
0.0
 20
0.0
 30
0.0
 70
     1
  0
VERTEX
  5
1D9
  8
0
 10
22.53980946627028
 20
5.473050737743994
 30
0.0
 42
0.4142135623730951
  0
VERTEX
  5
1DA
  8
0
 10
22.47878584422328
 20
5.412027115696993
 30
0.0
 42
0.4142135623730951
  0
VERTEX
  5
1DB
  8
0
 10
22.53980946627028
 20
5.351003493649993
 30
0.0
 42
0.4142135623730951
  0
VERTEX
  5
1DC
  8
0
 10
22.60083308831728
 20
5.412027115696993
 30
0.0
 42
0.4142135623730951
  0
SEQEND
  5
411
  8
0
  0
POLYLINE
  5
A8
  8
0
 66
     1
 10
0.0
 20
0.0
 30
0.0
 70
     1
  0
VERTEX
  5
1DD
  8
0
 10
22.53980946627028
 20
4.961239714123994
 30
0.0
 42
0.4142135623730951
  0
VERTEX
  5
1DE
  8
0
 10
22.47878584422328
 20
4.900216092076993
 30
0.0
 42
0.4142135623730951
  0
VERTEX
  5
1DF
  8
0
 10
22.53980946627028
 20
4.839192470029994
 30
0.0
 42
0.4142135623730951
  0
VERTEX
  5
1E0
  8
0
 10
22.60083308831728
 20
4.900216092076993
 30
0.0
 42
0.4142135623730951
  0
SEQEND
  5
412
  8
0
  0
POLYLINE
  5
A9
  8
0
 66
     1
 10
0.0
 20
0.0
 30
0.0
 70
     1
  0
VERTEX
  5
1E1
  8
0
 10
22.10673860013028
 20
4.961239714123994
 30
0.0
 42
0.4142135623730951
  0
VERTEX
  5
1E2
  8
0
 10
22.04571497808328
 20
4.900216092076993
 30
0.0
 42
0.4142135623730951
  0
VERTEX
  5
1E3
  8
0
 10
22.10673860013028
 20
4.839192470029994
 30
0.0
 42
0.4142135623730951
  0
VERTEX
  5
1E4
  8
0
 10
22.16776222217728
 20
4.900216092076993
 30
0.0
 42
0.4142135623730951
  0
SEQEND
  5
413
  8
0
  0
POLYLINE
  5
AA
  8
0
 66
     1
 10
0.0
 20
0.0
 30
0.0
 70
     1
  0
VERTEX
  5
1E5
  8
0
 10
22.10673860013028
 20
5.473050737743994
 30
0.0
 42
0.4142135623730951
  0
VERTEX
  5
1E6
  8
0
 10
22.04571497808328
 20
5.412027115696993
 30
0.0
 42
0.4142135623730951
  0
VERTEX
  5
1E7
  8
0
 10
22.10673860013028
 20
5.351003493649993
 30
0.0
 42
0.4142135623730951
  0
VERTEX
  5
1E8
  8
0
 10
22.16776222217728
 20
5.412027115696993
 30
0.0
 42
0.4142135623730951
  0
SEQEND
  5
414
  8
0
  0
POLYLINE
  5
AB
  8
0
 66
     1
 10
0.0
 20
0.0
 30
0.0
 70
     1
  0
VERTEX
  5
1E9
  8
0
 10
22.32327403320027
 20
7.951397194426994
 30
0.0
 42
0.4142135623730951
  0
VERTEX
  5
1EA
  8
0
 10
22.18547875761027
 20
7.813601918836993
 30
0.0
 42
0.4142135623730951
  0
VERTEX
  5
1EB
  8
0
 10
22.32327403320027
 20
7.675806643246993
 30
0.0
 42
0.4142135623730951
  0
VERTEX
  5
1EC
  8
0
 10
22.46106930879027
 20
7.813601918836993
 30
0.0
 42
0.4142135623730951
  0
SEQEND
  5
415
  8
0
  0
POLYLINE
  5
AC
  8
0
 66
     1
 10
0.0
 20
0.0
 30
0.0
 70
     1
  0
VERTEX
  5
1ED
  8
0
 10
17.34675844770304
 20
6.569167347794393
 30
0.0
 42
0.4142135623730951
  0
VERTEX
  5
1EE
  8
0
 10
17.28770332959304
 20
6.510112229684394
 30
0.0
 42
0.4142135623730951
  0
VERTEX
  5
1EF
  8
0
 10
17.34675844770304
 20
6.451057111574394
 30
0.0
 42
0.4142135623730951
  0
VERTEX
  5
1F0
  8
0
 10
17.40581356581304
 20
6.510112229684394
 30
0.0
 42
0.4142135623730951
  0
SEQEND
  5
416
  8
0
  0
POLYLINE
  5
AD
  8
0
 66
     1
 10
0.0
 20
0.0
 30
0.0
 70
     1
  0
VERTEX
  5
1F1
  8
0
 10
17.34675844770304
 20
3.498301206074395
 30
0.0
 42
0.4142135623730951
  0
VERTEX
  5
1F2
  8
0
 10
17.28770332959304
 20
3.439246087964395
 30
0.0
 42
0.4142135623730951
  0
VERTEX
  5
1F3
  8
0
 10
17.34675844770304
 20
3.380190969854395
 30
0.0
 42
0.4142135623730951
  0
VERTEX
  5
1F4
  8
0
 10
17.40581356581304
 20
3.439246087964395
 30
0.0
 42
0.4142135623730951
  0
SEQEND
  5
417
  8
0
  0
POLYLINE
  5
AE
  8
0
 66
     1
 10
0.0
 20
0.0
 30
0.0
 70
     1
  0
VERTEX
  5
1F5
  8
0
 10
17.34675844770304
 20
9.640033489514398
 30
0.0
 42
0.4142135623730951
  0
VERTEX
  5
1F6
  8
0
 10
17.28770332959304
 20
9.580978371404397
 30
0.0
 42
0.4142135623730951
  0
VERTEX
  5
1F7
  8
0
 10
17.34675844770304
 20
9.521923253294396
 30
0.0
 42
0.4142135623730951
  0
VERTEX
  5
1F8
  8
0
 10
17.40581356581304
 20
9.580978371404397
 30
0.0
 42
0.4142135623730951
  0
SEQEND
  5
418
  8
0
  0
POLYLINE
  5
AF
  8
0
 66
     1
 10
0.0
 20
0.0
 30
0.0
 70
     1
  0
VERTEX
  5
1F9
  8
0
 10
17.75659154085704
 20
8.544700582406254
 30
0.0
 42
0.4142135623730951
  0
VERTEX
  5
1FA
  8
0
 10
17.69753642274704
 20
8.485645464296255
 30
0.0
 42
0.4142135623730951
  0
VERTEX
  5
1FB
  8
0
 10
17.75659154085704
 20
8.426590346186254
 30
0.0
 42
0.4142135623730951
  0
VERTEX
  5
1FC
  8
0
 10
17.81564665896704
 20
8.485645464296255
 30
0.0
 42
0.4142135623730951
  0
SEQEND
  5
419
  8
0
  0
POLYLINE
  5
B0
  8
0
 66
     1
 10
0.0
 20
0.0
 30
0.0
 70
     1
  0
VERTEX
  5
1FD
  8
0
 10
17.60847258114967
 20
8.951654079595375
 30
0.0
 42
0.4142135623730951
  0
VERTEX
  5
1FE
  8
0
 10
17.54941746303967
 20
8.892598961485374
 30
0.0
 42
0.4142135623730951
  0
VERTEX
  5
1FF
  8
0
 10
17.60847258114967
 20
8.833543843375375
 30
0.0
 42
0.4142135623730951
  0
VERTEX
  5
200
  8
0
 10
17.66752769925967
 20
8.892598961485374
 30
0.0
 42
0.4142135623730951
  0
SEQEND
  5
41A
  8
0
  0
POLYLINE
  5
B1
  8
0
 66
     1
 10
0.0
 20
0.0
 30
0.0
 70
     1
  0
VERTEX
  5
201
  8
0
 10
18.08941762328225
 20
9.126703759249548
 30
0.0
 42
0.4142135623730951
  0
VERTEX
  5
202
  8
0
 10
18.03036250517225
 20
9.067648641139549
 30
0.0
 42
0.4142135623730951
  0
VERTEX
  5
203
  8
0
 10
18.08941762328225
 20
9.008593523029548
 30
0.0
 42
0.4142135623730951
  0
VERTEX
  5
204
  8
0
 10
18.14847274139225
 20
9.067648641139549
 30
0.0
 42
0.4142135623730951
  0
SEQEND
  5
41B
  8
0
  0
POLYLINE
  5
B2
  8
0
 66
     1
 10
0.0
 20
0.0
 30
0.0
 70
     1
  0
VERTEX
  5
205
  8
0
 10
18.23753658298964
 20
8.71975026206043
 30
0.0
 42
0.4142135623730951
  0
VERTEX
  5
206
  8
0
 10
18.17848146487963
 20
8.660695143950429
 30
0.0
 42
0.4142135623730951
  0
VERTEX
  5
207
  8
0
 10
18.23753658298964
 20
8.601640025840428
 30
0.0
 42
0.4142135623730951
  0
VERTEX
  5
208
  8
0
 10
18.29659170109964
 20
8.660695143950429
 30
0.0
 42
0.4142135623730951
  0
SEQEND
  5
41C
  8
0
  0
POLYLINE
  5
B3
  8
0
 66
     1
 10
0.0
 20
0.0
 30
0.0
 70
     1
  0
VERTEX
  5
209
  8
0
 10
17.75659154085704
 20
4.593634113182535
 30
0.0
 42
0.4142135623730951
  0
VERTEX
  5
20A
  8
0
 10
17.69753642274704
 20
4.534578995072535
 30
0.0
 42
0.4142135623730951
  0
VERTEX
  5
20B
  8
0
 10
17.75659154085704
 20
4.475523876962535
 30
0.0
 42
0.4142135623730951
  0
VERTEX
  5
20C
  8
0
 10
17.81564665896704
 20
4.534578995072535
 30
0.0
 42
0.4142135623730951
  0
SEQEND
  5
41D
  8
0
  0
POLYLINE
  5
B4
  8
0
 66
     1
 10
0.0
 20
0.0
 30
0.0
 70
     1
  0
VERTEX
  5
20D
  8
0
 10
17.60847258114967
 20
4.186680615993415
 30
0.0
 42
0.4142135623730951
  0
VERTEX
  5
20E
  8
0
 10
17.54941746303967
 20
4.127625497883415
 30
0.0
 42
0.4142135623730951
  0
VERTEX
  5
20F
  8
0
 10
17.60847258114967
 20
4.068570379773415
 30
0.0
 42
0.4142135623730951
  0
VERTEX
  5
210
  8
0
 10
17.66752769925967
 20
4.127625497883415
 30
0.0
 42
0.4142135623730951
  0
SEQEND
  5
41E
  8
0
  0
POLYLINE
  5
B5
  8
0
 66
     1
 10
0.0
 20
0.0
 30
0.0
 70
     1
  0
VERTEX
  5
211
  8
0
 10
18.08941762328225
 20
4.011630936339241
 30
0.0
 42
0.4142135623730951
  0
VERTEX
  5
212
  8
0
 10
18.03036250517225
 20
3.952575818229241
 30
0.0
 42
0.4142135623730951
  0
VERTEX
  5
213
  8
0
 10
18.08941762328225
 20
3.893520700119241
 30
0.0
 42
0.4142135623730951
  0
VERTEX
  5
214
  8
0
 10
18.14847274139225
 20
3.952575818229241
 30
0.0
 42
0.4142135623730951
  0
SEQEND
  5
41F
  8
0
  0
POLYLINE
  5
B6
  8
0
 66
     1
 10
0.0
 20
0.0
 30
0.0
 70
     1
  0
VERTEX
  5
215
  8
0
 10
18.23753658298964
 20
4.418584433528362
 30
0.0
 42
0.4142135623730951
  0
VERTEX
  5
216
  8
0
 10
18.17848146487963
 20
4.359529315418361
 30
0.0
 42
0.4142135623730951
  0
VERTEX
  5
217
  8
0
 10
18.23753658298964
 20
4.300474197308361
 30
0.0
 42
0.4142135623730951
  0
VERTEX
  5
218
  8
0
 10
18.29659170109964
 20
4.359529315418361
 30
0.0
 42
0.4142135623730951
  0
SEQEND
  5
420
  8
0
  0
POLYLINE
  5
B7
  8
0
 66
     1
 10
0.0
 20
0.0
 30
0.0
 70
     1
  0
VERTEX
  5
219
  8
0
 10
24.84635996463503
 20
4.991034110185852
 30
0.0
 42
0.4142135623730951
  0
VERTEX
  5
21A
  8
0
 10
24.78533634258804
 20
4.930010488138851
 30
0.0
 42
0.4142135623730951
  0
VERTEX
  5
21B
  8
0
 10
24.84635996463503
 20
4.868986866091851
 30
0.0
 42
0.4142135623730951
  0
VERTEX
  5
21C
  8
0
 10
24.90738358668203
 20
4.930010488138851
 30
0.0
 42
0.4142135623730951
  0
SEQEND
  5
421
  8
0
  0
POLYLINE
  5
B8
  8
0
 66
     1
 10
0.0
 20
0.0
 30
0.0
 70
     1
  0
VERTEX
  5
21D
  8
0
 10
24.84635996463503
 20
4.479223086565852
 30
0.0
 42
0.4142135623730951
  0
VERTEX
  5
21E
  8
0
 10
24.78533634258804
 20
4.418199464518851
 30
0.0
 42
0.4142135623730951
  0
VERTEX
  5
21F
  8
0
 10
24.84635996463503
 20
4.357175842471851
 30
0.0
 42
0.4142135623730951
  0
VERTEX
  5
220
  8
0
 10
24.90738358668203
 20
4.418199464518851
 30
0.0
 42
0.4142135623730951
  0
SEQEND
  5
422
  8
0
  0
POLYLINE
  5
B9
  8
0
 66
     1
 10
0.0
 20
0.0
 30
0.0
 70
     1
  0
VERTEX
  5
221
  8
0
 10
24.41328909849504
 20
4.479223086565852
 30
0.0
 42
0.4142135623730951
  0
VERTEX
  5
222
  8
0
 10
24.35226547644804
 20
4.418199464518851
 30
0.0
 42
0.4142135623730951
  0
VERTEX
  5
223
  8
0
 10
24.41328909849504
 20
4.357175842471851
 30
0.0
 42
0.4142135623730951
  0
VERTEX
  5
224
  8
0
 10
24.47431272054203
 20
4.418199464518851
 30
0.0
 42
0.4142135623730951
  0
SEQEND
  5
423
  8
0
  0
POLYLINE
  5
BA
  8
0
 66
     1
 10
0.0
 20
0.0
 30
0.0
 70
     1
  0
VERTEX
  5
225
  8
0
 10
24.41328909849504
 20
4.991034110185852
 30
0.0
 42
0.4142135623730951
  0
VERTEX
  5
226
  8
0
 10
24.35226547644804
 20
4.930010488138851
 30
0.0
 42
0.4142135623730951
  0
VERTEX
  5
227
  8
0
 10
24.41328909849504
 20
4.868986866091851
 30
0.0
 42
0.4142135623730951
  0
VERTEX
  5
228
  8
0
 10
24.47431272054203
 20
4.930010488138851
 30
0.0
 42
0.4142135623730951
  0
SEQEND
  5
424
  8
0
  0
POLYLINE
  5
BB
  8
0
 66
     1
 10
0.0
 20
0.0
 30
0.0
 70
     1
  0
VERTEX
  5
229
  8
0
 10
24.62982453156503
 20
7.969380566866847
 30
0.0
 42
0.4142135623730951
  0
VERTEX
  5
22A
  8
0
 10
24.49202925597503
 20
7.831585291276847
 30
0.0
 42
0.4142135623730951
  0
VERTEX
  5
22B
  8
0
 10
24.62982453156503
 20
7.693790015686847
 30
0.0
 42
0.4142135623730951
  0
VERTEX
  5
22C
  8
0
 10
24.76761980715503
 20
7.831585291276847
 30
0.0
 42
0.4142135623730951
  0
SEQEND
  5
425
  8
0
  0
POLYLINE
  5
BD
  8
CONSTRUCTION
 66
     1
 10
0.0
 20
0.0
 30
0.0
 70
     1
  0
VERTEX
  5
22D
  8
CONSTRUCTION
 10
3.773810832764584
 20
8.20048488427384
 30
0.0
 42
-0.9999999999999998
  0
VERTEX
  5
22E
  8
CONSTRUCTION
 10
3.891921068984584
 20
8.20048488427384
 30
0.0
  0
VERTEX
  5
22F
  8
CONSTRUCTION
 10
3.891921068984584
 20
7.531193545693836
 30
0.0
 42
-0.9999999999999998
  0
VERTEX
  5
230
  8
CONSTRUCTION
 10
3.773810832764584
 20
7.531193545693836
 30
0.0
  0
SEQEND
  5
426
  8
CONSTRUCTION
  0
POLYLINE
  5
BE
  8
CONSTRUCTION
 66
     1
 10
0.0
 20
0.0
 30
0.0
 70
     1
  0
VERTEX
  5
231
  8
CONSTRUCTION
 10
3.773810832764584
 20
9.18473685277384
 30
0.0
 42
-0.9999999999999998
  0
VERTEX
  5
232
  8
CONSTRUCTION
 10
3.891921068984584
 20
9.18473685277384
 30
0.0
  0
VERTEX
  5
233
  8
CONSTRUCTION
 10
3.891921068984584
 20
8.515445514193836
 30
0.0
 42
-0.9999999999999998
  0
VERTEX
  5
234
  8
CONSTRUCTION
 10
3.773810832764584
 20
8.515445514193836
 30
0.0
  0
SEQEND
  5
427
  8
CONSTRUCTION
  0
POLYLINE
  5
BF
  8
CONSTRUCTION
 66
     1
 10
0.0
 20
0.0
 30
0.0
 70
     1
  0
VERTEX
  5
235
  8
CONSTRUCTION
 10
2.91381793113754
 20
8.141429766163801
 30
0.0
 42
-0.4142135623730951
  0
VERTEX
  5
236
  8
CONSTRUCTION
 10
3.03192816735754
 20
8.259540002383801
 30
0.0
  0
VERTEX
  5
237
  8
CONSTRUCTION
 10
3.425628954757559
 20
8.259540002383801
 30
0.0
 42
-0.4142135623730951
  0
VERTEX
  5
238
  8
CONSTRUCTION
 10
3.543739190977558
 20
8.141429766163801
 30
0.0
  0
VERTEX
  5
239
  8
CONSTRUCTION
 10
3.543739190977558
 20
7.590248663803801
 30
0.0
 42
-0.4142135623730951
  0
VERTEX
  5
23A
  8
CONSTRUCTION
 10
3.425628954757559
 20
7.472138427583801
 30
0.0
  0
VERTEX
  5
23B
  8
CONSTRUCTION
 10
3.03192816735754
 20
7.472138427583801
 30
0.0
 42
-0.4142135623730951
  0
VERTEX
  5
23C
  8
CONSTRUCTION
 10
2.91381793113754
 20
7.590248663803801
 30
0.0
  0
SEQEND
  5
428
  8
CONSTRUCTION
  0
POLYLINE
  5
C0
  8
CONSTRUCTION
 66
     1
 10
0.0
 20
0.0
 30
0.0
 70
     1
  0
VERTEX
  5
23D
  8
CONSTRUCTION
 10
3.770117143732567
 20
4.249546228977695
 30
0.0
 42
0.9999999999999998
  0
VERTEX
  5
23E
  8
CONSTRUCTION
 10
3.888227379952567
 20
4.249546228977695
 30
0.0
  0
VERTEX
  5
23F
  8
CONSTRUCTION
 10
3.888227379952567
 20
4.918837567557695
 30
0.0
 42
0.9999999999999998
  0
VERTEX
  5
240
  8
CONSTRUCTION
 10
3.770117143732567
 20
4.918837567557695
 30
0.0
  0
SEQEND
  5
429
  8
CONSTRUCTION
  0
POLYLINE
  5
C1
  8
CONSTRUCTION
 66
     1
 10
0.0
 20
0.0
 30
0.0
 70
     1
  0
VERTEX
  5
241
  8
CONSTRUCTION
 10
2.910124242105531
 20
5.585251777100766
 30
0.0
  0
VERTEX
  5
242
  8
CONSTRUCTION
 10
2.910124242105531
 20
6.864779336150762
 30
0.0
 42
-0.4142135623730951
  0
VERTEX
  5
243
  8
CONSTRUCTION
 10
3.028234478325531
 20
6.982889572370766
 30
0.0
  0
VERTEX
  5
244
  8
CONSTRUCTION
 10
3.421935265725531
 20
6.982889572370766
 30
0.0
 42
-0.4142135623730951
  0
VERTEX
  5
245
  8
CONSTRUCTION
 10
3.540045501945531
 20
6.864779336150762
 30
0.0
  0
VERTEX
  5
246
  8
CONSTRUCTION
 10
3.540045501945531
 20
5.585251777100766
 30
0.0
 42
-0.4142135623730951
  0
VERTEX
  5
247
  8
CONSTRUCTION
 10
3.421935265725531
 20
5.467141540880766
 30
0.0
  0
VERTEX
  5
248
  8
CONSTRUCTION
 10
3.028234478325531
 20
5.467141540880766
 30
0.0
 42
-0.4142135623730951
  0
SEQEND
  5
42A
  8
CONSTRUCTION
  0
POLYLINE
  5
C2
  8
CONSTRUCTION
 66
     1
 10
0.0
 20
0.0
 30
0.0
 70
     1
  0
VERTEX
  5
249
  8
CONSTRUCTION
 10
2.565636053130513
 20
8.20048488427384
 30
0.0
 42
-0.9999999999999998
  0
VERTEX
  5
24A
  8
CONSTRUCTION
 10
2.683746289350513
 20
8.20048488427384
 30
0.0
  0
VERTEX
  5
24B
  8
CONSTRUCTION
 10
2.683746289350513
 20
7.531193545693836
 30
0.0
 42
-0.9999999999999998
  0
VERTEX
  5
24C
  8
CONSTRUCTION
 10
2.565636053130513
 20
7.531193545693836
 30
0.0
  0
SEQEND
  5
42B
  8
CONSTRUCTION
  0
POLYLINE
  5
C3
  8
CONSTRUCTION
 66
     1
 10
0.0
 20
0.0
 30
0.0
 70
     1
  0
VERTEX
  5
24D
  8
CONSTRUCTION
 10
2.91381793113754
 20
9.125681734663802
 30
0.0
  0
VERTEX
  5
24E
  8
CONSTRUCTION
 10
2.91381793113754
 20
8.574500632303804
 30
0.0
 42
0.4142135623730951
  0
VERTEX
  5
24F
  8
CONSTRUCTION
 10
3.03192816735754
 20
8.456390396083801
 30
0.0
  0
VERTEX
  5
250
  8
CONSTRUCTION
 10
3.425628954757559
 20
8.456390396083801
 30
0.0
 42
0.4142135623730951
  0
VERTEX
  5
251
  8
CONSTRUCTION
 10
3.543739190977558
 20
8.574500632303804
 30
0.0
  0
VERTEX
  5
252
  8
CONSTRUCTION
 10
3.543739190977558
 20
9.125681734663802
 30
0.0
 42
0.4142135623730951
  0
VERTEX
  5
253
  8
CONSTRUCTION
 10
3.425628954757559
 20
9.243791970883802
 30
0.0
  0
VERTEX
  5
254
  8
CONSTRUCTION
 10
3.03192816735754
 20
9.243791970883802
 30
0.0
 42
0.4142135623730951
  0
SEQEND
  5
42C
  8
CONSTRUCTION
  0
POLYLINE
  5
C4
  8
CONSTRUCTION
 66
     1
 10
0.0
 20
0.0
 30
0.0
 70
     1
  0
VERTEX
  5
255
  8
CONSTRUCTION
 10
2.910124242105522
 20
4.30860134708773
 30
0.0
 42
0.4142135623730951
  0
VERTEX
  5
256
  8
CONSTRUCTION
 10
3.028234478325522
 20
4.190491110867731
 30
0.0
  0
VERTEX
  5
257
  8
CONSTRUCTION
 10
3.42193526572554
 20
4.190491110867731
 30
0.0
 42
0.4142135623730951
  0
VERTEX
  5
258
  8
CONSTRUCTION
 10
3.54004550194554
 20
4.30860134708773
 30
0.0
  0
VERTEX
  5
259
  8
CONSTRUCTION
 10
3.54004550194554
 20
4.859782449447731
 30
0.0
 42
0.4142135623730951
  0
VERTEX
  5
25A
  8
CONSTRUCTION
 10
3.42193526572554
 20
4.97789268566773
 30
0.0
  0
VERTEX
  5
25B
  8
CONSTRUCTION
 10
3.028234478325522
 20
4.97789268566773
 30
0.0
 42
0.4142135623730951
  0
VERTEX
  5
25C
  8
CONSTRUCTION
 10
2.910124242105522
 20
4.859782449447731
 30
0.0
  0
SEQEND
  5
42D
  8
CONSTRUCTION
  0
POLYLINE
  5
C5
  8
CONSTRUCTION
 66
     1
 10
0.0
 20
0.0
 30
0.0
 70
     1
  0
VERTEX
  5
25D
  8
CONSTRUCTION
 10
3.770117143732567
 20
3.265294260477696
 30
0.0
 42
0.9999999999999998
  0
VERTEX
  5
25E
  8
CONSTRUCTION
 10
3.888227379952567
 20
3.265294260477696
 30
0.0
  0
VERTEX
  5
25F
  8
CONSTRUCTION
 10
3.888227379952567
 20
3.934585599057696
 30
0.0
 42
0.9999999999999998
  0
VERTEX
  5
260
  8
CONSTRUCTION
 10
3.770117143732567
 20
3.934585599057696
 30
0.0
  0
SEQEND
  5
42E
  8
CONSTRUCTION
  0
POLYLINE
  5
C6
  8
CONSTRUCTION
 66
     1
 10
0.0
 20
0.0
 30
0.0
 70
     1
  0
VERTEX
  5
261
  8
CONSTRUCTION
 10
2.565636053130513
 20
9.18473685277384
 30
0.0
 42
-0.9999999999999998
  0
VERTEX
  5
262
  8
CONSTRUCTION
 10
2.683746289350513
 20
9.18473685277384
 30
0.0
  0
VERTEX
  5
263
  8
CONSTRUCTION
 10
2.683746289350513
 20
8.515445514193836
 30
0.0
 42
-0.9999999999999998
  0
VERTEX
  5
264
  8
CONSTRUCTION
 10
2.565636053130513
 20
8.515445514193836
 30
0.0
  0
SEQEND
  5
42F
  8
CONSTRUCTION
  0
POLYLINE
  5
C7
  8
CONSTRUCTION
 66
     1
 10
0.0
 20
0.0
 30
0.0
 70
     1
  0
VERTEX
  5
265
  8
CONSTRUCTION
 10
2.561942364098496
 20
4.249546228977695
 30
0.0
 42
0.9999999999999998
  0
VERTEX
  5
266
  8
CONSTRUCTION
 10
2.680052600318496
 20
4.249546228977695
 30
0.0
  0
VERTEX
  5
267
  8
CONSTRUCTION
 10
2.680052600318496
 20
4.918837567557695
 30
0.0
 42
0.9999999999999998
  0
VERTEX
  5
268
  8
CONSTRUCTION
 10
2.561942364098496
 20
4.918837567557695
 30
0.0
  0
SEQEND
  5
430
  8
CONSTRUCTION
  0
POLYLINE
  5
C8
  8
CONSTRUCTION
 66
     1
 10
0.0
 20
0.0
 30
0.0
 70
     1
  0
VERTEX
  5
269
  8
CONSTRUCTION
 10
2.910124242105522
 20
3.324349378587732
 30
0.0
 42
0.4142135623730951
  0
VERTEX
  5
26A
  8
CONSTRUCTION
 10
3.028234478325522
 20
3.206239142367733
 30
0.0
  0
VERTEX
  5
26B
  8
CONSTRUCTION
 10
3.42193526572554
 20
3.206239142367733
 30
0.0
 42
0.4142135623730951
  0
VERTEX
  5
26C
  8
CONSTRUCTION
 10
3.54004550194554
 20
3.324349378587732
 30
0.0
  0
VERTEX
  5
26D
  8
CONSTRUCTION
 10
3.54004550194554
 20
3.875530480947732
 30
0.0
 42
0.4142135623730951
  0
VERTEX
  5
26E
  8
CONSTRUCTION
 10
3.42193526572554
 20
3.993640717167731
 30
0.0
  0
VERTEX
  5
26F
  8
CONSTRUCTION
 10
3.028234478325522
 20
3.993640717167731
 30
0.0
 42
0.4142135623730951
  0
VERTEX
  5
270
  8
CONSTRUCTION
 10
2.910124242105522
 20
3.875530480947732
 30
0.0
  0
SEQEND
  5
431
  8
CONSTRUCTION
  0
POLYLINE
  5
C9
  8
CONSTRUCTION
 66
     1
 10
0.0
 20
0.0
 30
0.0
 70
     1
  0
VERTEX
  5
271
  8
CONSTRUCTION
 10
3.770117143732567
 20
2.281042291977697
 30
0.0
  0
VERTEX
  5
272
  8
CONSTRUCTION
 10
3.770117143732567
 20
2.950333630557696
 30
0.0
 42
-0.9999999999999998
  0
VERTEX
  5
273
  8
CONSTRUCTION
 10
3.888227379952567
 20
2.950333630557696
 30
0.0
  0
VERTEX
  5
274
  8
CONSTRUCTION
 10
3.888227379952567
 20
2.281042291977697
 30
0.0
 42
-0.9999999999999998
  0
SEQEND
  5
432
  8
CONSTRUCTION
  0
POLYLINE
  5
CA
  8
CONSTRUCTION
 66
     1
 10
0.0
 20
0.0
 30
0.0
 70
     1
  0
VERTEX
  5
275
  8
CONSTRUCTION
 10
2.561942364098496
 20
3.265294260477696
 30
0.0
 42
0.9999999999999998
  0
VERTEX
  5
276
  8
CONSTRUCTION
 10
2.680052600318496
 20
3.265294260477696
 30
0.0
  0
VERTEX
  5
277
  8
CONSTRUCTION
 10
2.680052600318496
 20
3.934585599057696
 30
0.0
 42
0.9999999999999998
  0
VERTEX
  5
278
  8
CONSTRUCTION
 10
2.561942364098496
 20
3.934585599057696
 30
0.0
  0
SEQEND
  5
433
  8
CONSTRUCTION
  0
POLYLINE
  5
CB
  8
CONSTRUCTION
 66
     1
 10
0.0
 20
0.0
 30
0.0
 70
     1
  0
VERTEX
  5
279
  8
CONSTRUCTION
 10
3.028234478325522
 20
2.221987173867732
 30
0.0
  0
VERTEX
  5
27A
  8
CONSTRUCTION
 10
3.42193526572554
 20
2.221987173867732
 30
0.0
 42
0.4142135623730951
  0
VERTEX
  5
27B
  8
CONSTRUCTION
 10
3.54004550194554
 20
2.340097410087732
 30
0.0
  0
VERTEX
  5
27C
  8
CONSTRUCTION
 10
3.54004550194554
 20
2.891278512447732
 30
0.0
 42
0.4142135623730951
  0
VERTEX
  5
27D
  8
CONSTRUCTION
 10
3.42193526572554
 20
3.009388748667733
 30
0.0
  0
VERTEX
  5
27E
  8
CONSTRUCTION
 10
3.028234478325522
 20
3.009388748667733
 30
0.0
 42
0.4142135623730951
  0
VERTEX
  5
27F
  8
CONSTRUCTION
 10
2.910124242105522
 20
2.891278512447732
 30
0.0
  0
VERTEX
  5
280
  8
CONSTRUCTION
 10
2.910124242105522
 20
2.340097410087732
 30
0.0
 42
0.4142135623730951
  0
SEQEND
  5
434
  8
CONSTRUCTION
  0
POLYLINE
  5
CC
  8
CONSTRUCTION
 66
     1
 10
0.0
 20
0.0
 30
0.0
 70
     1
  0
VERTEX
  5
281
  8
CONSTRUCTION
 10
2.561942364098496
 20
2.281042291977697
 30
0.0
 42
0.9999999999999998
  0
VERTEX
  5
282
  8
CONSTRUCTION
 10
2.680052600318496
 20
2.281042291977697
 30
0.0
  0
VERTEX
  5
283
  8
CONSTRUCTION
 10
2.680052600318496
 20
2.950333630557696
 30
0.0
 42
0.9999999999999998
  0
VERTEX
  5
284
  8
CONSTRUCTION
 10
2.561942364098496
 20
2.950333630557696
 30
0.0
  0
SEQEND
  5
435
  8
CONSTRUCTION
  0
POLYLINE
  5
CD
  8
CONSTRUCTION
 66
     1
 10
0.0
 20
0.0
 30
0.0
 70
     1
  0
VERTEX
  5
285
  8
CONSTRUCTION
 10
3.770117143732567
 20
1.296790323477696
 30
0.0
 42
0.9999999999999998
  0
VERTEX
  5
286
  8
CONSTRUCTION
 10
3.888227379952567
 20
1.296790323477696
 30
0.0
  0
VERTEX
  5
287
  8
CONSTRUCTION
 10
3.888227379952567
 20
1.966081662057696
 30
0.0
 42
0.9999999999999998
  0
VERTEX
  5
288
  8
CONSTRUCTION
 10
3.770117143732567
 20
1.966081662057696
 30
0.0
  0
SEQEND
  5
436
  8
CONSTRUCTION
  0
POLYLINE
  5
CE
  8
CONSTRUCTION
 66
     1
 10
0.0
 20
0.0
 30
0.0
 70
     1
  0
VERTEX
  5
289
  8
CONSTRUCTION
 10
3.028234478325522
 20
1.237735205367732
 30
0.0
 42
-0.4142135623730951
  0
VERTEX
  5
28A
  8
CONSTRUCTION
 10
2.910124242105522
 20
1.355845441587732
 30
0.0
  0
VERTEX
  5
28B
  8
CONSTRUCTION
 10
2.910124242105522
 20
1.907026543947732
 30
0.0
 42
-0.4142135623730951
  0
VERTEX
  5
28C
  8
CONSTRUCTION
 10
3.028234478325522
 20
2.025136780167732
 30
0.0
  0
VERTEX
  5
28D
  8
CONSTRUCTION
 10
3.42193526572554
 20
2.025136780167732
 30
0.0
 42
-0.4142135623730951
  0
VERTEX
  5
28E
  8
CONSTRUCTION
 10
3.54004550194554
 20
1.907026543947732
 30
0.0
  0
VERTEX
  5
28F
  8
CONSTRUCTION
 10
3.54004550194554
 20
1.355845441587732
 30
0.0
 42
-0.4142135623730951
  0
VERTEX
  5
290
  8
CONSTRUCTION
 10
3.42193526572554
 20
1.237735205367732
 30
0.0
  0
SEQEND
  5
437
  8
CONSTRUCTION
  0
POLYLINE
  5
CF
  8
CONSTRUCTION
 66
     1
 10
0.0
 20
0.0
 30
0.0
 70
     1
  0
VERTEX
  5
291
  8
CONSTRUCTION
 10
2.561942364098496
 20
1.296790323477696
 30
0.0
 42
0.9999999999999998
  0
VERTEX
  5
292
  8
CONSTRUCTION
 10
2.680052600318496
 20
1.296790323477696
 30
0.0
  0
VERTEX
  5
293
  8
CONSTRUCTION
 10
2.680052600318496
 20
1.966081662057696
 30
0.0
 42
0.9999999999999998
  0
VERTEX
  5
294
  8
CONSTRUCTION
 10
2.561942364098496
 20
1.966081662057696
 30
0.0
  0
SEQEND
  5
438
  8
CONSTRUCTION
  0
POLYLINE
  5
D0
  8
CONSTRUCTION
 66
     1
 10
0.0
 20
0.0
 30
0.0
 70
     1
  0
VERTEX
  5
295
  8
CONSTRUCTION
 10
2.57547857281553
 20
0.9100549267257668
 30
0.0
  0
VERTEX
  5
296
  8
CONSTRUCTION
 10
3.874691171235531
 20
0.9100549267257668
 30
0.0
 42
0.4142135623730964
  0
VERTEX
  5
297
  8
CONSTRUCTION
 10
4.11091164367553
 20
1.146275399165767
 30
0.0
  0
VERTEX
  5
298
  8
CONSTRUCTION
 10
4.110911643675529
 20
2.270201679469011
 30
0.0
 42
-0.3865446749097017
  0
VERTEX
  5
299
  8
CONSTRUCTION
 10
4.324634928264102
 20
2.505348416930015
 30
0.0
 42
0.3865446749097036
  0
VERTEX
  5
29A
  8
CONSTRUCTION
 10
4.484927391705529
 20
2.681708470025766
 30
0.0
  0
VERTEX
  5
29B
  8
CONSTRUCTION
 10
4.484927391705529
 20
3.154149414905766
 30
0.0
 42
0.3865446749097047
  0
VERTEX
  5
29C
  8
CONSTRUCTION
 10
4.324634928264097
 20
3.330509468001519
 30
0.0
 42
-0.3865446749097026
  0
VERTEX
  5
29D
  8
CONSTRUCTION
 10
4.110911643675525
 20
3.565656205462523
 30
0.0
  0
VERTEX
  5
29E
  8
CONSTRUCTION
 10
4.110911643675525
 20
4.63240640386901
 30
0.0
 42
-0.3865446749097026
  0
VERTEX
  5
29F
  8
CONSTRUCTION
 10
4.324634928264102
 20
4.867553141330013
 30
0.0
 42
0.9088932591464128
  0
VERTEX
  5
2A0
  8
CONSTRUCTION
 10
4.324634928264097
 20
5.220273247521518
 30
0.0
 42
-0.3865446749096985
  0
VERTEX
  5
2A1
  8
CONSTRUCTION
 10
4.110911643675522
 20
5.45541998498252
 30
0.0
  0
VERTEX
  5
2A2
  8
CONSTRUCTION
 10
4.110911643675525
 20
5.81350876606901
 30
0.0
 42
-0.3865446749097033
  0
VERTEX
  5
2A3
  8
CONSTRUCTION
 10
4.324634928264102
 20
6.048655503530014
 30
0.0
 42
0.9088932591464128
  0
VERTEX
  5
2A4
  8
CONSTRUCTION
 10
4.324634928264097
 20
6.401375609721518
 30
0.0
 42
-0.3865446749096985
  0
VERTEX
  5
2A5
  8
CONSTRUCTION
 10
4.110911643675522
 20
6.636522347182521
 30
0.0
  0
VERTEX
  5
2A6
  8
CONSTRUCTION
 10
4.110911643675525
 20
6.99461112826901
 30
0.0
 42
-0.3865446749097033
  0
VERTEX
  5
2A7
  8
CONSTRUCTION
 10
4.324634928264102
 20
7.229757865730014
 30
0.0
 42
0.9088932591464128
  0
VERTEX
  5
2A8
  8
CONSTRUCTION
 10
4.324634928264097
 20
7.582477971921517
 30
0.0
 42
-0.3865446749096985
  0
VERTEX
  5
2A9
  8
CONSTRUCTION
 10
4.110911643675522
 20
7.817624709382521
 30
0.0
  0
VERTEX
  5
2AA
  8
CONSTRUCTION
 10
4.110911643675522
 20
8.88437490778901
 30
0.0
 42
-0.3865446749097033
  0
VERTEX
  5
2AB
  8
CONSTRUCTION
 10
4.324634928264097
 20
9.119521645250014
 30
0.0
 42
0.3865446749097079
  0
VERTEX
  5
2AC
  8
CONSTRUCTION
 10
4.484927391705529
 20
9.295881698345767
 30
0.0
  0
VERTEX
  5
2AD
  8
CONSTRUCTION
 10
4.484927391705529
 20
11.30375571408577
 30
0.0
 42
0.4142135623730923
  0
VERTEX
  5
2AE
  8
CONSTRUCTION
 10
4.248706919265529
 20
11.53997618652577
 30
0.0
  0
VERTEX
  5
2AF
  8
CONSTRUCTION
 10
2.201462824785531
 20
11.53997618652577
 30
0.0
 42
0.4142135623730911
  0
VERTEX
  5
2B0
  8
CONSTRUCTION
 10
1.965242352345531
 20
11.30375571408577
 30
0.0
  0
VERTEX
  5
2B1
  8
CONSTRUCTION
 10
1.965242352345531
 20
9.295881698345767
 30
0.0
 42
0.3865446749097062
  0
VERTEX
  5
2B2
  8
CONSTRUCTION
 10
2.125534815786963
 20
9.119521645250014
 30
0.0
 42
-0.3865446749096998
  0
VERTEX
  5
2B3
  8
CONSTRUCTION
 10
2.33925810037554
 20
8.88437490778901
 30
0.0
  0
VERTEX
  5
2B4
  8
CONSTRUCTION
 10
2.33925810037554
 20
7.817624709382521
 30
0.0
 42
-0.3865446749097046
  0
VERTEX
  5
2B5
  8
CONSTRUCTION
 10
2.125534815786963
 20
7.582477971921517
 30
0.0
 42
0.9088932591464137
  0
VERTEX
  5
2B6
  8
CONSTRUCTION
 10
2.125534815786959
 20
7.229757865730014
 30
0.0
 42
-0.3865446749096998
  0
VERTEX
  5
2B7
  8
CONSTRUCTION
 10
2.339258100375535
 20
6.99461112826901
 30
0.0
  0
VERTEX
  5
2B8
  8
CONSTRUCTION
 10
2.33925810037554
 20
6.636522347182521
 30
0.0
 42
-0.3865446749097046
  0
VERTEX
  5
2B9
  8
CONSTRUCTION
 10
2.125534815786963
 20
6.401375609721518
 30
0.0
 42
0.9088932591464137
  0
VERTEX
  5
2BA
  8
CONSTRUCTION
 10
2.125534815786959
 20
6.048655503530014
 30
0.0
 42
-0.3865446749096998
  0
VERTEX
  5
2BB
  8
CONSTRUCTION
 10
2.339258100375535
 20
5.81350876606901
 30
0.0
  0
VERTEX
  5
2BC
  8
CONSTRUCTION
 10
2.33925810037554
 20
5.45541998498252
 30
0.0
 42
-0.3865446749097046
  0
VERTEX
  5
2BD
  8
CONSTRUCTION
 10
2.125534815786963
 20
5.220273247521518
 30
0.0
 42
0.9088932591464137
  0
VERTEX
  5
2BE
  8
CONSTRUCTION
 10
2.125534815786959
 20
4.867553141330013
 30
0.0
 42
-0.3865446749097039
  0
VERTEX
  5
2BF
  8
CONSTRUCTION
 10
2.339258100375535
 20
4.63240640386901
 30
0.0
  0
VERTEX
  5
2C0
  8
CONSTRUCTION
 10
2.339258100375535
 20
3.565656205462523
 30
0.0
 42
-0.3865446749097039
  0
VERTEX
  5
2C1
  8
CONSTRUCTION
 10
2.125534815786963
 20
3.330509468001519
 30
0.0
 42
0.3865446749097035
  0
VERTEX
  5
2C2
  8
CONSTRUCTION
 10
1.965242352345531
 20
3.154149414905766
 30
0.0
  0
VERTEX
  5
2C3
  8
CONSTRUCTION
 10
1.965242352345531
 20
2.681708470025766
 30
0.0
 42
0.3865446749097018
  0
VERTEX
  5
2C4
  8
CONSTRUCTION
 10
2.125534815786959
 20
2.505348416930015
 30
0.0
 42
-0.3865446749097031
  0
VERTEX
  5
2C5
  8
CONSTRUCTION
 10
2.339258100375531
 20
2.270201679469011
 30
0.0
  0
VERTEX
  5
2C6
  8
CONSTRUCTION
 10
2.339258100375531
 20
1.146275399165767
 30
0.0
 42
0.4142135623730946
  0
SEQEND
  5
439
  8
CONSTRUCTION
  0
POLYLINE
  5
D1
  8
CONSTRUCTION
 66
     1
 10
0.0
 20
0.0
 30
0.0
 70
     1
  0
VERTEX
  5
2C7
  8
CONSTRUCTION
 10
24.49599970293046
 20
4.144803131075433
 30
0.0
  0
VERTEX
  5
2C8
  8
CONSTRUCTION
 10
24.22105094304038
 20
4.333828578089731
 30
0.0
 42
-0.2678680104147234
  0
VERTEX
  5
2C9
  8
CONSTRUCTION
 10
24.11938054913423
 20
4.546981017466607
 30
0.0
  0
VERTEX
  5
2CA
  8
CONSTRUCTION
 10
24.31959557697027
 20
7.096127376505422
 30
0.0
 42
0.2828679375762325
  0
VERTEX
  5
2CB
  8
CONSTRUCTION
 10
24.20686676085016
 20
7.316436724366714
 30
0.0
 42
-0.2841536287741894
  0
VERTEX
  5
2CC
  8
CONSTRUCTION
 10
24.0942286574501
 20
7.537866851299595
 30
0.0
  0
VERTEX
  5
2CD
  8
CONSTRUCTION
 10
24.15738358668506
 20
8.295726002118933
 30
0.0
 42
-0.5175688287136513
  0
VERTEX
  5
2CE
  8
CONSTRUCTION
 10
25.10226547644501
 20
8.295726002118933
 30
0.0
  0
VERTEX
  5
2CF
  8
CONSTRUCTION
 10
25.16542040567998
 20
7.537866851299595
 30
0.0
 42
-0.2841536287741894
  0
VERTEX
  5
2D0
  8
CONSTRUCTION
 10
25.05278230227993
 20
7.316436724366714
 30
0.0
 42
0.2828679375762325
  0
VERTEX
  5
2D1
  8
CONSTRUCTION
 10
24.9400534861598
 20
7.096127376505422
 30
0.0
  0
VERTEX
  5
2D2
  8
CONSTRUCTION
 10
25.14026851399585
 20
4.546981017466612
 30
0.0
 42
-0.267868010414723
  0
VERTEX
  5
2D3
  8
CONSTRUCTION
 10
25.03859812008969
 20
4.333828578089731
 30
0.0
  0
VERTEX
  5
2D4
  8
CONSTRUCTION
 10
24.76364936019961
 20
4.144803131075426
 30
0.0
 42
-0.3105873319671332
  0
SEQEND
  5
43A
  8
CONSTRUCTION
  0
POLYLINE
  5
D2
  8
CONSTRUCTION
 66
     1
 10
0.0
 20
0.0
 30
0.0
 70
     1
  0
VERTEX
  5
2D5
  8
CONSTRUCTION
 10
22.1894492045657
 20
4.626819758633562
 30
0.0
 42
0.3105873319671332
  0
VERTEX
  5
2D6
  8
CONSTRUCTION
 10
22.45709886183485
 20
4.626819758633569
 30
0.0
  0
VERTEX
  5
2D7
  8
CONSTRUCTION
 10
22.69478851055386
 20
4.790229814084427
 30
0.0
 42
0.2678680104147584
  0
VERTEX
  5
2D8
  8
CONSTRUCTION
 10
22.79645890446004
 20
5.00338225346132
 30
0.0
  0
VERTEX
  5
2D9
  8
CONSTRUCTION
 10
22.63350298779505
 20
7.078144004065561
 30
0.0
 42
-0.2828679375762325
  0
VERTEX
  5
2DA
  8
CONSTRUCTION
 10
22.74623180391517
 20
7.298453351926854
 30
0.0
 42
0.2841536287741894
  0
VERTEX
  5
2DB
  8
CONSTRUCTION
 10
22.85886990731522
 20
7.519883478859738
 30
0.0
  0
VERTEX
  5
2DC
  8
CONSTRUCTION
 10
22.79571497808025
 20
8.27774262967907
 30
0.0
 42
0.5175688287136513
  0
VERTEX
  5
2DD
  8
CONSTRUCTION
 10
21.85083308832029
 20
8.27774262967907
 30
0.0
  0
VERTEX
  5
2DE
  8
CONSTRUCTION
 10
21.78767815908534
 20
7.519883478859738
 30
0.0
 42
0.2841536287741894
  0
VERTEX
  5
2DF
  8
CONSTRUCTION
 10
21.9003162624854
 20
7.298453351926854
 30
0.0
 42
-0.2828679375762325
  0
VERTEX
  5
2E0
  8
CONSTRUCTION
 10
22.01304507860552
 20
7.078144004065561
 30
0.0
  0
VERTEX
  5
2E1
  8
CONSTRUCTION
 10
21.85008916194052
 20
5.003382253461313
 30
0.0
 42
0.2678680104147414
  0
VERTEX
  5
2E2
  8
CONSTRUCTION
 10
21.9517595558467
 20
4.790229814084427
 30
0.0
  0
SEQEND
  5
43B
  8
CONSTRUCTION
  0
POLYLINE
  5
D3
  8
CONSTRUCTION
 66
     1
 10
0.0
 20
0.0
 30
0.0
 70
     1
  0
VERTEX
  5
2E3
  8
CONSTRUCTION
 10
16.46093167605304
 20
7.757235100642432
 30
0.0
 42
-0.414213562373097
  0
VERTEX
  5
2E4
  8
CONSTRUCTION
 10
16.34282143983304
 20
7.875345336862436
 30
0.0
  0
VERTEX
  5
2E5
  8
CONSTRUCTION
 10
16.34282143983304
 20
8.426526439222432
 30
0.0
 42
-0.414213562373097
  0
VERTEX
  5
2E6
  8
CONSTRUCTION
 10
16.46093167605304
 20
8.544636675442431
 30
0.0
  0
VERTEX
  5
2E7
  8
CONSTRUCTION
 10
16.54234627652386
 20
8.544636675442433
 30
0.0
 42
-0.1517667759252704
  0
VERTEX
  5
2E8
  8
CONSTRUCTION
 10
16.60927686546435
 20
8.523842029772066
 30
0.0
  0
VERTEX
  5
2E9
  8
CONSTRUCTION
 10
17.11685927156614
 20
8.174742885592341
 30
0.0
 42
-0.5963397068446226
  0
VERTEX
  5
2EA
  8
CONSTRUCTION
 10
17.09463918266507
 20
7.968106669879068
 30
0.0
  0
VERTEX
  5
2EB
  8
CONSTRUCTION
 10
16.60053319004403
 20
7.766024711698783
 30
0.0
 42
-0.0973629191843575
  0
VERTEX
  5
2EC
  8
CONSTRUCTION
 10
16.55582269000463
 20
7.757235100642431
 30
0.0
  0
SEQEND
  5
43C
  8
CONSTRUCTION
  0
POLYLINE
  5
D4
  8
CONSTRUCTION
 66
     1
 10
0.0
 20
0.0
 30
0.0
 70
     1
  0
VERTEX
  5
2ED
  8
CONSTRUCTION
 10
15.43352338204102
 20
7.968106669879065
 30
0.0
  0
VERTEX
  5
2EE
  8
CONSTRUCTION
 10
15.92762937466205
 20
7.766024711698783
 30
0.0
 42
0.0973629191843339
  0
VERTEX
  5
2EF
  8
CONSTRUCTION
 10
15.97233987470145
 20
7.757235100642431
 30
0.0
  0
VERTEX
  5
2F0
  8
CONSTRUCTION
 10
16.06723088865305
 20
7.757235100642432
 30
0.0
 42
0.414213562373097
  0
VERTEX
  5
2F1
  8
CONSTRUCTION
 10
16.18534112487304
 20
7.875345336862434
 30
0.0
  0
VERTEX
  5
2F2
  8
CONSTRUCTION
 10
16.18534112487304
 20
8.426526439222432
 30
0.0
 42
0.414213562373097
  0
VERTEX
  5
2F3
  8
CONSTRUCTION
 10
16.06723088865304
 20
8.544636675442431
 30
0.0
  0
VERTEX
  5
2F4
  8
CONSTRUCTION
 10
15.98581628818222
 20
8.544636675442433
 30
0.0
 42
0.15176677592527
  0
VERTEX
  5
2F5
  8
CONSTRUCTION
 10
15.91888569924173
 20
8.523842029772066
 30
0.0
  0
VERTEX
  5
2F6
  8
CONSTRUCTION
 10
15.41130329313995
 20
8.174742885592341
 30
0.0
 42
0.5963397068446115
  0
SEQEND
  5
43D
  8
CONSTRUCTION
  0
POLYLINE
  5
D5
  8
CONSTRUCTION
 66
     1
 10
0.0
 20
0.0
 30
0.0
 70
     1
  0
VERTEX
  5
2F7
  8
CONSTRUCTION
 10
16.06723088865304
 20
5.752238213939397
 30
0.0
  0
VERTEX
  5
2F8
  8
CONSTRUCTION
 10
16.46093167605304
 20
5.752238213939397
 30
0.0
 42
0.4142135623730951
  0
VERTEX
  5
2F9
  8
CONSTRUCTION
 10
16.57904191227304
 20
5.870348450159397
 30
0.0
  0
VERTEX
  5
2FA
  8
CONSTRUCTION
 10
16.57904191227304
 20
7.149876009209393
 30
0.0
 42
0.4142135623730951
  0
VERTEX
  5
2FB
  8
CONSTRUCTION
 10
16.46093167605304
 20
7.267986245429394
 30
0.0
  0
VERTEX
  5
2FC
  8
CONSTRUCTION
 10
16.06723088865304
 20
7.267986245429394
 30
0.0
 42
0.4142135623730951
  0
VERTEX
  5
2FD
  8
CONSTRUCTION
 10
15.94912065243304
 20
7.149876009209393
 30
0.0
  0
VERTEX
  5
2FE
  8
CONSTRUCTION
 10
15.94912065243304
 20
5.870348450159397
 30
0.0
 42
0.4142135623730951
  0
SEQEND
  5
43E
  8
CONSTRUCTION
  0
POLYLINE
  5
D6
  8
CONSTRUCTION
 66
     1
 10
0.0
 20
0.0
 30
0.0
 70
     1
  0
VERTEX
  5
2FF
  8
CONSTRUCTION
 10
16.46093167605304
 20
4.475587783926362
 30
0.0
  0
VERTEX
  5
300
  8
CONSTRUCTION
 10
16.54234627652386
 20
4.475587783926361
 30
0.0
 42
0.1517667759252777
  0
VERTEX
  5
301
  8
CONSTRUCTION
 10
16.60927686546435
 20
4.496382429596727
 30
0.0
  0
VERTEX
  5
302
  8
CONSTRUCTION
 10
17.11685927156614
 20
4.845481573776452
 30
0.0
 42
0.5963397068446219
  0
VERTEX
  5
303
  8
CONSTRUCTION
 10
17.09463918266507
 20
5.052117789489722
 30
0.0
  0
VERTEX
  5
304
  8
CONSTRUCTION
 10
16.60053319004404
 20
5.254199747670007
 30
0.0
 42
0.0973629191843575
  0
VERTEX
  5
305
  8
CONSTRUCTION
 10
16.55582269000463
 20
5.262989358726358
 30
0.0
  0
VERTEX
  5
306
  8
CONSTRUCTION
 10
16.46093167605304
 20
5.262989358726357
 30
0.0
 42
0.4142135623730998
  0
VERTEX
  5
307
  8
CONSTRUCTION
 10
16.34282143983304
 20
5.144879122506355
 30
0.0
  0
VERTEX
  5
308
  8
CONSTRUCTION
 10
16.34282143983304
 20
4.593698020146361
 30
0.0
 42
0.4142135623731004
  0
SEQEND
  5
43F
  8
CONSTRUCTION
  0
POLYLINE
  5
D7
  8
CONSTRUCTION
 66
     1
 10
0.0
 20
0.0
 30
0.0
 70
     1
  0
VERTEX
  5
309
  8
CONSTRUCTION
 10
15.41130329313995
 20
4.845481573776452
 30
0.0
  0
VERTEX
  5
30A
  8
CONSTRUCTION
 10
15.91888569924174
 20
4.496382429596723
 30
0.0
 42
0.1517667759252511
  0
VERTEX
  5
30B
  8
CONSTRUCTION
 10
15.98581628818222
 20
4.475587783926361
 30
0.0
  0
VERTEX
  5
30C
  8
CONSTRUCTION
 10
16.06723088865304
 20
4.475587783926362
 30
0.0
 42
0.4142135623730989
  0
VERTEX
  5
30D
  8
CONSTRUCTION
 10
16.18534112487304
 20
4.593698020146361
 30
0.0
  0
VERTEX
  5
30E
  8
CONSTRUCTION
 10
16.18534112487304
 20
5.144879122506354
 30
0.0
 42
0.4142135623730998
  0
VERTEX
  5
30F
  8
CONSTRUCTION
 10
16.06723088865305
 20
5.262989358726357
 30
0.0
  0
VERTEX
  5
310
  8
CONSTRUCTION
 10
15.97233987470145
 20
5.262989358726358
 30
0.0
 42
0.0973629191843291
  0
VERTEX
  5
311
  8
CONSTRUCTION
 10
15.92762937466205
 20
5.254199747670008
 30
0.0
  0
VERTEX
  5
312
  8
CONSTRUCTION
 10
15.43352338204101
 20
5.052117789489722
 30
0.0
 42
0.5963397068446096
  0
SEQEND
  5
440
  8
CONSTRUCTION
  0
POLYLINE
  5
D8
  8
CONSTRUCTION
 66
     1
 10
0.0
 20
0.0
 30
0.0
 70
     1
  0
VERTEX
  5
313
  8
CONSTRUCTION
 10
10.2442897046018
 20
8.15560032770569
 30
0.0
  0
VERTEX
  5
314
  8
CONSTRUCTION
 10
10.2442897046018
 20
8.824891666285685
 30
0.0
 42
-0.9999999999999998
  0
VERTEX
  5
315
  8
CONSTRUCTION
 10
10.3623999408218
 20
8.824891666285685
 30
0.0
  0
VERTEX
  5
316
  8
CONSTRUCTION
 10
10.3623999408218
 20
8.15560032770569
 30
0.0
 42
-0.9999999999999998
  0
SEQEND
  5
441
  8
CONSTRUCTION
  0
POLYLINE
  5
D9
  8
CONSTRUCTION
 66
     1
 10
0.0
 20
0.0
 30
0.0
 70
     1
  0
VERTEX
  5
317
  8
CONSTRUCTION
 10
9.50240703919476
 20
8.096545209595654
 30
0.0
 42
-0.4142135623730951
  0
VERTEX
  5
318
  8
CONSTRUCTION
 10
9.384296802974754
 20
8.21465544581565
 30
0.0
  0
VERTEX
  5
319
  8
CONSTRUCTION
 10
9.384296802974754
 20
8.765836548175649
 30
0.0
 42
-0.4142135623730951
  0
VERTEX
  5
31A
  8
CONSTRUCTION
 10
9.50240703919476
 20
8.883946784395654
 30
0.0
  0
VERTEX
  5
31B
  8
CONSTRUCTION
 10
9.896107826594774
 20
8.883946784395654
 30
0.0
 42
-0.4142135623730951
  0
VERTEX
  5
31C
  8
CONSTRUCTION
 10
10.01421806281478
 20
8.765836548175649
 30
0.0
  0
VERTEX
  5
31D
  8
CONSTRUCTION
 10
10.01421806281478
 20
8.21465544581565
 30
0.0
 42
-0.4142135623730951
  0
VERTEX
  5
31E
  8
CONSTRUCTION
 10
9.896107826594774
 20
8.096545209595654
 30
0.0
  0
SEQEND
  5
442
  8
CONSTRUCTION
  0
POLYLINE
  5
DA
  8
CONSTRUCTION
 66
     1
 10
0.0
 20
0.0
 30
0.0
 70
     1
  0
VERTEX
  5
31F
  8
CONSTRUCTION
 10
9.15422516118773
 20
8.15560032770569
 30
0.0
 42
-0.9999999999999998
  0
VERTEX
  5
320
  8
CONSTRUCTION
 10
9.03611492496773
 20
8.15560032770569
 30
0.0
  0
VERTEX
  5
321
  8
CONSTRUCTION
 10
9.03611492496773
 20
8.824891666285685
 30
0.0
 42
-0.9999999999999998
  0
VERTEX
  5
322
  8
CONSTRUCTION
 10
9.15422516118773
 20
8.824891666285685
 30
0.0
  0
SEQEND
  5
443
  8
CONSTRUCTION
  0
POLYLINE
  5
DB
  8
CONSTRUCTION
 66
     1
 10
0.0
 20
0.0
 30
0.0
 70
     1
  0
VERTEX
  5
323
  8
CONSTRUCTION
 10
14.30488376354286
 20
3.757944637129978
 30
0.0
  0
VERTEX
  5
324
  8
CONSTRUCTION
 10
15.02282230890483
 20
3.264169185604094
 30
0.0
 42
0.3132669095693207
  0
VERTEX
  5
325
  8
CONSTRUCTION
 10
15.2901362178568
 20
3.229538096119297
 30
0.0
  0
VERTEX
  5
326
  8
CONSTRUCTION
 10
15.90164094617384
 20
3.546598944429878
 30
0.0
 42
-0.2438330574570641
  0
VERTEX
  5
327
  8
CONSTRUCTION
 10
16.62652161853224
 20
3.546598944429878
 30
0.0
  0
VERTEX
  5
328
  8
CONSTRUCTION
 10
17.2380263468493
 20
3.229538096119286
 30
0.0
 42
0.3132669095692228
  0
VERTEX
  5
329
  8
CONSTRUCTION
 10
17.50534025580124
 20
3.26416918560408
 30
0.0
  0
VERTEX
  5
32A
  8
CONSTRUCTION
 10
18.2232788011632
 20
3.757944637129966
 30
0.0
 42
0.1560640544479837
  0
VERTEX
  5
32B
  8
CONSTRUCTION
 10
18.31139225811269
 20
3.871783658388874
 30
0.0
  0
VERTEX
  5
32C
  8
CONSTRUCTION
 10
18.45951121782007
 20
4.278737155577994
 30
0.0
 42
0.4302386564764475
  0
VERTEX
  5
32D
  8
CONSTRUCTION
 10
18.30613942247731
 20
4.585568608493716
 30
0.0
 42
-0.3303165461674304
  0
VERTEX
  5
32E
  8
CONSTRUCTION
 10
17.52392380203304
 20
5.640418642845387
 30
0.0
  0
VERTEX
  5
32F
  8
CONSTRUCTION
 10
17.52392380203305
 20
7.379805816523408
 30
0.0
 42
-0.3303165461674308
  0
VERTEX
  5
330
  8
CONSTRUCTION
 10
18.30613942247731
 20
8.43465585087508
 30
0.0
 42
0.4302386564765141
  0
VERTEX
  5
331
  8
CONSTRUCTION
 10
18.45951121782007
 20
8.74148730379082
 30
0.0
  0
VERTEX
  5
332
  8
CONSTRUCTION
 10
18.31139225811268
 20
9.14844080097994
 30
0.0
 42
0.156064054447918
  0
VERTEX
  5
333
  8
CONSTRUCTION
 10
18.2232788011632
 20
9.262279822238824
 30
0.0
  0
VERTEX
  5
334
  8
CONSTRUCTION
 10
17.50534025580128
 20
9.756055273764673
 30
0.0
 42
0.313266909569357
  0
VERTEX
  5
335
  8
CONSTRUCTION
 10
17.2380263468493
 20
9.790686363249506
 30
0.0
  0
VERTEX
  5
336
  8
CONSTRUCTION
 10
16.62652161853224
 20
9.473625514938915
 30
0.0
 42
-0.2438330574570641
  0
VERTEX
  5
337
  8
CONSTRUCTION
 10
15.90164094617384
 20
9.473625514938915
 30
0.0
  0
VERTEX
  5
338
  8
CONSTRUCTION
 10
15.2901362178568
 20
9.790686363249495
 30
0.0
 42
0.3132669095694079
  0
VERTEX
  5
339
  8
CONSTRUCTION
 10
15.0228223089048
 20
9.756055273764673
 30
0.0
  0
VERTEX
  5
33A
  8
CONSTRUCTION
 10
14.30488376354285
 20
9.262279822238812
 30
0.0
 42
0.1560640544478718
  0
VERTEX
  5
33B
  8
CONSTRUCTION
 10
14.2167703065934
 20
9.14844080097994
 30
0.0
  0
VERTEX
  5
33C
  8
CONSTRUCTION
 10
14.06865134688602
 20
8.74148730379082
 30
0.0
 42
0.4302386564765141
  0
VERTEX
  5
33D
  8
CONSTRUCTION
 10
14.22202314222878
 20
8.43465585087508
 30
0.0
 42
-0.3303165461674298
  0
VERTEX
  5
33E
  8
CONSTRUCTION
 10
15.00423876267304
 20
7.379805816523408
 30
0.0
  0
VERTEX
  5
33F
  8
CONSTRUCTION
 10
15.00423876267304
 20
5.640418642845387
 30
0.0
 42
-0.3303165461674315
  0
VERTEX
  5
340
  8
CONSTRUCTION
 10
14.22202314222878
 20
4.585568608493716
 30
0.0
 42
0.4302386564764488
  0
VERTEX
  5
341
  8
CONSTRUCTION
 10
14.06865134688601
 20
4.278737155577994
 30
0.0
  0
VERTEX
  5
342
  8
CONSTRUCTION
 10
14.2167703065934
 20
3.871783658388875
 30
0.0
 42
0.1560640544479239
  0
SEQEND
  5
444
  8
CONSTRUCTION
  0
POLYLINE
  5
DC
  8
CONSTRUCTION
 66
     1
 10
0.0
 20
0.0
 30
0.0
 70
     1
  0
VERTEX
  5
343
  8
CONSTRUCTION
 10
9.249405160584988
 20
6.313238641969168
 30
0.0
 42
0.2965602809717808
  0
VERTEX
  5
344
  8
CONSTRUCTION
 10
9.12865132530709
 20
6.435313322500896
 30
0.0
 42
-0.3527681603715607
  0
VERTEX
  5
345
  8
CONSTRUCTION
 10
9.0356520507591
 20
6.550723319918151
 30
0.0
  0
VERTEX
  5
346
  8
CONSTRUCTION
 10
9.0356520507591
 20
7.212930733540932
 30
0.0
 42
-0.3527681603715607
  0
VERTEX
  5
347
  8
CONSTRUCTION
 10
9.12865132530709
 20
7.328340730958192
 30
0.0
 42
0.2965602809717808
  0
VERTEX
  5
348
  8
CONSTRUCTION
 10
9.249405160584985
 20
7.450415411489915
 30
0.0
 42
-0.3558292375498134
  0
VERTEX
  5
349
  8
CONSTRUCTION
 10
9.365081498715414
 20
7.544671660691447
 30
0.0
  0
VERTEX
  5
34A
  8
CONSTRUCTION
 10
10.03343336707409
 20
7.544671660691447
 30
0.0
 42
-0.3558292375498134
  0
VERTEX
  5
34B
  8
CONSTRUCTION
 10
10.14910970520453
 20
7.450415411489915
 30
0.0
 42
0.29656028097179
  0
VERTEX
  5
34C
  8
CONSTRUCTION
 10
10.26986354048242
 20
7.328340730958192
 30
0.0
 42
-0.3527681603715651
  0
VERTEX
  5
34D
  8
CONSTRUCTION
 10
10.36286281503041
 20
7.212930733540932
 30
0.0
  0
VERTEX
  5
34E
  8
CONSTRUCTION
 10
10.36286281503041
 20
6.550723319918151
 30
0.0
 42
-0.352768160371565
  0
VERTEX
  5
34F
  8
CONSTRUCTION
 10
10.26986354048242
 20
6.435313322500896
 30
0.0
 42
0.2965602809717901
  0
VERTEX
  5
350
  8
CONSTRUCTION
 10
10.14910970520453
 20
6.313238641969163
 30
0.0
 42
-0.3558292375497629
  0
VERTEX
  5
351
  8
CONSTRUCTION
 10
10.03343336707409
 20
6.218982392767644
 30
0.0
  0
VERTEX
  5
352
  8
CONSTRUCTION
 10
9.365081498715414
 20
6.218982392767644
 30
0.0
 42
-0.3558292375498134
  0
SEQEND
  5
445
  8
CONSTRUCTION
  0
POLYLINE
  5
DD
  8
CONSTRUCTION
 66
     1
 10
0.0
 20
0.0
 30
0.0
 70
     1
  0
VERTEX
  5
353
  8
CONSTRUCTION
 10
10.2442897046018
 20
4.873953010989544
 30
0.0
 42
0.9999999999999998
  0
VERTEX
  5
354
  8
CONSTRUCTION
 10
10.3623999408218
 20
4.873953010989544
 30
0.0
  0
VERTEX
  5
355
  8
CONSTRUCTION
 10
10.3623999408218
 20
5.543244349569544
 30
0.0
 42
0.9999999999999998
  0
VERTEX
  5
356
  8
CONSTRUCTION
 10
10.2442897046018
 20
5.543244349569544
 30
0.0
  0
SEQEND
  5
446
  8
CONSTRUCTION
  0
POLYLINE
  5
DE
  8
CONSTRUCTION
 66
     1
 10
0.0
 20
0.0
 30
0.0
 70
     1
  0
VERTEX
  5
357
  8
CONSTRUCTION
 10
9.50240703919476
 20
4.814897892879579
 30
0.0
  0
VERTEX
  5
358
  8
CONSTRUCTION
 10
9.896107826594774
 20
4.814897892879579
 30
0.0
 42
0.4142135623730951
  0
VERTEX
  5
359
  8
CONSTRUCTION
 10
10.01421806281478
 20
4.933008129099579
 30
0.0
  0
VERTEX
  5
35A
  8
CONSTRUCTION
 10
10.01421806281478
 20
5.484189231459579
 30
0.0
 42
0.4142135623730951
  0
VERTEX
  5
35B
  8
CONSTRUCTION
 10
9.896107826594774
 20
5.602299467679579
 30
0.0
  0
VERTEX
  5
35C
  8
CONSTRUCTION
 10
9.50240703919476
 20
5.602299467679579
 30
0.0
 42
0.4142135623730951
  0
VERTEX
  5
35D
  8
CONSTRUCTION
 10
9.384296802974754
 20
5.484189231459579
 30
0.0
  0
VERTEX
  5
35E
  8
CONSTRUCTION
 10
9.384296802974754
 20
4.933008129099579
 30
0.0
 42
0.4142135623730951
  0
SEQEND
  5
447
  8
CONSTRUCTION
  0
POLYLINE
  5
DF
  8
CONSTRUCTION
 66
     1
 10
0.0
 20
0.0
 30
0.0
 70
     1
  0
VERTEX
  5
35F
  8
CONSTRUCTION
 10
10.2442897046018
 20
3.889701042489545
 30
0.0
 42
0.9999999999999998
  0
VERTEX
  5
360
  8
CONSTRUCTION
 10
10.3623999408218
 20
3.889701042489545
 30
0.0
  0
VERTEX
  5
361
  8
CONSTRUCTION
 10
10.3623999408218
 20
4.558992381069544
 30
0.0
 42
0.9999999999999998
  0
VERTEX
  5
362
  8
CONSTRUCTION
 10
10.2442897046018
 20
4.558992381069544
 30
0.0
  0
SEQEND
  5
448
  8
CONSTRUCTION
  0
POLYLINE
  5
E0
  8
CONSTRUCTION
 66
     1
 10
0.0
 20
0.0
 30
0.0
 70
     1
  0
VERTEX
  5
363
  8
CONSTRUCTION
 10
9.03611492496773
 20
4.873953010989544
 30
0.0
 42
0.9999999999999998
  0
VERTEX
  5
364
  8
CONSTRUCTION
 10
9.15422516118773
 20
4.873953010989544
 30
0.0
  0
VERTEX
  5
365
  8
CONSTRUCTION
 10
9.15422516118773
 20
5.543244349569544
 30
0.0
 42
0.9999999999999998
  0
VERTEX
  5
366
  8
CONSTRUCTION
 10
9.03611492496773
 20
5.543244349569544
 30
0.0
  0
SEQEND
  5
449
  8
CONSTRUCTION
  0
POLYLINE
  5
E1
  8
CONSTRUCTION
 66
     1
 10
0.0
 20
0.0
 30
0.0
 70
     1
  0
VERTEX
  5
367
  8
CONSTRUCTION
 10
9.50240703919476
 20
3.830645924379583
 30
0.0
  0
VERTEX
  5
368
  8
CONSTRUCTION
 10
9.896107826594774
 20
3.830645924379583
 30
0.0
 42
0.4142135623730951
  0
VERTEX
  5
369
  8
CONSTRUCTION
 10
10.01421806281478
 20
3.948756160599579
 30
0.0
  0
VERTEX
  5
36A
  8
CONSTRUCTION
 10
10.01421806281478
 20
4.49993726295958
 30
0.0
 42
0.4142135623730951
  0
VERTEX
  5
36B
  8
CONSTRUCTION
 10
9.896107826594774
 20
4.618047499179579
 30
0.0
  0
VERTEX
  5
36C
  8
CONSTRUCTION
 10
9.50240703919476
 20
4.618047499179579
 30
0.0
 42
0.4142135623730951
  0
VERTEX
  5
36D
  8
CONSTRUCTION
 10
9.384296802974754
 20
4.49993726295958
 30
0.0
  0
VERTEX
  5
36E
  8
CONSTRUCTION
 10
9.384296802974754
 20
3.948756160599579
 30
0.0
 42
0.4142135623730951
  0
SEQEND
  5
44A
  8
CONSTRUCTION
  0
POLYLINE
  5
E2
  8
CONSTRUCTION
 66
     1
 10
0.0
 20
0.0
 30
0.0
 70
     1
  0
VERTEX
  5
36F
  8
CONSTRUCTION
 10
9.03611492496773
 20
3.889701042489545
 30
0.0
 42
0.9999999999999998
  0
VERTEX
  5
370
  8
CONSTRUCTION
 10
9.15422516118773
 20
3.889701042489545
 30
0.0
  0
VERTEX
  5
371
  8
CONSTRUCTION
 10
9.15422516118773
 20
4.558992381069544
 30
0.0
 42
0.9999999999999998
  0
VERTEX
  5
372
  8
CONSTRUCTION
 10
9.03611492496773
 20
4.558992381069544
 30
0.0
  0
SEQEND
  5
44B
  8
CONSTRUCTION
  0
POLYLINE
  5
E3
  8
CONSTRUCTION
 66
     1
 10
0.0
 20
0.0
 30
0.0
 70
     1
  0
VERTEX
  5
373
  8
CONSTRUCTION
 10
8.616580267544766
 20
3.161354585799545
 30
0.0
 42
-0.4142135623730938
  0
VERTEX
  5
374
  8
CONSTRUCTION
 10
8.439414913214767
 20
3.338519940129545
 30
0.0
  0
VERTEX
  5
375
  8
CONSTRUCTION
 10
8.439414913214767
 20
3.810960885009546
 30
0.0
 42
-0.3865446749097048
  0
VERTEX
  5
376
  8
CONSTRUCTION
 10
8.599707376656198
 20
3.987320938105297
 30
0.0
 42
0.386544674909706
  0
VERTEX
  5
377
  8
CONSTRUCTION
 10
8.81343066124477
 20
4.2224676755663
 30
0.0
  0
VERTEX
  5
378
  8
CONSTRUCTION
 10
8.81343066124477
 20
5.289217873972788
 30
0.0
 42
0.3865446749097003
  0
VERTEX
  5
379
  8
CONSTRUCTION
 10
8.599707376656195
 20
5.524364611433792
 30
0.0
 42
-0.9088932591464128
  0
VERTEX
  5
37A
  8
CONSTRUCTION
 10
8.599707376656198
 20
5.877084717625296
 30
0.0
 42
0.3865446749097067
  0
VERTEX
  5
37B
  8
CONSTRUCTION
 10
8.813430661244775
 20
6.1122314550863
 30
0.0
  0
VERTEX
  5
37C
  8
CONSTRUCTION
 10
8.81343066124477
 20
7.651422598372789
 30
0.0
 42
0.3865446749097003
  0
VERTEX
  5
37D
  8
CONSTRUCTION
 10
8.599707376656195
 20
7.886569335833792
 30
0.0
 42
-0.9088932591464128
  0
VERTEX
  5
37E
  8
CONSTRUCTION
 10
8.599707376656198
 20
8.239289442025298
 30
0.0
 42
0.386544674909702
  0
VERTEX
  5
37F
  8
CONSTRUCTION
 10
8.813430661244775
 20
8.474436179486302
 30
0.0
  0
VERTEX
  5
380
  8
CONSTRUCTION
 10
8.813430661244775
 20
9.541186377892789
 30
0.0
 42
0.3865446749097003
  0
VERTEX
  5
381
  8
CONSTRUCTION
 10
8.599707376656198
 20
9.776333115353792
 30
0.0
 42
-0.3865446749097078
  0
VERTEX
  5
382
  8
CONSTRUCTION
 10
8.439414913214767
 20
9.952693168449544
 30
0.0
  0
VERTEX
  5
383
  8
CONSTRUCTION
 10
8.439414913214767
 20
10.42513411332954
 30
0.0
 42
-0.4142135623731001
  0
VERTEX
  5
384
  8
CONSTRUCTION
 10
8.616580267544766
 20
10.60229946765954
 30
0.0
  0
VERTEX
  5
385
  8
CONSTRUCTION
 10
10.78193459824477
 20
10.60229946765954
 30
0.0
 42
-0.4142135623731065
  0
VERTEX
  5
386
  8
CONSTRUCTION
 10
10.95909995257477
 20
10.42513411332954
 30
0.0
  0
VERTEX
  5
387
  8
CONSTRUCTION
 10
10.95909995257477
 20
9.952693168449544
 30
0.0
 42
-0.3865446749097032
  0
VERTEX
  5
388
  8
CONSTRUCTION
 10
10.79880748913333
 20
9.776333115353792
 30
0.0
 42
0.3865446749097067
  0
VERTEX
  5
389
  8
CONSTRUCTION
 10
10.58508420454476
 20
9.541186377892789
 30
0.0
  0
VERTEX
  5
38A
  8
CONSTRUCTION
 10
10.58508420454476
 20
8.474436179486302
 30
0.0
 42
0.386544674909702
  0
VERTEX
  5
38B
  8
CONSTRUCTION
 10
10.79880748913333
 20
8.239289442025298
 30
0.0
 42
-0.9088932591464128
  0
VERTEX
  5
38C
  8
CONSTRUCTION
 10
10.79880748913334
 20
7.886569335833792
 30
0.0
 42
0.3865446749097067
  0
VERTEX
  5
38D
  8
CONSTRUCTION
 10
10.58508420454477
 20
7.651422598372789
 30
0.0
  0
VERTEX
  5
38E
  8
CONSTRUCTION
 10
10.58508420454476
 20
6.1122314550863
 30
0.0
 42
0.386544674909702
  0
VERTEX
  5
38F
  8
CONSTRUCTION
 10
10.79880748913333
 20
5.877084717625296
 30
0.0
 42
-0.9088932591464128
  0
VERTEX
  5
390
  8
CONSTRUCTION
 10
10.79880748913334
 20
5.524364611433792
 30
0.0
 42
0.3865446749097067
  0
VERTEX
  5
391
  8
CONSTRUCTION
 10
10.58508420454476
 20
5.289217873972788
 30
0.0
  0
VERTEX
  5
392
  8
CONSTRUCTION
 10
10.58508420454476
 20
4.2224676755663
 30
0.0
 42
0.386544674909706
  0
VERTEX
  5
393
  8
CONSTRUCTION
 10
10.79880748913333
 20
3.987320938105297
 30
0.0
 42
-0.3865446749097
  0
VERTEX
  5
394
  8
CONSTRUCTION
 10
10.95909995257477
 20
3.810960885009546
 30
0.0
  0
VERTEX
  5
395
  8
CONSTRUCTION
 10
10.95909995257477
 20
3.338519940129545
 30
0.0
 42
-0.4142135623731001
  0
VERTEX
  5
396
  8
CONSTRUCTION
 10
10.78193459824477
 20
3.161354585799546
 30
0.0
  0
SEQEND
  5
44C
  8
CONSTRUCTION
  0
POLYLINE
  5
E4
  8
CONSTRUCTION
 66
     1
 10
0.0
 20
0.0
 30
0.0
 70
     1
  0
VERTEX
  5
397
  8
CONSTRUCTION
 10
22.12967995159111
 20
7.678245193235055
 30
0.0
  0
VERTEX
  5
398
  8
CONSTRUCTION
 10
22.06153033812269
 20
7.610095579766634
 30
0.0
 42
0.6844562877440912
  0
VERTEX
  5
399
  8
CONSTRUCTION
 10
22.01565474453571
 20
7.505982630172429
 30
0.0
 42
0.684456287744061
  0
VERTEX
  5
39A
  8
CONSTRUCTION
 10
22.11976769412993
 20
7.551858223759393
 30
0.0
  0
VERTEX
  5
39B
  8
CONSTRUCTION
 10
22.18791730759835
 20
7.620007837227815
 30
0.0
  0
VERTEX
  5
39C
  8
CONSTRUCTION
 10
22.18280191897465
 20
7.6148924486041
 30
0.0
 42
0.4401136559359516
  0
VERTEX
  5
39D
  8
CONSTRUCTION
 10
22.18547172741842
 20
7.675799613055124
 30
0.0
 42
0.4401136559359071
  0
VERTEX
  5
39E
  8
CONSTRUCTION
 10
22.12456456296739
 20
7.673129804611336
 30
0.0
  0
SEQEND
  5
44D
  8
CONSTRUCTION
  0
POLYLINE
  5
E5
  8
CONSTRUCTION
 66
     1
 10
0.0
 20
0.0
 30
0.0
 70
     1
  0
VERTEX
  5
39F
  8
CONSTRUCTION
 10
22.52198350343318
 20
7.673129804611336
 30
0.0
 42
0.440113655935979
  0
VERTEX
  5
3A0
  8
CONSTRUCTION
 10
22.46107633898215
 20
7.675799613055129
 30
0.0
 42
0.4401136559360644
  0
VERTEX
  5
3A1
  8
CONSTRUCTION
 10
22.46374614742592
 20
7.6148924486041
 30
0.0
  0
VERTEX
  5
3A2
  8
CONSTRUCTION
 10
22.4586307588022
 20
7.620007837227815
 30
0.0
  0
VERTEX
  5
3A3
  8
CONSTRUCTION
 10
22.52678037227064
 20
7.551858223759393
 30
0.0
 42
0.6844562877440783
  0
VERTEX
  5
3A4
  8
CONSTRUCTION
 10
22.63089332186485
 20
7.505982630172429
 30
0.0
 42
0.6844562877440661
  0
VERTEX
  5
3A5
  8
CONSTRUCTION
 10
22.58501772827788
 20
7.610095579766634
 30
0.0
  0
VERTEX
  5
3A6
  8
CONSTRUCTION
 10
22.51686811480946
 20
7.678245193235055
 30
0.0
  0
SEQEND
  5
44E
  8
CONSTRUCTION
  0
POLYLINE
  5
E6
  8
CONSTRUCTION
 66
     1
 10
0.0
 20
0.0
 30
0.0
 70
     1
  0
VERTEX
  5
3A7
  8
CONSTRUCTION
 10
22.52198350343318
 20
7.95407403306264
 30
0.0
 42
-0.4401136559359617
  0
VERTEX
  5
3A8
  8
CONSTRUCTION
 10
22.46107633898215
 20
7.951404224618852
 30
0.0
 42
-0.4401136559359444
  0
VERTEX
  5
3A9
  8
CONSTRUCTION
 10
22.46374614742592
 20
8.012311389069877
 30
0.0
  0
VERTEX
  5
3AA
  8
CONSTRUCTION
 10
22.4586307588022
 20
8.007196000446173
 30
0.0
  0
VERTEX
  5
3AB
  8
CONSTRUCTION
 10
22.52678037227064
 20
8.075345613914589
 30
0.0
 42
-0.6844562877441296
  0
VERTEX
  5
3AC
  8
CONSTRUCTION
 10
22.63089332186485
 20
8.12122120750157
 30
0.0
 42
-0.6844562877441384
  0
VERTEX
  5
3AD
  8
CONSTRUCTION
 10
22.58501772827788
 20
8.017108257907347
 30
0.0
  0
VERTEX
  5
3AE
  8
CONSTRUCTION
 10
22.51686811480946
 20
7.948958644438921
 30
0.0
  0
SEQEND
  5
44F
  8
CONSTRUCTION
  0
POLYLINE
  5
E7
  8
CONSTRUCTION
 66
     1
 10
0.0
 20
0.0
 30
0.0
 70
     1
  0
VERTEX
  5
3AF
  8
CONSTRUCTION
 10
22.12967995159111
 20
7.948958644438921
 30
0.0
  0
VERTEX
  5
3B0
  8
CONSTRUCTION
 10
22.06153033812269
 20
8.017108257907347
 30
0.0
 42
-0.6844562877441634
  0
VERTEX
  5
3B1
  8
CONSTRUCTION
 10
22.01565474453571
 20
8.12122120750157
 30
0.0
 42
-0.6844562877441123
  0
VERTEX
  5
3B2
  8
CONSTRUCTION
 10
22.11976769412993
 20
8.075345613914589
 30
0.0
  0
VERTEX
  5
3B3
  8
CONSTRUCTION
 10
22.18791730759835
 20
8.007196000446173
 30
0.0
  0
VERTEX
  5
3B4
  8
CONSTRUCTION
 10
22.18280191897465
 20
8.012311389069877
 30
0.0
 42
-0.4401136559359105
  0
VERTEX
  5
3B5
  8
CONSTRUCTION
 10
22.18547172741842
 20
7.951404224618846
 30
0.0
 42
-0.4401136559359604
  0
VERTEX
  5
3B6
  8
CONSTRUCTION
 10
22.12456456296739
 20
7.95407403306264
 30
0.0
  0
SEQEND
  5
450
  8
CONSTRUCTION
  0
POLYLINE
  5
E8
  8
CONSTRUCTION
 66
     1
 10
0.0
 20
0.0
 30
0.0
 70
     1
  0
VERTEX
  5
3B7
  8
CONSTRUCTION
 10
24.43623044995587
 20
7.696228565674916
 30
0.0
  0
VERTEX
  5
3B8
  8
CONSTRUCTION
 10
24.36808083648744
 20
7.628078952206494
 30
0.0
 42
0.6844562877441384
  0
VERTEX
  5
3B9
  8
CONSTRUCTION
 10
24.32220524290047
 20
7.523966002612275
 30
0.0
 42
0.6844562877441296
  0
VERTEX
  5
3BA
  8
CONSTRUCTION
 10
24.42631819249468
 20
7.569841596199252
 30
0.0
  0
VERTEX
  5
3BB
  8
CONSTRUCTION
 10
24.49446780596311
 20
7.637991209667672
 30
0.0
  0
VERTEX
  5
3BC
  8
CONSTRUCTION
 10
24.4893524173394
 20
7.63287582104396
 30
0.0
 42
0.4401136559359444
  0
VERTEX
  5
3BD
  8
CONSTRUCTION
 10
24.49202222578318
 20
7.693782985494986
 30
0.0
 42
0.4401136559359617
  0
VERTEX
  5
3BE
  8
CONSTRUCTION
 10
24.43111506133215
 20
7.691113177051196
 30
0.0
  0
SEQEND
  5
451
  8
CONSTRUCTION
  0
POLYLINE
  5
E9
  8
CONSTRUCTION
 66
     1
 10
0.0
 20
0.0
 30
0.0
 70
     1
  0
VERTEX
  5
3BF
  8
CONSTRUCTION
 10
24.82341861317422
 20
7.696228565674916
 30
0.0
  0
VERTEX
  5
3C0
  8
CONSTRUCTION
 10
24.89156822664264
 20
7.628078952206494
 30
0.0
 42
-0.6844562877441634
  0
VERTEX
  5
3C1
  8
CONSTRUCTION
 10
24.93744382022962
 20
7.523966002612275
 30
0.0
 42
-0.6844562877441123
  0
VERTEX
  5
3C2
  8
CONSTRUCTION
 10
24.8333308706354
 20
7.569841596199252
 30
0.0
  0
VERTEX
  5
3C3
  8
CONSTRUCTION
 10
24.76518125716697
 20
7.637991209667672
 30
0.0
  0
VERTEX
  5
3C4
  8
CONSTRUCTION
 10
24.77029664579068
 20
7.63287582104396
 30
0.0
 42
-0.4401136559359105
  0
VERTEX
  5
3C5
  8
CONSTRUCTION
 10
24.76762683734691
 20
7.69378298549499
 30
0.0
 42
-0.4401136559359604
  0
VERTEX
  5
3C6
  8
CONSTRUCTION
 10
24.82853400179794
 20
7.691113177051196
 30
0.0
  0
SEQEND
  5
452
  8
CONSTRUCTION
  0
POLYLINE
  5
EA
  8
CONSTRUCTION
 66
     1
 10
0.0
 20
0.0
 30
0.0
 70
     1
  0
VERTEX
  5
3C7
  8
CONSTRUCTION
 10
24.43111506133215
 20
7.972057405502498
 30
0.0
 42
0.4401136559359604
  0
VERTEX
  5
3C8
  8
CONSTRUCTION
 10
24.49202222578318
 20
7.969387597058704
 30
0.0
 42
0.4401136559359105
  0
VERTEX
  5
3C9
  8
CONSTRUCTION
 10
24.4893524173394
 20
8.030294761509733
 30
0.0
  0
VERTEX
  5
3CA
  8
CONSTRUCTION
 10
24.49446780596311
 20
8.02517937288603
 30
0.0
  0
VERTEX
  5
3CB
  8
CONSTRUCTION
 10
24.42631819249468
 20
8.093328986354448
 30
0.0
 42
0.6844562877440964
  0
VERTEX
  5
3CC
  8
CONSTRUCTION
 10
24.32220524290047
 20
8.139204579941415
 30
0.0
 42
0.6844562877441144
  0
VERTEX
  5
3CD
  8
CONSTRUCTION
 10
24.36808083648744
 20
8.035091630347203
 30
0.0
  0
VERTEX
  5
3CE
  8
CONSTRUCTION
 10
24.43623044995587
 20
7.966942016878779
 30
0.0
  0
SEQEND
  5
453
  8
CONSTRUCTION
  0
POLYLINE
  5
EB
  8
CONSTRUCTION
 66
     1
 10
0.0
 20
0.0
 30
0.0
 70
     1
  0
VERTEX
  5
3CF
  8
CONSTRUCTION
 10
24.82853400179794
 20
7.972057405502498
 30
0.0
 42
-0.4401136559359617
  0
VERTEX
  5
3D0
  8
CONSTRUCTION
 10
24.76762683734691
 20
7.969387597058708
 30
0.0
 42
-0.4401136559359444
  0
VERTEX
  5
3D1
  8
CONSTRUCTION
 10
24.77029664579068
 20
8.030294761509733
 30
0.0
  0
VERTEX
  5
3D2
  8
CONSTRUCTION
 10
24.76518125716697
 20
8.02517937288603
 30
0.0
  0
VERTEX
  5
3D3
  8
CONSTRUCTION
 10
24.8333308706354
 20
8.093328986354448
 30
0.0
 42
-0.6844562877440473
  0
VERTEX
  5
3D4
  8
CONSTRUCTION
 10
24.93744382022962
 20
8.139204579941415
 30
0.0
 42
-0.6844562877441395
  0
VERTEX
  5
3D5
  8
CONSTRUCTION
 10
24.89156822664264
 20
8.035091630347203
 30
0.0
  0
VERTEX
  5
3D6
  8
CONSTRUCTION
 10
24.82341861317422
 20
7.966942016878779
 30
0.0
  0
SEQEND
  5
454
  8
CONSTRUCTION
  0
ENDSEC
  0
EOF
