  0
SECTION
  2
HEADER
  9
$ACADVER
  1
AC1021
  9
$ACADMAINTVER
 70
    25
  9
$DWGCODEPAGE
  3
ANSI_1252
  9
$INSBASE
 10
0.0
 20
0.0
 30
0.0
  9
$EXTMIN
 10
-13.199594
 20
6.3152
 30
0.0
  9
$EXTMAX
 10
2.8021
 20
14.356112
 30
0.0
  9
$LIMMIN
 10
-13.199594
 20
6.3152
  9
$LIMMAX
 10
2.8021
 20
14.356112
  9
$ORTHOMODE
 70
     0
  9
$REGENMODE
 70
     1
  9
$FILLMODE
 70
     1
  9
$QTEXTMODE
 70
     0
  9
$MIRRTEXT
 70
     1
  9
$LTSCALE
 40
1.0
  9
$ATTMODE
 70
     1
  9
$TEXTSIZE
 40
0.2
  9
$TRACEWID
 40
0.05
  9
$TEXTSTYLE
  7
STANDARD
  9
$CLAYER
  8
DEFAULT
  9
$CELTYPE
  6
BYLAYER
  9
$CECOLOR
 62
   256
  9
$CELTSCALE
 40
1.0
  9
$DISPSILH
 70
     0
  9
$DIMSCALE
 40
1.0
  9
$DIMASZ
 40
0.18
  9
$DIMEXO
 40
0.0625
  9
$DIMDLI
 40
0.38
  9
$DIMRND
 40
0.0
  9
$DIMDLE
 40
0.0
  9
$DIMEXE
 40
0.18
  9
$DIMTP
 40
0.0
  9
$DIMTM
 40
0.0
  9
$DIMTXT
 40
0.18
  9
$DIMCEN
 40
0.09
  9
$DIMTSZ
 40
0.0
  9
$DIMTOL
 70
     0
  9
$DIMLIM
 70
     0
  9
$DIMTIH
 70
     1
  9
$DIMTOH
 70
     1
  9
$DIMSE1
 70
     0
  9
$DIMSE2
 70
     0
  9
$DIMTAD
 70
     0
  9
$DIMZIN
 70
     0
  9
$DIMBLK
  1

  9
$DIMASO
 70
     1
  9
$DIMSHO
 70
     1
  9
$DIMPOST
  1

  9
$DIMAPOST
  1

  9
$DIMALT
 70
     0
  9
$DIMALTD
 70
     2
  9
$DIMALTF
 40
25.4
  9
$DIMLFAC
 40
1.0
  9
$DIMTOFL
 70
     0
  9
$DIMTVP
 40
0.0
  9
$DIMTIX
 70
     0
  9
$DIMSOXD
 70
     0
  9
$DIMSAH
 70
     0
  9
$DIMBLK1
  1

  9
$DIMBLK2
  1

  9
$DIMSTYLE
  2
STANDARD
  9
$DIMCLRD
 70
     0
  9
$DIMCLRE
 70
     0
  9
$DIMCLRT
 70
     0
  9
$DIMTFAC
 40
1.0
  9
$DIMGAP
 40
0.09
  9
$DIMJUST
 70
     0
  9
$DIMSD1
 70
     0
  9
$DIMSD2
 70
     0
  9
$DIMTOLJ
 70
     1
  9
$DIMTZIN
 70
     0
  9
$DIMALTZ
 70
     0
  9
$DIMALTTZ
 70
     0
  9
$DIMUPT
 70
     0
  9
$DIMDEC
 70
     4
  9
$DIMTDEC
 70
     4
  9
$DIMALTU
 70
     2
  9
$DIMALTTD
 70
     2
  9
$DIMTXSTY
  7
STANDARD
  9
$DIMAUNIT
 70
     0
  9
$DIMADEC
 70
     0
  9
$DIMALTRND
 40
0.0
  9
$DIMAZIN
 70
     0
  9
$DIMDSEP
 70
    46
  9
$DIMATFIT
 70
     3
  9
$DIMFRAC
 70
     0
  9
$DIMLDRBLK
  1

  9
$DIMLUNIT
 70
     2
  9
$DIMLWD
 70
    -2
  9
$DIMLWE
 70
    -2
  9
$DIMTMOVE
 70
     2
  9
$DIMFXL
 40
1.0
  9
$DIMFXLON
 70
     0
  9
$DIMJOGANG
 40
0.7853981633974483
  9
$DIMTFILL
 70
     0
  9
$DIMTFILLCLR
 70
     0
  9
$DIMARCSYM
 70
     0
  9
$DIMLTYPE
  6

  9
$DIMLTEX1
  6

  9
$DIMLTEX2
  6

  9
$LUNITS
 70
     2
  9
$LUPREC
 70
     6
  9
$SKETCHINC
 40
0.1
  9
$FILLETRAD
 40
0.5
  9
$AUNITS
 70
     0
  9
$AUPREC
 70
     0
  9
$MENU
  1
.
  9
$ELEVATION
 40
0.0
  9
$PELEVATION
 40
0.0
  9
$THICKNESS
 40
0.0
  9
$LIMCHECK
 70
     0
  9
$CHAMFERA
 40
0.5
  9
$CHAMFERB
 40
0.5
  9
$CHAMFERC
 40
1.0
  9
$CHAMFERD
 40
0.0
  9
$SKPOLY
 70
     0
  9
$TDCREATE
 40
2457232.399432859
  9
$TDUCREATE
 40
2457232.691099525
  9
$TDUPDATE
 40
2457232.39943941
  9
$TDUUPDATE
 40
2457232.691106076
  9
$TDINDWG
 40
0.0
  9
$TDUSRTIMER
 40
0.0
  9
$USRTIMER
 70
     1
  9
$ANGBASE
 50
0.0
  9
$ANGDIR
 70
     0
  9
$PDMODE
 70
     0
  9
$PDSIZE
 40
0.0
  9
$PLINEWID
 40
0.0
  9
$SPLFRAME
 70
     0
  9
$SPLINETYPE
 70
     6
  9
$SPLINESEGS
 70
     8
  9
$HANDSEED
  5
231
  9
$SURFTAB1
 70
     6
  9
$SURFTAB2
 70
     6
  9
$SURFTYPE
 70
     6
  9
$SURFU
 70
     6
  9
$SURFV
 70
     6
  9
$UCSBASE
  2

  9
$UCSNAME
  2

  9
$UCSORG
 10
0.0
 20
0.0
 30
0.0
  9
$UCSXDIR
 10
1.0
 20
0.0
 30
0.0
  9
$UCSYDIR
 10
0.0
 20
1.0
 30
0.0
  9
$UCSORTHOREF
  2

  9
$UCSORTHOVIEW
 70
     0
  9
$UCSORGTOP
 10
0.0
 20
0.0
 30
0.0
  9
$UCSORGBOTTOM
 10
0.0
 20
0.0
 30
0.0
  9
$UCSORGLEFT
 10
0.0
 20
0.0
 30
0.0
  9
$UCSORGRIGHT
 10
0.0
 20
0.0
 30
0.0
  9
$UCSORGFRONT
 10
0.0
 20
0.0
 30
0.0
  9
$UCSORGBACK
 10
0.0
 20
0.0
 30
0.0
  9
$PUCSBASE
  2

  9
$PUCSNAME
  2

  9
$PUCSORG
 10
0.0
 20
0.0
 30
0.0
  9
$PUCSXDIR
 10
1.0
 20
0.0
 30
0.0
  9
$PUCSYDIR
 10
0.0
 20
1.0
 30
0.0
  9
$PUCSORTHOREF
  2

  9
$PUCSORTHOVIEW
 70
     0
  9
$PUCSORGTOP
 10
0.0
 20
0.0
 30
0.0
  9
$PUCSORGBOTTOM
 10
0.0
 20
0.0
 30
0.0
  9
$PUCSORGLEFT
 10
0.0
 20
0.0
 30
0.0
  9
$PUCSORGRIGHT
 10
0.0
 20
0.0
 30
0.0
  9
$PUCSORGFRONT
 10
0.0
 20
0.0
 30
0.0
  9
$PUCSORGBACK
 10
0.0
 20
0.0
 30
0.0
  9
$USERI1
 70
     0
  9
$USERI2
 70
     0
  9
$USERI3
 70
     0
  9
$USERI4
 70
     0
  9
$USERI5
 70
     0
  9
$USERR1
 40
0.0
  9
$USERR2
 40
0.0
  9
$USERR3
 40
0.0
  9
$USERR4
 40
0.0
  9
$USERR5
 40
0.0
  9
$WORLDVIEW
 70
     1
  9
$SHADEDGE
 70
     3
  9
$SHADEDIF
 70
    70
  9
$TILEMODE
 70
     1
  9
$MAXACTVP
 70
    48
  9
$PINSBASE
 10
0.0
 20
0.0
 30
0.0
  9
$PLIMCHECK
 70
     0
  9
$PEXTMIN
 10
1.000000000000000E+20
 20
1.000000000000000E+20
 30
1.000000000000000E+20
  9
$PEXTMAX
 10
-1.000000000000000E+20
 20
-1.000000000000000E+20
 30
-1.000000000000000E+20
  9
$PLIMMIN
 10
0.0
 20
0.0
  9
$PLIMMAX
 10
12.0
 20
9.0
  9
$UNITMODE
 70
     0
  9
$VISRETAIN
 70
     1
  9
$PLINEGEN
 70
     0
  9
$PSLTSCALE
 70
     1
  9
$TREEDEPTH
 70
  3020
  9
$CMLSTYLE
  2
STANDARD
  9
$CMLJUST
 70
     0
  9
$CMLSCALE
 40
1.0
  9
$PROXYGRAPHICS
 70
     1
  9
$MEASUREMENT
 70
     0
  9
$CELWEIGHT
370
    -1
  9
$ENDCAPS
280
     0
  9
$JOINSTYLE
280
     0
  9
$LWDISPLAY
290
     0
  9
$INSUNITS
 70
     0
  9
$HYPERLINKBASE
  1

  9
$STYLESHEET
  1

  9
$XEDIT
290
     1
  9
$CEPSNTYPE
380
     0
  9
$PSTYLEMODE
290
     1
  9
$FINGERPRINTGUID
  2
{9803C06D-CE8E-47C2-9B35-E16AA0D0353B}
  9
$VERSIONGUID
  2
{FAEB1C32-E019-11D5-929B-00C0DF256EC4}
  9
$EXTNAMES
290
     1
  9
$PSVPSCALE
 40
0.0
  9
$OLESTARTUP
290
     0
  9
$SORTENTS
280
   127
  9
$INDEXCTL
280
     0
  9
$HIDETEXT
280
     1
  9
$XCLIPFRAME
290
     0
  9
$HALOGAP
280
     0
  9
$OBSCOLOR
 70
   257
  9
$OBSLTYPE
280
     0
  9
$INTERSECTIONDISPLAY
280
     0
  9
$INTERSECTIONCOLOR
 70
   257
  9
$DIMASSOC
280
     2
  9
$PROJECTNAME
  1

  9
$CAMERADISPLAY
290
     0
  9
$LENSLENGTH
 40
50.0
  9
$CAMERAHEIGHT
 40
0.0
  9
$STEPSPERSEC
 40
2.0
  9
$STEPSIZE
 40
6.0
  9
$3DDWFPREC
 40
2.0
  9
$PSOLWIDTH
 40
0.25
  9
$PSOLHEIGHT
 40
4.0
  9
$LOFTANG1
 40
1.570796326794897
  9
$LOFTANG2
 40
1.570796326794897
  9
$LOFTMAG1
 40
0.0
  9
$LOFTMAG2
 40
0.0
  9
$LOFTPARAM
 70
     7
  9
$LOFTNORMALS
280
     1
  9
$LATITUDE
 40
37.795
  9
$LONGITUDE
 40
-122.394
  9
$NORTHDIRECTION
 40
0.0
  9
$TIMEZONE
 70
 -8000
  9
$LIGHTGLYPHDISPLAY
280
     1
  9
$TILEMODELIGHTSYNCH
280
     1
  9
$SOLIDHIST
280
     1
  9
$SHOWHIST
280
     1
  9
$DWFFRAME
280
     2
  9
$DGNFRAME
280
     2
  9
$REALWORLDSCALE
290
     1
  9
$INTERFERECOLOR
 62
   256
  9
$CSHADOW
280
     0
  9
$SHADOWPLANELOCATION
 40
0.0
  0
ENDSEC
  0
SECTION
  2
CLASSES
  0
CLASS
  1
SCALE
  2
AcDbScale
  3
ObjectDBX Classes
 90
     1153
 91
        4
280
     0
281
     0
  0
CLASS
  1
VISUALSTYLE
  2
AcDbVisualStyle
  3
ObjectDBX Classes
 90
     4095
 91
        4
280
     0
281
     0
  0
CLASS
  1
MATERIAL
  2
AcDbMaterial
  3
ObjectDBX Classes
 90
     1153
 91
        4
280
     0
281
     0
  0
CLASS
  1
DICTIONARYVAR
  2
AcDbDictionaryVar
  3
ObjectDBX Classes
 90
        0
 91
        4
280
     0
281
     0
  0
ENDSEC
  0
SECTION
  2
TABLES
  0
TABLE
  2
VPORT
  5
8
330
0
100
AcDbSymbolTable
 70
     1
  0
VPORT
  5
1E
330
8
100
AcDbSymbolTableRecord
100
AcDbViewportTableRecord
  2
*ACTIVE
 70
     0
 10
0.0
 20
0.0
 11
1.0
 21
1.0
 12
-5.198747
 22
10.335656
 13
0.0
 23
0.0
 14
0.25
 24
0.25
 15
0.25
 25
0.25
 16
0.0
 26
0.0
 36
1.0
 17
0.0
 27
0.0
 37
0.0
 40
8.126999
 41
2.30763
 42
50.0
 43
0.0
 44
0.0
 50
0.0
 51
0.0
 71
     0
 72
   100
 73
     1
 74
     1
 75
     0
 76
     0
 77
     0
 78
     0
281
     0
 65
     1
110
0.0
120
0.0
130
0.0
111
1.0
121
0.0
131
0.0
112
0.0
122
1.0
132
0.0
 79
     0
146
0.0
348
1E1
 60
     3
 61
     5
292
     1
282
     1
141
0.0
142
0.0
 63
   250
  0
ENDTAB
  0
TABLE
  2
LTYPE
  5
5
330
0
100
AcDbSymbolTable
 70
     2
  0
LTYPE
  5
12
330
5
100
AcDbSymbolTableRecord
100
AcDbLinetypeTableRecord
  2
BYBLOCK
 70
     0
  3

 72
    65
 73
     0
 40
0.0
  0
LTYPE
  5
13
330
5
100
AcDbSymbolTableRecord
100
AcDbLinetypeTableRecord
  2
BYLAYER
 70
     0
  3

 72
    65
 73
     0
 40
0.0
  0
LTYPE
  5
14
330
5
100
AcDbSymbolTableRecord
100
AcDbLinetypeTableRecord
  2
CONTINUOUS
 70
     0
  3
Solid line
 72
    65
 73
     0
 40
0.0
  0
LTYPE
  5
20
330
5
100
AcDbSymbolTableRecord
100
AcDbLinetypeTableRecord
  2
DOT
 70
     0
  3
...............................................
 72
    65
 73
     2
 40
0.25
 49
0.0
 74
     0
 49
-0.25
 74
     0
  0
ENDTAB
  0
TABLE
  2
LAYER
  5
2
330
0
100
AcDbSymbolTable
 70
     2
  0
LAYER
  5
E
330
2
100
AcDbSymbolTableRecord
100
AcDbLayerTableRecord
  2
0
 70
     0
 62
     7
  6
CONTINUOUS
370
    -3
390
0
347
1F8
  0
LAYER
  5
21
330
2
100
AcDbSymbolTableRecord
100
AcDbLayerTableRecord
  2
DEFAULT
 70
     0
 62
     7
  6
CONTINUOUS
370
    -3
390
0
347
1F8
  0
ENDTAB
  0
TABLE
  2
STYLE
  5
3
330
0
100
AcDbSymbolTable
 70
     2
  0
STYLE
  5
F
330
3
100
AcDbSymbolTableRecord
100
AcDbTextStyleTableRecord
  2
STANDARD
 70
     0
 40
0.0
 41
1.0
 50
0.0
 71
     0
 42
0.2
  3
txt
  4

  0
STYLE
  5
22
330
3
100
AcDbSymbolTableRecord
100
AcDbTextStyleTableRecord
  2
Arial
 70
     0
 40
0.0
 41
1.0
 50
0.0
 71
     0
 42
0.2
  3
arial.ttf
  4

  0
ENDTAB
  0
TABLE
  2
VIEW
  5
6
330
0
100
AcDbSymbolTable
 70
     0
  0
ENDTAB
  0
TABLE
  2
UCS
  5
7
330
0
100
AcDbSymbolTable
 70
     0
  0
ENDTAB
  0
TABLE
  2
APPID
  5
9
330
0
100
AcDbSymbolTable
 70
     1
  0
APPID
  5
10
330
9
100
AcDbSymbolTableRecord
100
AcDbRegAppTableRecord
  2
ACAD
 70
     0
  0
ENDTAB
  0
TABLE
  2
DIMSTYLE
  5
A
330
0
100
AcDbSymbolTable
 70
     1
100
AcDbDimStyleTable
  0
DIMSTYLE
105
1D
330
A
100
AcDbSymbolTableRecord
100
AcDbDimStyleTableRecord
  2
STANDARD
 70
     0
178
     0
340
F
  0
ENDTAB
  0
TABLE
  2
BLOCK_RECORD
  5
1
330
0
100
AcDbSymbolTable
 70
     0
  0
BLOCK_RECORD
  5
18
330
1
100
AcDbSymbolTableRecord
100
AcDbBlockTableRecord
  2
*MODEL_SPACE
340
1DA
 70
     0
280
     1
281
     0
  0
BLOCK_RECORD
  5
15
330
1
100
AcDbSymbolTableRecord
100
AcDbBlockTableRecord
  2
*PAPER_SPACE
340
1DB
 70
     0
280
     1
281
     0
  0
ENDTAB
  0
ENDSEC
  0
SECTION
  2
BLOCKS
  0
BLOCK
  5
19
330
18
100
AcDbEntity
  8
0
100
AcDbBlockBegin
  2
*MODEL_SPACE
 70
     0
 10
0.0
 20
0.0
 30
0.0
  3
*MODEL_SPACE
  1
     0
  0
ENDBLK
  5
1A
330
18
100
AcDbEntity
  8
0
100
AcDbBlockEnd
  0
BLOCK
  5
16
330
15
100
AcDbEntity
 67
     1
  8
0
100
AcDbBlockBegin
  2
*PAPER_SPACE
 70
     0
 10
0.0
 20
0.0
 30
0.0
  3
*PAPER_SPACE
  1
     0
  0
ENDBLK
  5
17
330
15
100
AcDbEntity
 67
     1
  8
0
100
AcDbBlockEnd
  0
ENDSEC
  0
SECTION
  2
ENTITIES
  0
POINT
  5
23
330
18
100
AcDbEntity
  8
DEFAULT
 62
     1
100
AcDbPoint
 10
-0.6194
 20
9.738
 30
0.0
  0
TEXT
  5
24
330
18
100
AcDbEntity
  8
DEFAULT
100
AcDbText
 10
-0.7784
 20
9.4872
 30
0.0
 40
0.1263
  1
5/32
  7
Arial
100
AcDbText
  0
ELLIPSE
  5
25
330
18
100
AcDbEntity
  8
DEFAULT
100
AcDbEllipse
 10
-0.6194
 20
9.738
 30
0.0
 11
0.078
 21
0.0
 31
0.0
210
0.0
220
0.0
230
1.0
 40
1.0
 41
0.0
 42
6.283185307179586
  0
ELLIPSE
  5
26
330
18
100
AcDbEntity
  8
DEFAULT
100
AcDbEllipse
 10
1.1402
 20
9.738
 30
0.0
 11
1.2519
 21
0.0
 31
0.0
210
0.0
220
0.0
230
1.0
 40
0.9999600000000001
 41
0.0
 42
6.283185307179586
  0
ELLIPSE
  5
27
330
18
100
AcDbEntity
  8
DEFAULT
100
AcDbEllipse
 10
-1.4992
 20
11.262
 30
0.0
 11
0.0
 21
1.2519
 31
0.0
210
0.0
220
0.0
230
1.0
 40
0.9999600000000001
 41
0.0
 42
6.283185307179586
  0
ELLIPSE
  5
28
330
18
100
AcDbEntity
  8
DEFAULT
100
AcDbEllipse
 10
-1.499
 20
8.2142
 30
0.0
 11
1.2519
 21
0.0
 31
0.0
210
0.0
220
0.0
230
1.0
 40
1.0
 41
0.0
 42
6.283185307179586
  0
LINE
  5
29
330
18
100
AcDbEntity
  8
DEFAULT
100
AcDbLine
 10
-1.2178
 20
9.7094
 30
0.0
 11
-1.2177
 21
9.7094
 31
0.0
  0
LINE
  5
2A
330
18
100
AcDbEntity
  8
DEFAULT
100
AcDbLine
 10
-1.2178
 20
9.7131
 30
0.0
 11
-1.2177
 21
9.7131
 31
0.0
  0
POINT
  5
2B
330
18
100
AcDbEntity
  8
DEFAULT
 62
     1
100
AcDbPoint
 10
-0.6194
 20
9.7376
 30
0.0
  0
ELLIPSE
  5
2C
330
18
100
AcDbEntity
  8
DEFAULT
100
AcDbEllipse
 10
-0.6194
 20
9.7376
 30
0.0
 11
0.01
 21
0.0
 31
0.0
210
0.0
220
0.0
230
1.0
 40
1.0
 41
0.0
 42
6.283185307179586
  0
ARC
  5
2D
330
18
100
AcDbEntity
  8
DEFAULT
100
AcDbCircle
 10
-0.8639
 20
12.9593
 30
0.0
 40
0.0677
100
AcDbArc
 50
191.5092
 51
357.1206999999999
  0
ARC
  5
2E
330
18
100
AcDbEntity
  8
DEFAULT
100
AcDbCircle
 10
0.1626
 20
12.753
 30
0.0
 40
0.98
100
AcDbArc
 50
157.596
 51
168.0559
  0
ARC
  5
2F
330
18
100
AcDbEntity
  8
DEFAULT
100
AcDbCircle
 10
-1.6294
 20
12.6828
 30
0.0
 40
1.0744
100
AcDbArc
 50
14.9857
 51
24.4921
  0
ARC
  5
30
330
18
100
AcDbEntity
  8
DEFAULT
100
AcDbCircle
 10
-0.6972
 20
13.1075
 30
0.0
 40
0.05
100
AcDbArc
 50
24.4629
 51
157.6448
  0
ARC
  5
31
330
18
100
AcDbEntity
  8
DEFAULT
100
AcDbCircle
 10
-0.3749
 20
6.5159
 30
0.0
 40
0.0677
100
AcDbArc
 50
11.5092
 51
177.1207
  0
ARC
  5
32
330
18
100
AcDbEntity
  8
DEFAULT
100
AcDbCircle
 10
-1.4014
 20
6.7222
 30
0.0
 40
0.98
100
AcDbArc
 50
337.596
 51
348.0559000000001
  0
ARC
  5
33
330
18
100
AcDbEntity
  8
DEFAULT
100
AcDbCircle
 10
0.3906
 20
6.7924
 30
0.0
 40
1.0744
100
AcDbArc
 50
194.9857
 51
204.4921
  0
ARC
  5
34
330
18
100
AcDbEntity
  8
DEFAULT
100
AcDbCircle
 10
-0.5416
 20
6.3677
 30
0.0
 40
0.05
100
AcDbArc
 50
204.4629
 51
337.6448
  0
ARC
  5
35
330
18
100
AcDbEntity
  8
DEFAULT
100
AcDbCircle
 10
-1.1993
 20
12.916
 30
0.0
 40
0.0677
100
AcDbArc
 50
197.4703
 51
3.1329
  0
ARC
  5
36
330
18
100
AcDbEntity
  8
DEFAULT
100
AcDbCircle
 10
-0.1569
 20
12.8182
 30
0.0
 40
0.98
100
AcDbArc
 50
163.5976
 51
174.0543
  0
ARC
  5
37
330
18
100
AcDbEntity
  8
DEFAULT
100
AcDbCircle
 10
-1.9317
 20
12.561
 30
0.0
 40
1.0744
100
AcDbArc
 50
20.9874
 51
30.4937
  0
ARC
  5
38
330
18
100
AcDbEntity
  8
DEFAULT
100
AcDbCircle
 10
-1.049
 20
13.0809
 30
0.0
 40
0.05
100
AcDbArc
 50
30.4132
 51
163.7076
  0
ARC
  5
39
330
18
100
AcDbEntity
  8
DEFAULT
100
AcDbCircle
 10
-0.0395
 20
6.5592
 30
0.0
 40
0.0677
100
AcDbArc
 50
17.4703
 51
183.1329
  0
ARC
  5
3A
330
18
100
AcDbEntity
  8
DEFAULT
100
AcDbCircle
 10
-1.0819
 20
6.657
 30
0.0
 40
0.98
100
AcDbArc
 50
343.5976
 51
354.0543
  0
ARC
  5
3B
330
18
100
AcDbEntity
  8
DEFAULT
100
AcDbCircle
 10
0.6929
 20
6.9142
 30
0.0
 40
1.0744
100
AcDbArc
 50
200.9874
 51
210.4937
  0
ARC
  5
3C
330
18
100
AcDbEntity
  8
DEFAULT
100
AcDbCircle
 10
-0.1898
 20
6.3943
 30
0.0
 40
0.05
100
AcDbArc
 50
210.4132
 51
343.7076
  0
ARC
  5
3D
330
18
100
AcDbEntity
  8
DEFAULT
100
AcDbCircle
 10
-1.5283
 20
12.8379
 30
0.0
 40
0.0677
100
AcDbArc
 50
203.4546
 51
9.1839
  0
ARC
  5
3E
330
18
100
AcDbEntity
  8
DEFAULT
100
AcDbCircle
 10
-0.4815
 20
12.8496
 30
0.0
 40
0.98
100
AcDbArc
 50
169.5984
 51
180.0526
  0
ARC
  5
3F
330
18
100
AcDbEntity
  8
DEFAULT
100
AcDbCircle
 10
-2.2196
 20
12.4083
 30
0.0
 40
1.0744
100
AcDbArc
 50
26.9896
 51
36.4924
  0
ARC
  5
40
330
18
100
AcDbEntity
  8
DEFAULT
100
AcDbCircle
 10
-1.3961
 20
13.0176
 30
0.0
 40
0.05
100
AcDbArc
 50
36.3892
 51
169.726
  0
ARC
  5
41
330
18
100
AcDbEntity
  8
DEFAULT
100
AcDbCircle
 10
0.2895
 20
6.6373
 30
0.0
 40
0.0677
100
AcDbArc
 50
23.4546
 51
189.1839
  0
ARC
  5
42
330
18
100
AcDbEntity
  8
DEFAULT
100
AcDbCircle
 10
-0.7573
 20
6.6256
 30
0.0
 40
0.98
100
AcDbArc
 50
349.5984
 51
0.0526
  0
ARC
  5
43
330
18
100
AcDbEntity
  8
DEFAULT
100
AcDbCircle
 10
0.9808
 20
7.0669
 30
0.0
 40
1.0744
100
AcDbArc
 50
206.9896
 51
216.4924
  0
ARC
  5
44
330
18
100
AcDbEntity
  8
DEFAULT
100
AcDbCircle
 10
0.1573
 20
6.4576
 30
0.0
 40
0.05
100
AcDbArc
 50
216.3892
 51
349.726
  0
ARC
  5
45
330
18
100
AcDbEntity
  8
DEFAULT
100
AcDbCircle
 10
-1.8473
 20
12.7259
 30
0.0
 40
0.0677
100
AcDbArc
 50
209.4823
 51
15.166
  0
ARC
  5
46
330
18
100
AcDbEntity
  8
DEFAULT
100
AcDbCircle
 10
-0.8075
 20
12.8469
 30
0.0
 40
0.98
100
AcDbArc
 50
175.5982
 51
186.0522
  0
ARC
  5
47
330
18
100
AcDbEntity
  8
DEFAULT
100
AcDbCircle
 10
-2.4899
 20
12.2264
 30
0.0
 40
1.0744
100
AcDbArc
 50
32.9919
 51
42.4914
  0
ARC
  5
48
330
18
100
AcDbEntity
  8
DEFAULT
100
AcDbCircle
 10
-1.7346
 20
12.9184
 30
0.0
 40
0.05
100
AcDbArc
 50
42.4048
 51
175.7509
  0
ARC
  5
49
330
18
100
AcDbEntity
  8
DEFAULT
100
AcDbCircle
 10
0.6085
 20
6.7493
 30
0.0
 40
0.0677
100
AcDbArc
 50
29.4823
 51
195.166
  0
ARC
  5
4A
330
18
100
AcDbEntity
  8
DEFAULT
100
AcDbCircle
 10
-0.4313
 20
6.6283
 30
0.0
 40
0.98
100
AcDbArc
 50
355.5982
 51
6.052200000000001
  0
ARC
  5
4B
330
18
100
AcDbEntity
  8
DEFAULT
100
AcDbCircle
 10
1.2511
 20
7.2488
 30
0.0
 40
1.0744
100
AcDbArc
 50
212.9919
 51
222.4914
  0
ARC
  5
4C
330
18
100
AcDbEntity
  8
DEFAULT
100
AcDbCircle
 10
0.4958
 20
6.5568
 30
0.0
 40
0.05
100
AcDbArc
 50
222.4048
 51
355.7509000000001
  0
ARC
  5
4D
330
18
100
AcDbEntity
  8
DEFAULT
100
AcDbCircle
 10
-2.1529
 20
12.5811
 30
0.0
 40
0.0677
100
AcDbArc
 50
215.4293
 51
21.2198
  0
ARC
  5
4E
330
18
100
AcDbEntity
  8
DEFAULT
100
AcDbCircle
 10
-1.1314
 20
12.8102
 30
0.0
 40
0.98
100
AcDbArc
 50
181.6025
 51
192.0531
  0
ARC
  5
4F
330
18
100
AcDbEntity
  8
DEFAULT
100
AcDbCircle
 10
-2.7398
 20
12.0172
 30
0.0
 40
1.0744
100
AcDbArc
 50
38.98960000000001
 51
48.4865
  0
ARC
  5
50
330
18
100
AcDbEntity
  8
DEFAULT
100
AcDbCircle
 10
-2.0609
 20
12.7844
 30
0.0
 40
0.05
100
AcDbArc
 50
48.3283
 51
181.8365
  0
ARC
  5
51
330
18
100
AcDbEntity
  8
DEFAULT
100
AcDbCircle
 10
0.9141
 20
6.8941
 30
0.0
 40
0.0677
100
AcDbArc
 50
35.4293
 51
201.2198
  0
ARC
  5
52
330
18
100
AcDbEntity
  8
DEFAULT
100
AcDbCircle
 10
-0.1074
 20
6.665
 30
0.0
 40
0.98
100
AcDbArc
 50
1.6025
 51
12.0531
  0
ARC
  5
53
330
18
100
AcDbEntity
  8
DEFAULT
100
AcDbCircle
 10
1.501
 20
7.458
 30
0.0
 40
1.0744
100
AcDbArc
 50
218.9896
 51
228.4865
  0
ARC
  5
54
330
18
100
AcDbEntity
  8
DEFAULT
100
AcDbCircle
 10
0.8221
 20
6.6908
 30
0.0
 40
0.05
100
AcDbArc
 50
228.3283
 51
1.8365
  0
ARC
  5
55
330
18
100
AcDbEntity
  8
DEFAULT
100
AcDbCircle
 10
-2.4417
 20
12.4052
 30
0.0
 40
0.0677
100
AcDbArc
 50
221.4648
 51
27.1709
  0
ARC
  5
56
330
18
100
AcDbEntity
  8
DEFAULT
100
AcDbCircle
 10
-1.4497
 20
12.7398
 30
0.0
 40
0.98
100
AcDbArc
 50
187.6008
 51
198.0503
  0
ARC
  5
57
330
18
100
AcDbEntity
  8
DEFAULT
100
AcDbCircle
 10
-2.9664
 20
11.783
 30
0.0
 40
1.0744
100
AcDbArc
 50
44.9925
 51
54.4859
  0
ARC
  5
58
330
18
100
AcDbEntity
  8
DEFAULT
100
AcDbCircle
 10
-2.3714
 20
12.617
 30
0.0
 40
0.05
100
AcDbArc
 50
54.3021
 51
187.822
  0
ARC
  5
59
330
18
100
AcDbEntity
  8
DEFAULT
100
AcDbCircle
 10
1.2029
 20
7.07
 30
0.0
 40
0.0677
100
AcDbArc
 50
41.4648
 51
207.1708999999999
  0
ARC
  5
5A
330
18
100
AcDbEntity
  8
DEFAULT
100
AcDbCircle
 10
0.2109
 20
6.7354
 30
0.0
 40
0.98
100
AcDbArc
 50
7.6008
 51
18.0503
  0
ARC
  5
5B
330
18
100
AcDbEntity
  8
DEFAULT
100
AcDbCircle
 10
1.7276
 20
7.6922
 30
0.0
 40
1.0744
100
AcDbArc
 50
224.9925
 51
234.4859
  0
ARC
  5
5C
330
18
100
AcDbEntity
  8
DEFAULT
100
AcDbCircle
 10
1.1326
 20
6.8582
 30
0.0
 40
0.05
100
AcDbArc
 50
234.3021
 51
7.821999999999999
  0
ARC
  5
5D
330
18
100
AcDbEntity
  8
DEFAULT
100
AcDbCircle
 10
-2.7105
 20
12.2001
 30
0.0
 40
0.0677
100
AcDbArc
 50
227.5156
 51
33.1731
  0
ARC
  5
5E
330
18
100
AcDbEntity
  8
DEFAULT
100
AcDbCircle
 10
-1.7589
 20
12.6365
 30
0.0
 40
0.98
100
AcDbArc
 50
193.6008
 51
204.0486
  0
ARC
  5
5F
330
18
100
AcDbEntity
  8
DEFAULT
100
AcDbCircle
 10
-3.1673
 20
11.5264
 30
0.0
 40
1.0744
100
AcDbArc
 50
50.9954
 51
60.486
  0
ARC
  5
60
330
18
100
AcDbEntity
  8
DEFAULT
100
AcDbCircle
 10
-2.6627
 20
12.418
 30
0.0
 40
0.05
100
AcDbArc
 50
60.35470000000002
 51
193.7858
  0
ARC
  5
61
330
18
100
AcDbEntity
  8
DEFAULT
100
AcDbCircle
 10
1.4717
 20
7.2751
 30
0.0
 40
0.0677
100
AcDbArc
 50
47.51560000000001
 51
213.1731
  0
ARC
  5
62
330
18
100
AcDbEntity
  8
DEFAULT
100
AcDbCircle
 10
0.5201
 20
6.8387
 30
0.0
 40
0.98
100
AcDbArc
 50
13.6008
 51
24.0486
  0
ARC
  5
63
330
18
100
AcDbEntity
  8
DEFAULT
100
AcDbCircle
 10
1.9285
 20
7.9488
 30
0.0
 40
1.0744
100
AcDbArc
 50
230.9954
 51
240.486
  0
ARC
  5
64
330
18
100
AcDbEntity
  8
DEFAULT
100
AcDbCircle
 10
1.4239
 20
7.0572
 30
0.0
 40
0.05
100
AcDbArc
 50
240.3547
 51
13.7858
  0
ARC
  5
65
330
18
100
AcDbEntity
  8
DEFAULT
100
AcDbCircle
 10
-2.9564
 20
11.968
 30
0.0
 40
0.0677
100
AcDbArc
 50
233.5367
 51
39.1761
  0
ARC
  5
66
330
18
100
AcDbEntity
  8
DEFAULT
100
AcDbCircle
 10
-2.0556
 20
12.5015
 30
0.0
 40
0.98
100
AcDbArc
 50
199.6019
 51
210.0502
  0
ARC
  5
67
330
18
100
AcDbEntity
  8
DEFAULT
100
AcDbCircle
 10
-3.3403
 20
11.2502
 30
0.0
 40
1.0744
100
AcDbArc
 50
56.99179999999999
 51
66.4842
  0
ARC
  5
68
330
18
100
AcDbEntity
  8
DEFAULT
100
AcDbCircle
 10
-2.9316
 20
12.1897
 30
0.0
 40
0.05
100
AcDbArc
 50
66.36400000000002
 51
199.7773
  0
ARC
  5
69
330
18
100
AcDbEntity
  8
DEFAULT
100
AcDbCircle
 10
1.7176
 20
7.5072
 30
0.0
 40
0.0677
100
AcDbArc
 50
53.5367
 51
219.1761
  0
ARC
  5
6A
330
18
100
AcDbEntity
  8
DEFAULT
100
AcDbCircle
 10
0.8168
 20
6.9737
 30
0.0
 40
0.98
100
AcDbArc
 50
19.6019
 51
30.0502
  0
ARC
  5
6B
330
18
100
AcDbEntity
  8
DEFAULT
100
AcDbCircle
 10
2.1015
 20
8.225
 30
0.0
 40
1.0744
100
AcDbArc
 50
236.9918
 51
246.4841999999999
  0
ARC
  5
6C
330
18
100
AcDbEntity
  8
DEFAULT
100
AcDbCircle
 10
1.6928
 20
7.2855
 30
0.0
 40
0.05
100
AcDbArc
 50
246.364
 51
19.7773
  0
ARC
  5
6D
330
18
100
AcDbEntity
  8
DEFAULT
100
AcDbCircle
 10
-3.1767
 20
11.7114
 30
0.0
 40
0.0677
100
AcDbArc
 50
239.5302
 51
45.17960000000001
  0
ARC
  5
6E
330
18
100
AcDbEntity
  8
DEFAULT
100
AcDbCircle
 10
-2.3366
 20
12.3362
 30
0.0
 40
0.98
100
AcDbArc
 50
205.6026
 51
216.0536
  0
ARC
  5
6F
330
18
100
AcDbEntity
  8
DEFAULT
100
AcDbCircle
 10
-3.4835
 20
10.9575
 30
0.0
 40
1.0744
100
AcDbArc
 50
62.98660000000001
 51
72.4825
  0
ARC
  5
70
330
18
100
AcDbEntity
  8
DEFAULT
100
AcDbCircle
 10
-3.1752
 20
11.9345
 30
0.0
 40
0.05
100
AcDbArc
 50
72.39960000000002
 51
205.7444
  0
ARC
  5
71
330
18
100
AcDbEntity
  8
DEFAULT
100
AcDbCircle
 10
1.9379
 20
7.7638
 30
0.0
 40
0.0677
100
AcDbArc
 50
59.53020000000001
 51
225.1796
  0
ARC
  5
72
330
18
100
AcDbEntity
  8
DEFAULT
100
AcDbCircle
 10
1.0978
 20
7.139
 30
0.0
 40
0.98
100
AcDbArc
 50
25.6026
 51
36.0536
  0
ARC
  5
73
330
18
100
AcDbEntity
  8
DEFAULT
100
AcDbCircle
 10
2.2447
 20
8.5177
 30
0.0
 40
1.0744
100
AcDbArc
 50
242.9866
 51
252.4825
  0
ARC
  5
74
330
18
100
AcDbEntity
  8
DEFAULT
100
AcDbCircle
 10
1.9364
 20
7.5407
 30
0.0
 40
0.05
100
AcDbArc
 50
252.3996
 51
25.7444
  0
ARC
  5
75
330
18
100
AcDbEntity
  8
DEFAULT
100
AcDbCircle
 10
-3.369
 20
11.4332
 30
0.0
 40
0.0677
100
AcDbArc
 50
245.521
 51
51.1155
  0
ARC
  5
76
330
18
100
AcDbEntity
  8
DEFAULT
100
AcDbCircle
 10
-2.5988
 20
12.1424
 30
0.0
 40
0.98
100
AcDbArc
 50
211.6006
 51
222.0546
  0
ARC
  5
77
330
18
100
AcDbEntity
  8
DEFAULT
100
AcDbCircle
 10
-3.5953
 20
10.6514
 30
0.0
 40
1.0744
100
AcDbArc
 50
68.9858
 51
78.4788
  0
ARC
  5
78
330
18
100
AcDbEntity
  8
DEFAULT
100
AcDbCircle
 10
-3.3908
 20
11.6553
 30
0.0
 40
0.05
100
AcDbArc
 50
78.33
 51
211.7502
  0
ARC
  5
79
330
18
100
AcDbEntity
  8
DEFAULT
100
AcDbCircle
 10
2.1302
 20
8.042
 30
0.0
 40
0.0677
100
AcDbArc
 50
65.521
 51
231.1155
  0
ARC
  5
7A
330
18
100
AcDbEntity
  8
DEFAULT
100
AcDbCircle
 10
1.36
 20
7.3328
 30
0.0
 40
0.98
100
AcDbArc
 50
31.6006
 51
42.0546
  0
ARC
  5
7B
330
18
100
AcDbEntity
  8
DEFAULT
100
AcDbCircle
 10
2.3565
 20
8.8238
 30
0.0
 40
1.0744
100
AcDbArc
 50
248.9858
 51
258.4788
  0
ARC
  5
7C
330
18
100
AcDbEntity
  8
DEFAULT
100
AcDbCircle
 10
2.152
 20
7.8199
 30
0.0
 40
0.05
100
AcDbArc
 50
258.33
 51
31.7502
  0
ARC
  5
7D
330
18
100
AcDbEntity
  8
DEFAULT
100
AcDbCircle
 10
-3.5311
 20
11.1364
 30
0.0
 40
0.0677
100
AcDbArc
 50
251.5114
 51
57.17829999999999
  0
ARC
  5
7E
330
18
100
AcDbEntity
  8
DEFAULT
100
AcDbCircle
 10
-2.8393
 20
11.9223
 30
0.0
 40
0.98
100
AcDbArc
 50
217.6021
 51
228.0571
  0
ARC
  5
7F
330
18
100
AcDbEntity
  8
DEFAULT
100
AcDbCircle
 10
-3.6745
 20
10.3353
 30
0.0
 40
1.0744
100
AcDbArc
 50
74.9834
 51
84.47730000000001
  0
ARC
  5
80
330
18
100
AcDbEntity
  8
DEFAULT
100
AcDbCircle
 10
-3.576
 20
11.3551
 30
0.0
 40
0.05
100
AcDbArc
 50
84.358
 51
217.7644
  0
ARC
  5
81
330
18
100
AcDbEntity
  8
DEFAULT
100
AcDbCircle
 10
2.2923
 20
8.3388
 30
0.0
 40
0.0677
100
AcDbArc
 50
71.5114
 51
237.1783
  0
ARC
  5
82
330
18
100
AcDbEntity
  8
DEFAULT
100
AcDbCircle
 10
1.6005
 20
7.5529
 30
0.0
 40
0.98
100
AcDbArc
 50
37.60209999999999
 51
48.05710000000001
  0
ARC
  5
83
330
18
100
AcDbEntity
  8
DEFAULT
100
AcDbCircle
 10
2.4357
 20
9.1399
 30
0.0
 40
1.0744
100
AcDbArc
 50
254.9834
 51
264.4773
  0
ARC
  5
84
330
18
100
AcDbEntity
  8
DEFAULT
100
AcDbCircle
 10
2.3372
 20
8.1201
 30
0.0
 40
0.05
100
AcDbArc
 50
264.3579999999999
 51
37.7644
  0
ARC
  5
85
330
18
100
AcDbEntity
  8
DEFAULT
100
AcDbCircle
 10
-3.6613
 20
10.8243
 30
0.0
 40
0.0677
100
AcDbArc
 50
257.508
 51
63.2459
  0
ARC
  5
86
330
18
100
AcDbEntity
  8
DEFAULT
100
AcDbCircle
 10
-3.0555
 20
11.6782
 30
0.0
 40
0.98
100
AcDbArc
 50
223.602
 51
234.0565
  0
ARC
  5
87
330
18
100
AcDbEntity
  8
DEFAULT
100
AcDbCircle
 10
-3.7202
 20
10.0126
 30
0.0
 40
1.0744
100
AcDbArc
 50
80.983
 51
90.47460000000001
  0
ARC
  5
88
330
18
100
AcDbEntity
  8
DEFAULT
100
AcDbCircle
 10
-3.7288
 20
11.0371
 30
0.0
 40
0.05
100
AcDbArc
 50
90.3445
 51
223.7017
  0
ARC
  5
89
330
18
100
AcDbEntity
  8
DEFAULT
100
AcDbCircle
 10
2.4225
 20
8.6509
 30
0.0
 40
0.0677
100
AcDbArc
 50
77.508
 51
243.2459
  0
ARC
  5
8A
330
18
100
AcDbEntity
  8
DEFAULT
100
AcDbCircle
 10
1.8167
 20
7.797
 30
0.0
 40
0.98
100
AcDbArc
 50
43.602
 51
54.0565
  0
ARC
  5
8B
330
18
100
AcDbEntity
  8
DEFAULT
100
AcDbCircle
 10
2.4814
 20
9.4626
 30
0.0
 40
1.0744
100
AcDbArc
 50
260.983
 51
270.4746
  0
ARC
  5
8C
330
18
100
AcDbEntity
  8
DEFAULT
100
AcDbCircle
 10
2.49
 20
8.4381
 30
0.0
 40
0.05
100
AcDbArc
 50
270.3445
 51
43.7017
  0
ARC
  5
8D
330
18
100
AcDbEntity
  8
DEFAULT
100
AcDbCircle
 10
-3.7582
 20
10.5003
 30
0.0
 40
0.0677
100
AcDbArc
 50
263.5284
 51
69.2659
  0
ARC
  5
8E
330
18
100
AcDbEntity
  8
DEFAULT
100
AcDbCircle
 10
-3.245
 20
11.4129
 30
0.0
 40
0.98
100
AcDbArc
 50
229.6081
 51
240.0593
  0
ARC
  5
8F
330
18
100
AcDbEntity
  8
DEFAULT
100
AcDbCircle
 10
-3.7319
 20
9.687
 30
0.0
 40
1.0744
100
AcDbArc
 50
86.98549999999999
 51
96.4774
  0
ARC
  5
90
330
18
100
AcDbEntity
  8
DEFAULT
100
AcDbCircle
 10
-3.8476
 20
10.7049
 30
0.0
 40
0.05
100
AcDbArc
 50
96.3275
 51
229.7974
  0
ARC
  5
91
330
18
100
AcDbEntity
  8
DEFAULT
100
AcDbCircle
 10
2.5194
 20
8.9749
 30
0.0
 40
0.0677
100
AcDbArc
 50
83.5284
 51
249.2659
  0
ARC
  5
92
330
18
100
AcDbEntity
  8
DEFAULT
100
AcDbCircle
 10
2.0062
 20
8.0623
 30
0.0
 40
0.98
100
AcDbArc
 50
49.6081
 51
60.05929999999999
  0
ARC
  5
93
330
18
100
AcDbEntity
  8
DEFAULT
100
AcDbCircle
 10
2.4931
 20
9.7882
 30
0.0
 40
1.0744
100
AcDbArc
 50
266.9855
 51
276.4774
  0
ARC
  5
94
330
18
100
AcDbEntity
  8
DEFAULT
100
AcDbCircle
 10
2.6088
 20
8.7703
 30
0.0
 40
0.05
100
AcDbArc
 50
276.3275
 51
49.7974
  0
ARC
  5
95
330
18
100
AcDbEntity
  8
DEFAULT
100
AcDbCircle
 10
-3.8207
 20
10.168
 30
0.0
 40
0.0677
100
AcDbArc
 50
269.575
 51
75.2048
  0
ARC
  5
96
330
18
100
AcDbEntity
  8
DEFAULT
100
AcDbCircle
 10
-3.4057
 20
11.1292
 30
0.0
 40
0.98
100
AcDbArc
 50
235.6075
 51
246.0565
  0
ARC
  5
97
330
18
100
AcDbEntity
  8
DEFAULT
100
AcDbCircle
 10
-3.7095
 20
9.362
 30
0.0
 40
1.0744
100
AcDbArc
 50
92.98810000000002
 51
102.4773
  0
ARC
  5
98
330
18
100
AcDbEntity
  8
DEFAULT
100
AcDbCircle
 10
-3.931
 20
10.3621
 30
0.0
 40
0.05
100
AcDbArc
 50
102.255
 51
235.7995
  0
ARC
  5
99
330
18
100
AcDbEntity
  8
DEFAULT
100
AcDbCircle
 10
2.5819
 20
9.3072
 30
0.0
 40
0.0677
100
AcDbArc
 50
89.575
 51
255.2048
  0
ARC
  5
9A
330
18
100
AcDbEntity
  8
DEFAULT
100
AcDbCircle
 10
2.1669
 20
8.346
 30
0.0
 40
0.98
100
AcDbArc
 50
55.60749999999999
 51
66.05649999999999
  0
ARC
  5
9B
330
18
100
AcDbEntity
  8
DEFAULT
100
AcDbCircle
 10
2.4707
 20
10.1132
 30
0.0
 40
1.0744
100
AcDbArc
 50
272.9881
 51
282.4773
  0
ARC
  5
9C
330
18
100
AcDbEntity
  8
DEFAULT
100
AcDbCircle
 10
2.6922
 20
9.1131
 30
0.0
 40
0.05
100
AcDbArc
 50
282.255
 51
55.79950000000001
  0
ARC
  5
9D
330
18
100
AcDbEntity
  8
DEFAULT
100
AcDbCircle
 10
-3.8481
 20
9.831
 30
0.0
 40
0.0677
100
AcDbArc
 50
275.533
 51
81.16380000000001
  0
ARC
  5
9E
330
18
100
AcDbEntity
  8
DEFAULT
100
AcDbCircle
 10
-3.5358
 20
10.8303
 30
0.0
 40
0.98
100
AcDbArc
 50
241.6061
 51
252.0533
  0
ARC
  5
9F
330
18
100
AcDbEntity
  8
DEFAULT
100
AcDbCircle
 10
-3.6533
 20
9.0411
 30
0.0
 40
1.0744
100
AcDbArc
 50
98.98700000000001
 51
108.4754
  0
ARC
  5
A0
330
18
100
AcDbEntity
  8
DEFAULT
100
AcDbCircle
 10
-3.9781
 20
10.0125
 30
0.0
 40
0.05
100
AcDbArc
 50
108.2171
 51
241.8395
  0
ARC
  5
A1
330
18
100
AcDbEntity
  8
DEFAULT
100
AcDbCircle
 10
2.6093
 20
9.6442
 30
0.0
 40
0.0677
100
AcDbArc
 50
95.533
 51
261.1637999999999
  0
ARC
  5
A2
330
18
100
AcDbEntity
  8
DEFAULT
100
AcDbCircle
 10
2.297
 20
8.6449
 30
0.0
 40
0.98
100
AcDbArc
 50
61.6061
 51
72.0533
  0
ARC
  5
A3
330
18
100
AcDbEntity
  8
DEFAULT
100
AcDbCircle
 10
2.4145
 20
10.4341
 30
0.0
 40
1.0744
100
AcDbArc
 50
278.987
 51
288.4754
  0
ARC
  5
A4
330
18
100
AcDbEntity
  8
DEFAULT
100
AcDbCircle
 10
2.7393
 20
9.4627
 30
0.0
 40
0.05
100
AcDbArc
 50
288.2171
 51
61.83950000000001
  0
ARC
  5
A5
330
18
100
AcDbEntity
  8
DEFAULT
100
AcDbCircle
 10
-3.8401
 20
9.493
 30
0.0
 40
0.0677
100
AcDbArc
 50
281.5601
 51
87.20939999999999
  0
ARC
  5
A6
330
18
100
AcDbEntity
  8
DEFAULT
100
AcDbCircle
 10
-3.634
 20
10.5194
 30
0.0
 40
0.98
100
AcDbArc
 50
247.6033
 51
258.0523
  0
ARC
  5
A7
330
18
100
AcDbEntity
  8
DEFAULT
100
AcDbCircle
 10
-3.5638
 20
8.7278
 30
0.0
 40
1.0744
100
AcDbArc
 50
104.9885
 51
114.4775
  0
ARC
  5
A8
330
18
100
AcDbEntity
  8
DEFAULT
100
AcDbCircle
 10
-3.9884
 20
9.66
 30
0.0
 40
0.05
100
AcDbArc
 50
114.2539
 51
247.8573
  0
ARC
  5
A9
330
18
100
AcDbEntity
  8
DEFAULT
100
AcDbCircle
 10
2.6013
 20
9.9822
 30
0.0
 40
0.0677
100
AcDbArc
 50
101.5601
 51
267.2094
  0
ARC
  5
AA
330
18
100
AcDbEntity
  8
DEFAULT
100
AcDbCircle
 10
2.3952
 20
8.9558
 30
0.0
 40
0.98
100
AcDbArc
 50
67.60329999999999
 51
78.0523
  0
ARC
  5
AB
330
18
100
AcDbEntity
  8
DEFAULT
100
AcDbCircle
 10
2.325
 20
10.7474
 30
0.0
 40
1.0744
100
AcDbArc
 50
284.9884999999999
 51
294.4775
  0
ARC
  5
AC
330
18
100
AcDbEntity
  8
DEFAULT
100
AcDbCircle
 10
2.7496
 20
9.8152
 30
0.0
 40
0.05
100
AcDbArc
 50
294.2539
 51
67.8573
  0
ARC
  5
AD
330
18
100
AcDbEntity
  8
DEFAULT
100
AcDbCircle
 10
-3.7968
 20
9.1577
 30
0.0
 40
0.0677
100
AcDbArc
 50
287.5468999999999
 51
93.21259999999998
  0
ARC
  5
AE
330
18
100
AcDbEntity
  8
DEFAULT
100
AcDbCircle
 10
-3.6992
 20
10.2
 30
0.0
 40
0.98
100
AcDbArc
 50
253.6022
 51
264.0525000000001
  0
ARC
  5
AF
330
18
100
AcDbEntity
  8
DEFAULT
100
AcDbCircle
 10
-3.4421
 20
8.4256
 30
0.0
 40
1.0744
100
AcDbArc
 50
110.9862
 51
120.4753
  0
ARC
  5
B0
330
18
100
AcDbEntity
  8
DEFAULT
100
AcDbCircle
 10
-3.9618
 20
9.3083
 30
0.0
 40
0.05
100
AcDbArc
 50
120.2151
 51
253.8179
  0
ARC
  5
B1
330
18
100
AcDbEntity
  8
DEFAULT
100
AcDbCircle
 10
2.558
 20
10.3175
 30
0.0
 40
0.0677
100
AcDbArc
 50
107.5469
 51
273.2126
  0
ARC
  5
B2
330
18
100
AcDbEntity
  8
DEFAULT
100
AcDbCircle
 10
2.4604
 20
9.2752
 30
0.0
 40
0.98
100
AcDbArc
 50
73.6022
 51
84.05250000000001
  0
ARC
  5
B3
330
18
100
AcDbEntity
  8
DEFAULT
100
AcDbCircle
 10
2.2033
 20
11.0496
 30
0.0
 40
1.0744
100
AcDbArc
 50
290.9862
 51
300.4753
  0
ARC
  5
B4
330
18
100
AcDbEntity
  8
DEFAULT
100
AcDbCircle
 10
2.723
 20
10.1669
 30
0.0
 40
0.05
100
AcDbArc
 50
300.2151
 51
73.8179
  0
ARC
  5
B5
330
18
100
AcDbEntity
  8
DEFAULT
100
AcDbCircle
 10
-3.7187
 20
8.8288
 30
0.0
 40
0.0677
100
AcDbArc
 50
293.5563
 51
99.25389999999999
  0
ARC
  5
B6
330
18
100
AcDbEntity
  8
DEFAULT
100
AcDbCircle
 10
-3.7306
 20
9.8755
 30
0.0
 40
0.98
100
AcDbArc
 50
259.5999
 51
270.0526
  0
ARC
  5
B7
330
18
100
AcDbEntity
  8
DEFAULT
100
AcDbCircle
 10
-3.2894
 20
8.1378
 30
0.0
 40
1.0744
100
AcDbArc
 50
116.9897
 51
126.4752
  0
ARC
  5
B8
330
18
100
AcDbEntity
  8
DEFAULT
100
AcDbCircle
 10
-3.8986
 20
8.9613
 30
0.0
 40
0.05
100
AcDbArc
 50
126.1118
 51
259.839
  0
ARC
  5
B9
330
18
100
AcDbEntity
  8
DEFAULT
100
AcDbCircle
 10
2.4799
 20
10.6464
 30
0.0
 40
0.0677
100
AcDbArc
 50
113.5563
 51
279.2539
  0
ARC
  5
BA
330
18
100
AcDbEntity
  8
DEFAULT
100
AcDbCircle
 10
2.4918
 20
9.5997
 30
0.0
 40
0.98
100
AcDbArc
 50
79.59989999999999
 51
90.0526
  0
ARC
  5
BB
330
18
100
AcDbEntity
  8
DEFAULT
100
AcDbCircle
 10
2.0506
 20
11.3374
 30
0.0
 40
1.0744
100
AcDbArc
 50
296.9897
 51
306.4752
  0
ARC
  5
BC
330
18
100
AcDbEntity
  8
DEFAULT
100
AcDbCircle
 10
2.6598
 20
10.5139
 30
0.0
 40
0.05
100
AcDbArc
 50
306.1118
 51
79.839
  0
ARC
  5
BD
330
18
100
AcDbEntity
  8
DEFAULT
100
AcDbCircle
 10
-3.6067
 20
8.5099
 30
0.0
 40
0.0677
100
AcDbArc
 50
299.5338
 51
105.2255
  0
ARC
  5
BE
330
18
100
AcDbEntity
  8
DEFAULT
100
AcDbCircle
 10
-3.7279
 20
9.5496
 30
0.0
 40
0.98
100
AcDbArc
 50
265.5964000000001
 51
276.0534
  0
ARC
  5
BF
330
18
100
AcDbEntity
  8
DEFAULT
100
AcDbCircle
 10
-3.1075
 20
7.8675
 30
0.0
 40
1.0744
100
AcDbArc
 50
122.9903
 51
132.476
  0
ARC
  5
C0
330
18
100
AcDbEntity
  8
DEFAULT
100
AcDbCircle
 10
-3.7994
 20
8.6228
 30
0.0
 40
0.05
100
AcDbArc
 50
132.1579
 51
265.7424
  0
ARC
  5
C1
330
18
100
AcDbEntity
  8
DEFAULT
100
AcDbCircle
 10
2.3679
 20
10.9653
 30
0.0
 40
0.0677
100
AcDbArc
 50
119.5338
 51
285.2255
  0
ARC
  5
C2
330
18
100
AcDbEntity
  8
DEFAULT
100
AcDbCircle
 10
2.4891
 20
9.9256
 30
0.0
 40
0.98
100
AcDbArc
 50
85.5964
 51
96.05339999999998
  0
ARC
  5
C3
330
18
100
AcDbEntity
  8
DEFAULT
100
AcDbCircle
 10
1.8687
 20
11.6077
 30
0.0
 40
1.0744
100
AcDbArc
 50
302.9903
 51
312.476
  0
ARC
  5
C4
330
18
100
AcDbEntity
  8
DEFAULT
100
AcDbCircle
 10
2.5606
 20
10.8524
 30
0.0
 40
0.05
100
AcDbArc
 50
312.1579
 51
85.74239999999999
  0
ARC
  5
C5
330
18
100
AcDbEntity
  8
DEFAULT
100
AcDbCircle
 10
-3.462
 20
8.2044
 30
0.0
 40
0.0677
100
AcDbArc
 50
305.5772
 51
111.1892
  0
ARC
  5
C6
330
18
100
AcDbEntity
  8
DEFAULT
100
AcDbCircle
 10
-3.6912
 20
9.2258
 30
0.0
 40
0.98
100
AcDbArc
 50
271.5972
 51
282.0554999999999
  0
ARC
  5
C7
330
18
100
AcDbEntity
  8
DEFAULT
100
AcDbCircle
 10
-2.8983
 20
7.6177
 30
0.0
 40
1.0744
100
AcDbArc
 50
128.9922
 51
138.4754
  0
ARC
  5
C8
330
18
100
AcDbEntity
  8
DEFAULT
100
AcDbCircle
 10
-3.6654
 20
8.2966
 30
0.0
 40
0.05
100
AcDbArc
 50
138.1663
 51
271.7218
  0
ARC
  5
C9
330
18
100
AcDbEntity
  8
DEFAULT
100
AcDbCircle
 10
2.2232
 20
11.2708
 30
0.0
 40
0.0677
100
AcDbArc
 50
125.5772
 51
291.1892
  0
ARC
  5
CA
330
18
100
AcDbEntity
  8
DEFAULT
100
AcDbCircle
 10
2.4524
 20
10.2494
 30
0.0
 40
0.98
100
AcDbArc
 50
91.59719999999999
 51
102.0555
  0
ARC
  5
CB
330
18
100
AcDbEntity
  8
DEFAULT
100
AcDbCircle
 10
1.6595
 20
11.8575
 30
0.0
 40
1.0744
100
AcDbArc
 50
308.9922
 51
318.4753999999999
  0
ARC
  5
CC
330
18
100
AcDbEntity
  8
DEFAULT
100
AcDbCircle
 10
2.4266
 20
11.1786
 30
0.0
 40
0.05
100
AcDbArc
 50
318.1663
 51
91.7218
  0
ARC
  5
CD
330
18
100
AcDbEntity
  8
DEFAULT
100
AcDbCircle
 10
-3.2861
 20
7.9157
 30
0.0
 40
0.0677
100
AcDbArc
 50
311.57
 51
117.2075
  0
ARC
  5
CE
330
18
100
AcDbEntity
  8
DEFAULT
100
AcDbCircle
 10
-3.6208
 20
8.9076
 30
0.0
 40
0.98
100
AcDbArc
 50
277.5973
 51
288.0539
  0
ARC
  5
CF
330
18
100
AcDbEntity
  8
DEFAULT
100
AcDbCircle
 10
-2.6642
 20
7.3912
 30
0.0
 40
1.0744
100
AcDbArc
 50
134.9925
 51
144.4753
  0
ARC
  5
D0
330
18
100
AcDbEntity
  8
DEFAULT
100
AcDbCircle
 10
-3.498
 20
7.9862
 30
0.0
 40
0.05
100
AcDbArc
 50
144.2089
 51
277.7083
  0
ARC
  5
D1
330
18
100
AcDbEntity
  8
DEFAULT
100
AcDbCircle
 10
2.0473
 20
11.5595
 30
0.0
 40
0.0677
100
AcDbArc
 50
131.57
 51
297.2075
  0
ARC
  5
D2
330
18
100
AcDbEntity
  8
DEFAULT
100
AcDbCircle
 10
2.382
 20
10.5676
 30
0.0
 40
0.98
100
AcDbArc
 50
97.59730000000002
 51
108.0539
  0
ARC
  5
D3
330
18
100
AcDbEntity
  8
DEFAULT
100
AcDbCircle
 10
1.4254
 20
12.084
 30
0.0
 40
1.0744
100
AcDbArc
 50
314.9925
 51
324.4753
  0
ARC
  5
D4
330
18
100
AcDbEntity
  8
DEFAULT
100
AcDbCircle
 10
2.2592
 20
11.489
 30
0.0
 40
0.05
100
AcDbArc
 50
324.2089
 51
97.70829999999998
  0
ARC
  5
D5
330
18
100
AcDbEntity
  8
DEFAULT
100
AcDbCircle
 10
-3.081
 20
7.647
 30
0.0
 40
0.0677
100
AcDbArc
 50
317.5261
 51
123.1976
  0
ARC
  5
D6
330
18
100
AcDbEntity
  8
DEFAULT
100
AcDbCircle
 10
-3.5175
 20
8.5985
 30
0.0
 40
0.98
100
AcDbArc
 50
283.5922
 51
294.048
  0
ARC
  5
D7
330
18
100
AcDbEntity
  8
DEFAULT
100
AcDbCircle
 10
-2.4077
 20
7.1904
 30
0.0
 40
1.0744
100
AcDbArc
 50
140.9936
 51
150.4734
  0
ARC
  5
D8
330
18
100
AcDbEntity
  8
DEFAULT
100
AcDbCircle
 10
-3.2991
 20
7.6949
 30
0.0
 40
0.05
100
AcDbArc
 50
150.0986
 51
283.6743
  0
ARC
  5
D9
330
18
100
AcDbEntity
  8
DEFAULT
100
AcDbCircle
 10
1.8422
 20
11.8282
 30
0.0
 40
0.0677
100
AcDbArc
 50
137.5261
 51
303.1976000000001
  0
ARC
  5
DA
330
18
100
AcDbEntity
  8
DEFAULT
100
AcDbCircle
 10
2.2787
 20
10.8767
 30
0.0
 40
0.98
100
AcDbArc
 50
103.5922
 51
114.048
  0
ARC
  5
DB
330
18
100
AcDbEntity
  8
DEFAULT
100
AcDbCircle
 10
1.1689
 20
12.2848
 30
0.0
 40
1.0744
100
AcDbArc
 50
320.9936
 51
330.4734
  0
ARC
  5
DC
330
18
100
AcDbEntity
  8
DEFAULT
100
AcDbCircle
 10
2.0603
 20
11.7803
 30
0.0
 40
0.05
100
AcDbArc
 50
330.0986
 51
103.6743
  0
ARC
  5
DD
330
18
100
AcDbEntity
  8
DEFAULT
100
AcDbCircle
 10
-2.8489
 20
7.4012
 30
0.0
 40
0.0677
100
AcDbArc
 50
323.4534
 51
129.2537
  0
ARC
  5
DE
330
18
100
AcDbEntity
  8
DEFAULT
100
AcDbCircle
 10
-3.3825
 20
8.3019
 30
0.0
 40
0.98
100
AcDbArc
 50
289.5928
 51
300.0459
  0
ARC
  5
DF
330
18
100
AcDbEntity
  8
DEFAULT
100
AcDbCircle
 10
-2.1316
 20
7.0175
 30
0.0
 40
1.0744
100
AcDbArc
 50
146.9965
 51
156.4729
  0
ARC
  5
E0
330
18
100
AcDbEntity
  8
DEFAULT
100
AcDbCircle
 10
-3.0709
 20
7.426
 30
0.0
 40
0.05
100
AcDbArc
 50
156.0025
 51
289.7773000000001
  0
ARC
  5
E1
330
18
100
AcDbEntity
  8
DEFAULT
100
AcDbCircle
 10
1.6101
 20
12.074
 30
0.0
 40
0.0677
100
AcDbArc
 50
143.4534
 51
309.2537
  0
ARC
  5
E2
330
18
100
AcDbEntity
  8
DEFAULT
100
AcDbCircle
 10
2.1437
 20
11.1733
 30
0.0
 40
0.98
100
AcDbArc
 50
109.5928
 51
120.0459
  0
ARC
  5
E3
330
18
100
AcDbEntity
  8
DEFAULT
100
AcDbCircle
 10
0.8928
 20
12.4577
 30
0.0
 40
1.0744
100
AcDbArc
 50
326.9965
 51
336.4728999999999
  0
ARC
  5
E4
330
18
100
AcDbEntity
  8
DEFAULT
100
AcDbCircle
 10
1.8321
 20
12.0492
 30
0.0
 40
0.05
100
AcDbArc
 50
336.0025
 51
109.7773
  0
ARC
  5
E5
330
18
100
AcDbEntity
  8
DEFAULT
100
AcDbCircle
 10
-2.5924
 20
7.181
 30
0.0
 40
0.0677
100
AcDbArc
 50
329.4741
 51
135.2987
  0
ARC
  5
E6
330
18
100
AcDbEntity
  8
DEFAULT
100
AcDbCircle
 10
-3.2172
 20
8.021
 30
0.0
 40
0.98
100
AcDbArc
 50
295.5893
 51
306.0429
  0
ARC
  5
E7
330
18
100
AcDbEntity
  8
DEFAULT
100
AcDbCircle
 10
-1.8389
 20
6.8744
 30
0.0
 40
1.0744
100
AcDbArc
 50
153.0008
 51
162.4742
  0
ARC
  5
E8
330
18
100
AcDbEntity
  8
DEFAULT
100
AcDbCircle
 10
-2.8158
 20
7.1825
 30
0.0
 40
0.05
100
AcDbArc
 50
162.0368
 51
295.7443999999999
  0
ARC
  5
E9
330
18
100
AcDbEntity
  8
DEFAULT
100
AcDbCircle
 10
1.3536
 20
12.2942
 30
0.0
 40
0.0677
100
AcDbArc
 50
149.4741
 51
315.2987
  0
ARC
  5
EA
330
18
100
AcDbEntity
  8
DEFAULT
100
AcDbCircle
 10
1.9784
 20
11.4542
 30
0.0
 40
0.98
100
AcDbArc
 50
115.5893
 51
126.0429
  0
ARC
  5
EB
330
18
100
AcDbEntity
  8
DEFAULT
100
AcDbCircle
 10
0.6001
 20
12.6008
 30
0.0
 40
1.0744
100
AcDbArc
 50
333.0008
 51
342.4742
  0
ARC
  5
EC
330
18
100
AcDbEntity
  8
DEFAULT
100
AcDbCircle
 10
1.577
 20
12.2927
 30
0.0
 40
0.05
100
AcDbArc
 50
342.0368
 51
115.7444
  0
ARC
  5
ED
330
18
100
AcDbEntity
  8
DEFAULT
100
AcDbCircle
 10
-2.3143
 20
6.9888
 30
0.0
 40
0.0677
100
AcDbArc
 50
335.5278999999999
 51
141.2874
  0
ARC
  5
EE
330
18
100
AcDbEntity
  8
DEFAULT
100
AcDbCircle
 10
-3.0235
 20
7.7589
 30
0.0
 40
0.98
100
AcDbArc
 50
301.5887
 51
312.0459
  0
ARC
  5
EF
330
18
100
AcDbEntity
  8
DEFAULT
100
AcDbCircle
 10
-1.5329
 20
6.7627
 30
0.0
 40
1.0744
100
AcDbArc
 50
159.0
 51
168.4767
  0
ARC
  5
F0
330
18
100
AcDbEntity
  8
DEFAULT
100
AcDbCircle
 10
-2.5366
 20
6.967
 30
0.0
 40
0.05
100
AcDbArc
 50
168.1054
 51
301.6526
  0
ARC
  5
F1
330
18
100
AcDbEntity
  8
DEFAULT
100
AcDbCircle
 10
1.0755
 20
12.4864
 30
0.0
 40
0.0677
100
AcDbArc
 50
155.5279
 51
321.2874
  0
ARC
  5
F2
330
18
100
AcDbEntity
  8
DEFAULT
100
AcDbCircle
 10
1.7847
 20
11.7163
 30
0.0
 40
0.98
100
AcDbArc
 50
121.5887
 51
132.0459
  0
ARC
  5
F3
330
18
100
AcDbEntity
  8
DEFAULT
100
AcDbCircle
 10
0.2941
 20
12.7125
 30
0.0
 40
1.0744
100
AcDbArc
 50
339.0
 51
348.4767000000001
  0
ARC
  5
F4
330
18
100
AcDbEntity
  8
DEFAULT
100
AcDbCircle
 10
1.2978
 20
12.5082
 30
0.0
 40
0.05
100
AcDbArc
 50
348.1054
 51
121.6526
  0
ARC
  5
F5
330
18
100
AcDbEntity
  8
DEFAULT
100
AcDbCircle
 10
-2.0176
 20
6.8267
 30
0.0
 40
0.0677
100
AcDbArc
 50
341.5381
 51
147.2698
  0
ARC
  5
F6
330
18
100
AcDbEntity
  8
DEFAULT
100
AcDbCircle
 10
-2.8034
 20
7.5185
 30
0.0
 40
0.98
100
AcDbArc
 50
307.5882
 51
318.0453999999999
  0
ARC
  5
F7
330
18
100
AcDbEntity
  8
DEFAULT
100
AcDbCircle
 10
-1.2169
 20
6.6836
 30
0.0
 40
1.0744
100
AcDbArc
 50
165.0036
 51
174.4762
  0
ARC
  5
F8
330
18
100
AcDbEntity
  8
DEFAULT
100
AcDbCircle
 10
-2.2364
 20
6.7818
 30
0.0
 40
0.05
100
AcDbArc
 50
174.027
 51
307.6736
  0
ARC
  5
F9
330
18
100
AcDbEntity
  8
DEFAULT
100
AcDbCircle
 10
0.7788
 20
12.6485
 30
0.0
 40
0.0677
100
AcDbArc
 50
161.5381
 51
327.2698
  0
ARC
  5
FA
330
18
100
AcDbEntity
  8
DEFAULT
100
AcDbCircle
 10
1.5646
 20
11.9567
 30
0.0
 40
0.98
100
AcDbArc
 50
127.5882
 51
138.0454
  0
ARC
  5
FB
330
18
100
AcDbEntity
  8
DEFAULT
100
AcDbCircle
 10
-0.0219
 20
12.7916
 30
0.0
 40
1.0744
100
AcDbArc
 50
345.0036
 51
354.4762
  0
ARC
  5
FC
330
18
100
AcDbEntity
  8
DEFAULT
100
AcDbCircle
 10
0.9976
 20
12.6934
 30
0.0
 40
0.05
100
AcDbArc
 50
354.0269999999999
 51
127.6736
  0
ARC
  5
FD
330
18
100
AcDbEntity
  8
DEFAULT
100
AcDbCircle
 10
-1.7056
 20
6.6965
 30
0.0
 40
0.0677
100
AcDbArc
 50
347.5543
 51
153.2085
  0
ARC
  5
FE
330
18
100
AcDbEntity
  8
DEFAULT
100
AcDbCircle
 10
-2.5594
 20
7.3024
 30
0.0
 40
0.98
100
AcDbArc
 50
313.5853
 51
324.0462
  0
ARC
  5
FF
330
18
100
AcDbEntity
  8
DEFAULT
100
AcDbCircle
 10
-0.8943
 20
6.6379
 30
0.0
 40
1.0744
100
AcDbArc
 50
171.0007
 51
180.4747
  0
ARC
  5
100
330
18
100
AcDbEntity
  8
DEFAULT
100
AcDbCircle
 10
-1.9185
 20
6.629
 30
0.0
 40
0.05
100
AcDbArc
 50
180.0
 51
313.6187
  0
ARC
  5
101
330
18
100
AcDbEntity
  8
DEFAULT
100
AcDbCircle
 10
0.4668
 20
12.7787
 30
0.0
 40
0.0677
100
AcDbArc
 50
167.5543
 51
333.2085000000001
  0
ARC
  5
102
330
18
100
AcDbEntity
  8
DEFAULT
100
AcDbCircle
 10
1.3206
 20
12.1728
 30
0.0
 40
0.98
100
AcDbArc
 50
133.5853
 51
144.0462
  0
ARC
  5
103
330
18
100
AcDbEntity
  8
DEFAULT
100
AcDbCircle
 10
-0.3445
 20
12.8373
 30
0.0
 40
1.0744
100
AcDbArc
 50
351.0006999999999
 51
0.4747
  0
ARC
  5
104
330
18
100
AcDbEntity
  8
DEFAULT
100
AcDbCircle
 10
0.6797
 20
12.8462
 30
0.0
 40
0.05
100
AcDbArc
 50
0.0
 51
133.6187
  0
ARC
  5
105
330
18
100
AcDbEntity
  8
DEFAULT
100
AcDbCircle
 10
-1.3817
 20
6.5997
 30
0.0
 40
0.0677
100
AcDbArc
 50
353.5092
 51
159.2169
  0
ARC
  5
106
330
18
100
AcDbEntity
  8
DEFAULT
100
AcDbCircle
 10
-2.2942
 20
7.113
 30
0.0
 40
0.98
100
AcDbArc
 50
319.5878
 51
330.0454
  0
ARC
  5
107
330
18
100
AcDbEntity
  8
DEFAULT
100
AcDbCircle
 10
-0.5688
 20
6.6262
 30
0.0
 40
1.0744
100
AcDbArc
 50
177.0004
 51
186.4733
  0
ARC
  5
108
330
18
100
AcDbEntity
  8
DEFAULT
100
AcDbCircle
 10
-1.5864
 20
6.5103
 30
0.0
 40
0.05
100
AcDbArc
 50
185.973
 51
319.6355
  0
ARC
  5
109
330
18
100
AcDbEntity
  8
DEFAULT
100
AcDbCircle
 10
0.1429
 20
12.8755
 30
0.0
 40
0.0677
100
AcDbArc
 50
173.5092
 51
339.2169
  0
ARC
  5
10A
330
18
100
AcDbEntity
  8
DEFAULT
100
AcDbCircle
 10
1.0554
 20
12.3622
 30
0.0
 40
0.98
100
AcDbArc
 50
139.5878
 51
150.0454
  0
ARC
  5
10B
330
18
100
AcDbEntity
  8
DEFAULT
100
AcDbCircle
 10
-0.67
 20
12.849
 30
0.0
 40
1.0744
100
AcDbArc
 50
357.0004
 51
6.473300000000001
  0
ARC
  5
10C
330
18
100
AcDbEntity
  8
DEFAULT
100
AcDbCircle
 10
0.3476
 20
12.9649
 30
0.0
 40
0.05
100
AcDbArc
 50
5.973000000000001
 51
139.6355
  0
ARC
  5
10D
330
18
100
AcDbEntity
  8
DEFAULT
100
AcDbCircle
 10
-1.0495
 20
6.5373
 30
0.0
 40
0.0677
100
AcDbArc
 50
359.4892
 51
165.2263
  0
ARC
  5
10E
330
18
100
AcDbEntity
  8
DEFAULT
100
AcDbCircle
 10
-2.0106
 20
6.9524
 30
0.0
 40
0.98
100
AcDbArc
 50
325.5864
 51
336.0439999999999
  0
ARC
  5
10F
330
18
100
AcDbEntity
  8
DEFAULT
100
AcDbCircle
 10
-0.2439
 20
6.6486
 30
0.0
 40
1.0744
100
AcDbArc
 50
182.9999
 51
192.4744
  0
ARC
  5
110
330
18
100
AcDbEntity
  8
DEFAULT
100
AcDbCircle
 10
-1.2437
 20
6.427
 30
0.0
 40
0.05
100
AcDbArc
 50
192.0067
 51
325.6097
  0
ARC
  5
111
330
18
100
AcDbEntity
  8
DEFAULT
100
AcDbCircle
 10
-0.1893
 20
12.9379
 30
0.0
 40
0.0677
100
AcDbArc
 50
179.4892
 51
345.2263
  0
ARC
  5
112
330
18
100
AcDbEntity
  8
DEFAULT
100
AcDbCircle
 10
0.7718
 20
12.5228
 30
0.0
 40
0.98
100
AcDbArc
 50
145.5864
 51
156.044
  0
ARC
  5
113
330
18
100
AcDbEntity
  8
DEFAULT
100
AcDbCircle
 10
-0.9949
 20
12.8266
 30
0.0
 40
1.0744
100
AcDbArc
 50
2.9999
 51
12.4744
  0
ARC
  5
114
330
18
100
AcDbEntity
  8
DEFAULT
100
AcDbCircle
 10
0.0049
 20
13.0482
 30
0.0
 40
0.05
100
AcDbArc
 50
12.0067
 51
145.6097
  0
ARC
  5
115
330
18
100
AcDbEntity
  8
DEFAULT
100
AcDbCircle
 10
-0.7126
 20
6.5099
 30
0.0
 40
0.0677
100
AcDbArc
 50
5.5412
 51
171.1767
  0
ARC
  5
116
330
18
100
AcDbEntity
  8
DEFAULT
100
AcDbCircle
 10
-1.7118
 20
6.8223
 30
0.0
 40
0.98
100
AcDbArc
 50
331.5851
 51
342.0423
  0
ARC
  5
117
330
18
100
AcDbEntity
  8
DEFAULT
100
AcDbCircle
 10
0.0769
 20
6.7048
 30
0.0
 40
1.0744
100
AcDbArc
 50
189.0009
 51
198.4738
  0
ARC
  5
118
330
18
100
AcDbEntity
  8
DEFAULT
100
AcDbCircle
 10
-0.8942
 20
6.3799
 30
0.0
 40
0.05
100
AcDbArc
 50
197.9632
 51
331.6369999999999
  0
ARC
  5
119
330
18
100
AcDbEntity
  8
DEFAULT
100
AcDbCircle
 10
-0.5262
 20
12.9653
 30
0.0
 40
0.0677
100
AcDbArc
 50
185.5412
 51
351.1766999999999
  0
ARC
  5
11A
330
18
100
AcDbEntity
  8
DEFAULT
100
AcDbCircle
 10
0.473
 20
12.6529
 30
0.0
 40
0.98
100
AcDbArc
 50
151.5851
 51
162.0423
  0
ARC
  5
11B
330
18
100
AcDbEntity
  8
DEFAULT
100
AcDbCircle
 10
-1.3157
 20
12.7704
 30
0.0
 40
1.0744
100
AcDbArc
 50
9.0009
 51
18.4738
  0
ARC
  5
11C
330
18
100
AcDbEntity
  8
DEFAULT
100
AcDbCircle
 10
-0.3446
 20
13.0953
 30
0.0
 40
0.05
100
AcDbArc
 50
17.9632
 51
151.637
  0
TEXT
  5
11D
330
18
100
AcDbEntity
  8
DEFAULT
100
AcDbText
 10
-1.6961
 20
9.8302
 30
0.0
 40
0.1263
  1
1/4" Thick
 50
360.0
  7
Arial
100
AcDbText
  0
POINT
  5
11E
330
18
100
AcDbEntity
  8
DEFAULT
 62
     1
100
AcDbPoint
 10
-4.7867
 20
13.1629
 30
0.0
  0
CIRCLE
  5
11F
330
18
100
AcDbEntity
  8
DEFAULT
100
AcDbCircle
 10
-4.7867
 20
13.1629
 30
0.0
 40
0.01
  0
ELLIPSE
  5
120
330
18
100
AcDbEntity
  8
DEFAULT
100
AcDbEllipse
 10
-4.7867
 20
13.1629
 30
0.0
 11
0.078
 21
0.0
 31
0.0
210
0.0
220
0.0
230
1.0
 40
1.0
 41
0.0
 42
6.283185307179586
  0
TEXT
  5
121
330
18
100
AcDbEntity
  8
DEFAULT
100
AcDbText
 10
-4.9663
 20
12.9574
 30
0.0
 40
0.1263
  1
5/32
  7
Arial
100
AcDbText
  0
TEXT
  5
122
330
18
100
AcDbEntity
  8
DEFAULT
100
AcDbText
 10
-5.0142
 20
13.3137
 30
0.0
 40
0.0632
  1
1/2" Thick
  7
Arial
100
AcDbText
  0
TEXT
  5
123
330
18
100
AcDbEntity
  8
DEFAULT
100
AcDbText
 10
-5.5015
 20
13.7984
 30
0.0
 40
0.0842
  1
This is the Escape Wheel Pinion
  7
Arial
100
AcDbText
  0
TEXT
  5
124
330
18
100
AcDbEntity
  8
DEFAULT
100
AcDbText
 10
-6.1386
 20
13.2614
 30
0.0
 40
0.1263
  1
1/2" Thick
  7
Arial
100
AcDbText
  0
POINT
  5
125
330
18
100
AcDbEntity
  8
DEFAULT
 62
     1
100
AcDbPoint
 10
-4.7867
 20
13.6031
 30
0.0
  0
TEXT
  5
126
330
18
100
AcDbEntity
  8
DEFAULT
 62
     1
100
AcDbText
 10
-4.7053
 20
13.1304
 30
0.0
 40
0.0842
  1
Escape
  7
Arial
100
AcDbText
  0
TEXT
  5
127
330
18
100
AcDbEntity
  8
DEFAULT
 62
     1
100
AcDbText
 10
-5.2762
 20
13.1287
 30
0.0
 40
0.0842
  1
Escape
  7
Arial
100
AcDbText
  0
ARC
  5
128
330
18
100
AcDbEntity
  8
DEFAULT
100
AcDbCircle
 10
-4.7867
 20
13.6031
 30
0.0
 40
0.08
100
AcDbArc
 50
354.8315
 51
185.0971
  0
LINE
  5
129
330
18
100
AcDbEntity
  8
DEFAULT
100
AcDbLine
 10
-4.7228
 20
13.5108
 30
0.0
 11
-4.7071
 21
13.5959
 31
0.0
  0
ARC
  5
12A
330
18
100
AcDbEntity
  8
DEFAULT
100
AcDbCircle
 10
-4.7867
 20
12.7227
 30
0.0
 40
0.08
100
AcDbArc
 50
174.8315
 51
5.0971
  0
LINE
  5
12B
330
18
100
AcDbEntity
  8
DEFAULT
100
AcDbLine
 10
-4.8663
 20
12.7299
 30
0.0
 11
-4.8506
 21
12.815
 31
0.0
  0
ARC
  5
12C
330
18
100
AcDbEntity
  8
DEFAULT
100
AcDbCircle
 10
-5.0979
 20
13.4741
 30
0.0
 40
0.08
100
AcDbArc
 50
39.8239
 51
230.0751
  0
LINE
  5
12D
330
18
100
AcDbEntity
  8
DEFAULT
100
AcDbLine
 10
-5.0365
 20
13.5253
 30
0.0
 11
-4.9875
 21
13.454
 31
0.0
  0
ARC
  5
12E
330
18
100
AcDbEntity
  8
DEFAULT
100
AcDbCircle
 10
-4.4755
 20
12.8517
 30
0.0
 40
0.08
100
AcDbArc
 50
219.8239
 51
50.07510000000001
  0
LINE
  5
12F
330
18
100
AcDbEntity
  8
DEFAULT
100
AcDbLine
 10
-4.5859
 20
12.8718
 30
0.0
 11
-4.5369
 21
12.8005
 31
0.0
  0
ARC
  5
130
330
18
100
AcDbEntity
  8
DEFAULT
100
AcDbCircle
 10
-5.2268
 20
13.1629
 30
0.0
 40
0.08
100
AcDbArc
 50
84.7601
 51
275.0971
  0
LINE
  5
131
330
18
100
AcDbEntity
  8
DEFAULT
100
AcDbLine
 10
-5.2195
 20
13.2425
 30
0.0
 11
-5.1345
 21
13.2267
 31
0.0
  0
ARC
  5
132
330
18
100
AcDbEntity
  8
DEFAULT
100
AcDbCircle
 10
-4.3466
 20
13.1629
 30
0.0
 40
0.08
100
AcDbArc
 50
264.7601
 51
95.09709999999998
  0
LINE
  5
133
330
18
100
AcDbEntity
  8
DEFAULT
100
AcDbLine
 10
-4.4389
 20
13.0991
 30
0.0
 11
-4.3539
 21
13.0833
 31
0.0
  0
ARC
  5
134
330
18
100
AcDbEntity
  8
DEFAULT
100
AcDbCircle
 10
-5.0978
 20
12.8518
 30
0.0
 40
0.08
100
AcDbArc
 50
129.8239
 51
320.0751
  0
LINE
  5
135
330
18
100
AcDbEntity
  8
DEFAULT
100
AcDbLine
 10
-5.149
 20
12.9132
 30
0.0
 11
-5.0777
 21
12.9621
 31
0.0
  0
ARC
  5
136
330
18
100
AcDbEntity
  8
DEFAULT
100
AcDbCircle
 10
-4.4756
 20
13.474
 30
0.0
 40
0.08
100
AcDbArc
 50
309.8239
 51
140.0751
  0
LINE
  5
137
330
18
100
AcDbEntity
  8
DEFAULT
100
AcDbLine
 10
-4.4957
 20
13.3637
 30
0.0
 11
-4.4244
 21
13.4126
 31
0.0
  0
SOLID
  5
138
330
18
100
AcDbEntity
  8
DEFAULT
100
AcDbTrace
 10
-7.7624
 20
11.0717
 30
0.0
 11
-7.7322
 21
11.2567
 31
0.0
 12
-7.7019
 22
11.0717
 32
0.0
 13
-7.7019
 23
11.0717
 33
0.0
  0
SOLID
  5
139
330
18
100
AcDbEntity
  8
DEFAULT
100
AcDbTrace
 10
-7.7019
 20
7.6917
 30
0.0
 11
-7.7322
 21
7.5068
 31
0.0
 12
-7.7624
 22
7.6917
 32
0.0
 13
-7.7624
 23
7.6917
 33
0.0
  0
LINE
  5
13A
330
18
100
AcDbEntity
  8
DEFAULT
100
AcDbLine
 10
-7.7322
 20
9.4308
 30
0.0
 11
-7.7322
 21
11.2567
 31
0.0
  0
LINE
  5
13B
330
18
100
AcDbEntity
  8
DEFAULT
100
AcDbLine
 10
-7.7322
 20
7.5068
 30
0.0
 11
-7.7322
 21
9.139
 31
0.0
  0
TEXT
  5
13C
330
18
100
AcDbEntity
  8
DEFAULT
100
AcDbText
 10
-7.8977
 20
9.2205
 30
0.0
 40
0.1263
  1
3.75
  7
Arial
100
AcDbText
  0
LINE
  5
13D
330
18
100
AcDbEntity
  8
DEFAULT
100
AcDbLine
 10
-7.8572
 20
11.2567
 30
0.0
 11
-6.548
 21
11.2567
 31
0.0
  0
LINE
  5
13E
330
18
100
AcDbEntity
  8
DEFAULT
100
AcDbLine
 10
-7.8572
 20
7.5068
 30
0.0
 11
-6.548
 21
7.5068
 31
0.0
  0
POINT
  5
13F
330
18
100
AcDbEntity
  8
DEFAULT
 62
     1
100
AcDbPoint
 10
-6.4855
 20
11.2567
 30
0.0
  0
ELLIPSE
  5
140
330
18
100
AcDbEntity
  8
DEFAULT
100
AcDbEllipse
 10
-6.4855
 20
11.2567
 30
0.0
 11
0.078
 21
0.0
 31
0.0
210
0.0
220
0.0
230
1.0
 40
1.0
 41
0.0
 42
6.283185307179586
  0
POINT
  5
141
330
18
100
AcDbEntity
  8
DEFAULT
 62
     1
100
AcDbPoint
 10
-6.4855
 20
11.2563
 30
0.0
  0
CIRCLE
  5
142
330
18
100
AcDbEntity
  8
DEFAULT
100
AcDbCircle
 10
-6.4855
 20
11.2563
 30
0.0
 40
0.01
  0
POINT
  5
143
330
18
100
AcDbEntity
  8
DEFAULT
 62
     1
100
AcDbPoint
 10
-6.4855
 20
7.5068
 30
0.0
  0
CIRCLE
  5
144
330
18
100
AcDbEntity
  8
DEFAULT
100
AcDbCircle
 10
-6.4855
 20
7.5068
 30
0.0
 40
0.078
  0
POINT
  5
145
330
18
100
AcDbEntity
  8
DEFAULT
 62
     1
100
AcDbPoint
 10
-6.4855
 20
7.5064
 30
0.0
  0
CIRCLE
  5
146
330
18
100
AcDbEntity
  8
DEFAULT
100
AcDbCircle
 10
-6.4855
 20
7.5064
 30
0.0
 40
0.01
  0
LINE
  5
147
330
18
100
AcDbEntity
  8
DEFAULT
100
AcDbLine
 10
-5.9855
 20
7.5068
 30
0.0
 11
-5.9855
 21
11.2567
 31
0.0
  0
LINE
  5
148
330
18
100
AcDbEntity
  8
DEFAULT
100
AcDbLine
 10
-6.9855
 20
7.5067
 30
0.0
 11
-6.9855
 21
11.2566
 31
0.0
  0
ARC
  5
149
330
18
100
AcDbEntity
  8
DEFAULT
100
AcDbCircle
 10
-6.4855
 20
11.2566
 30
0.0
 40
0.5
100
AcDbArc
 50
0.0
 51
180.0
  0
ARC
  5
14A
330
18
100
AcDbEntity
  8
DEFAULT
100
AcDbCircle
 10
-6.4855
 20
7.5067
 30
0.0
 40
0.5
100
AcDbArc
 50
180.0
 51
0.0
  0
TEXT
  5
14B
330
18
100
AcDbEntity
  8
DEFAULT
100
AcDbText
 10
-6.4611
 20
8.6686
 30
0.0
 40
0.1263
  1
Exact Centers Strip
 50
90.0
  7
Arial
100
AcDbText
  0
TEXT
  5
14C
330
18
100
AcDbEntity
  8
DEFAULT
100
AcDbText
 10
-6.497
 20
10.9578
 30
0.0
 40
0.1263
  1
1/8
  7
Arial
100
AcDbText
  0
TEXT
  5
14D
330
18
100
AcDbEntity
  8
DEFAULT
100
AcDbText
 10
-6.4492
 20
7.6819
 30
0.0
 40
0.1263
  1
1/8
  7
Arial
100
AcDbText
  0
TEXT
  5
14E
330
18
100
AcDbEntity
  8
DEFAULT
100
AcDbText
 10
-6.2008
 20
8.9113
 30
0.0
 40
0.1053
  1
Glue to 1/2 Ply
 50
90.0
  7
Arial
100
AcDbText
  0
TEXT
  5
14F
330
18
100
AcDbEntity
  8
DEFAULT
100
AcDbText
 10
-2.2554
 20
11.0621
 30
0.0
 40
0.1684
  1
Third Wheel
  7
Arial
100
AcDbText
  0
TEXT
  5
150
330
18
100
AcDbEntity
  8
DEFAULT
100
AcDbText
 10
-13.1273
 20
14.1407
 30
0.0
 40
0.2105
  1
These are the actual arbors from Simplicity's plan
  7
Arial
100
AcDbText
  0
TEXT
  5
151
330
18
100
AcDbEntity
  8
DEFAULT
100
AcDbText
 10
-6.052
 20
8.6321
 30
0.0
 40
0.1053
  1
Drill and insert 1/8 rods
 50
90.0
  7
Arial
100
AcDbText
  0
LINE
  5
152
330
18
100
AcDbEntity
  8
DEFAULT
100
AcDbLine
 10
-10.479729
 20
13.306032
 30
0.0
 11
-8.049729
 21
13.306032
 31
0.0
  0
LINE
  5
153
330
18
100
AcDbEntity
  8
DEFAULT
100
AcDbLine
 10
-10.479729
 20
13.181032
 30
0.0
 11
-8.049729
 21
13.181032
 31
0.0
  0
LINE
  5
154
330
18
100
AcDbEntity
  8
DEFAULT
100
AcDbLine
 10
-10.479729
 20
13.181032
 30
0.0
 11
-10.479729
 21
13.306032
 31
0.0
  0
LINE
  5
155
330
18
100
AcDbEntity
  8
DEFAULT
100
AcDbLine
 10
-8.049729
 20
13.181032
 30
0.0
 11
-8.049729
 21
13.306032
 31
0.0
  0
LINE
  5
156
330
18
100
AcDbEntity
  8
DEFAULT
100
AcDbLine
 10
-8.549729
 20
13.181032
 30
0.0
 11
-8.549729
 21
13.306032
 31
0.0
  0
LINE
  5
157
330
18
100
AcDbEntity
  8
DEFAULT
100
AcDbLine
 10
-10.358429
 20
12.906232
 30
0.0
 11
-10.358429
 21
13.062632
 31
0.0
  0
LINE
  5
158
330
18
100
AcDbEntity
  8
DEFAULT
100
AcDbLine
 10
-10.359729
 20
13.181032
 30
0.0
 11
-10.359729
 21
13.306032
 31
0.0
  0
LINE
  5
159
330
18
100
AcDbEntity
  8
DEFAULT
100
AcDbLine
 10
-9.186829
 20
13.341932
 30
0.0
 11
-8.910629
 21
13.480532
 31
0.0
  0
SOLID
  5
15A
330
18
100
AcDbEntity
  8
DEFAULT
100
AcDbTrace
 10
-9.186829
 20
13.341932
 30
0.0
 11
-9.035351
 21
13.452433
 31
0.0
 12
-9.0077
 22
13.397333
 32
0.0
 13
-9.0077
 23
13.397333
 33
0.0
  0
LINE
  5
15B
330
18
100
AcDbEntity
  8
DEFAULT
100
AcDbLine
 10
-8.910629
 20
13.480532
 30
0.0
 11
-8.730829
 21
13.480532
 31
0.0
  0
TEXT
  5
15C
330
18
100
AcDbEntity
  8
DEFAULT
100
AcDbText
 10
-8.668329
 20
13.437556
 30
0.0
 40
0.0842105
  1
1/8" Rod
  7
Arial
100
AcDbText
  0
TEXT
  5
15D
330
18
100
AcDbEntity
  8
DEFAULT
100
AcDbText
 10
-10.959529
 20
13.712832
 30
0.0
 40
0.147368
  1
Third Wheel Arbor
  7
Arial
100
AcDbText
  0
TEXT
  5
15E
330
18
100
AcDbEntity
  8
DEFAULT
100
AcDbText
 10
-10.973429
 20
12.285632
 30
0.0
 40
0.147368
  1
Escape Arbor
  7
Arial
100
AcDbText
  0
LINE
  5
15F
330
18
100
AcDbEntity
  8
DEFAULT
100
AcDbLine
 10
-10.483329
 20
11.901532
 30
0.0
 11
-8.673329
 21
11.901532
 31
0.0
  0
LINE
  5
160
330
18
100
AcDbEntity
  8
DEFAULT
100
AcDbLine
 10
-10.483329
 20
11.776532
 30
0.0
 11
-8.673329
 21
11.776532
 31
0.0
  0
LINE
  5
161
330
18
100
AcDbEntity
  8
DEFAULT
100
AcDbLine
 10
-10.483329
 20
11.776532
 30
0.0
 11
-10.483329
 21
11.901532
 31
0.0
  0
LINE
  5
162
330
18
100
AcDbEntity
  8
DEFAULT
100
AcDbLine
 10
-8.673329
 20
11.776532
 30
0.0
 11
-8.673329
 21
11.901532
 31
0.0
  0
LINE
  5
163
330
18
100
AcDbEntity
  8
DEFAULT
100
AcDbLine
 10
-9.173329
 20
11.776532
 30
0.0
 11
-9.173329
 21
11.901532
 31
0.0
  0
LINE
  5
164
330
18
100
AcDbEntity
  8
DEFAULT
100
AcDbLine
 10
-10.364829
 20
11.482332
 30
0.0
 11
-9.174829
 21
11.482332
 31
0.0
  0
LINE
  5
165
330
18
100
AcDbEntity
  8
DEFAULT
100
AcDbLine
 10
-10.364929
 20
11.638732
 30
0.0
 11
-9.174929
 21
11.638732
 31
0.0
  0
LINE
  5
166
330
18
100
AcDbEntity
  8
DEFAULT
100
AcDbLine
 10
-10.364829
 20
11.482332
 30
0.0
 11
-10.364829
 21
11.638732
 31
0.0
  0
LINE
  5
167
330
18
100
AcDbEntity
  8
DEFAULT
100
AcDbLine
 10
-9.174829
 20
11.482332
 30
0.0
 11
-9.174829
 21
11.638732
 31
0.0
  0
LINE
  5
168
330
18
100
AcDbEntity
  8
DEFAULT
100
AcDbLine
 10
-10.363329
 20
11.776532
 30
0.0
 11
-10.363329
 21
11.901532
 31
0.0
  0
LINE
  5
169
330
18
100
AcDbEntity
  8
DEFAULT
100
AcDbLine
 10
-9.841029
 20
11.911332
 30
0.0
 11
-9.564829
 21
12.049932
 31
0.0
  0
SOLID
  5
16A
330
18
100
AcDbEntity
  8
DEFAULT
100
AcDbTrace
 10
-9.841029
 20
11.911332
 30
0.0
 11
-9.689551
 21
12.021833
 31
0.0
 12
-9.6619
 22
11.966733
 32
0.0
 13
-9.6619
 23
11.966733
 33
0.0
  0
LINE
  5
16B
330
18
100
AcDbEntity
  8
DEFAULT
100
AcDbLine
 10
-9.564829
 20
12.049932
 30
0.0
 11
-9.385029
 21
12.049932
 31
0.0
  0
TEXT
  5
16C
330
18
100
AcDbEntity
  8
DEFAULT
100
AcDbText
 10
-9.322529
 20
12.006956
 30
0.0
 40
0.0842105
  1
1/8" Rod
  7
Arial
100
AcDbText
  0
LINE
  5
16D
330
18
100
AcDbEntity
  8
DEFAULT
100
AcDbLine
 10
-9.359729
 20
13.181032
 30
0.0
 11
-9.359729
 21
13.306032
 31
0.0
  0
LINE
  5
16E
330
18
100
AcDbEntity
  8
DEFAULT
100
AcDbLine
 10
-9.359729
 20
12.787732
 30
0.0
 11
-8.548429
 21
12.787732
 31
0.0
  0
LINE
  5
16F
330
18
100
AcDbEntity
  8
DEFAULT
100
AcDbLine
 10
-9.359729
 20
12.631232
 30
0.0
 11
-8.548429
 21
12.631232
 31
0.0
  0
LINE
  5
170
330
18
100
AcDbEntity
  8
DEFAULT
100
AcDbLine
 10
-10.358429
 20
12.906232
 30
0.0
 11
-9.359729
 21
12.906232
 31
0.0
  0
LINE
  5
171
330
18
100
AcDbEntity
  8
DEFAULT
100
AcDbLine
 10
-10.358529
 20
13.062632
 30
0.0
 11
-9.359729
 21
13.062632
 31
0.0
  0
LINE
  5
172
330
18
100
AcDbEntity
  8
DEFAULT
100
AcDbLine
 10
-9.359729
 20
12.631232
 30
0.0
 11
-9.359729
 21
12.787732
 31
0.0
  0
LINE
  5
173
330
18
100
AcDbEntity
  8
DEFAULT
100
AcDbLine
 10
-8.548429
 20
12.631232
 30
0.0
 11
-8.548429
 21
12.787732
 31
0.0
  0
LINE
  5
174
330
18
100
AcDbEntity
  8
DEFAULT
100
AcDbLine
 10
-9.359729
 20
12.906232
 30
0.0
 11
-9.359729
 21
13.062632
 31
0.0
  0
TEXT
  5
175
330
18
100
AcDbEntity
  8
DEFAULT
100
AcDbText
 10
-8.205129
 20
12.672832
 30
0.0
 40
0.105263
  1
5/32 Tube
  7
Arial
100
AcDbText
  0
LINE
  5
176
330
18
100
AcDbEntity
  8
DEFAULT
100
AcDbLine
 10
-9.609729
 20
12.906232
 30
0.0
 11
-9.609729
 21
13.062632
 31
0.0
  0
LINE
  5
177
330
18
100
AcDbEntity
  8
DEFAULT
100
AcDbLine
 10
-9.859729
 20
12.906232
 30
0.0
 11
-9.859729
 21
13.062632
 31
0.0
  0
TEXT
  5
178
330
18
100
AcDbEntity
  8
DEFAULT
100
AcDbText
 10
-10.261229
 20
12.947732
 30
0.0
 40
0.0631579
  1
Pinion
  7
Arial
100
AcDbText
  0
LINE
  5
179
330
18
100
AcDbEntity
  8
DEFAULT
100
AcDbLine
 10
-9.863329
 20
11.482332
 30
0.0
 11
-9.863329
 21
11.638732
 31
0.0
  0
LINE
  5
17A
330
18
100
AcDbEntity
  8
DEFAULT
100
AcDbLine
 10
-9.613329
 20
11.482332
 30
0.0
 11
-9.613329
 21
11.638732
 31
0.0
  0
LINE
  5
17B
330
18
100
AcDbEntity
  8
DEFAULT
100
AcDbLine
 10
-9.363329
 20
11.482332
 30
0.0
 11
-9.363329
 21
11.638732
 31
0.0
  0
TEXT
  5
17C
330
18
100
AcDbEntity
  8
DEFAULT
100
AcDbText
 10
-10.260229
 20
11.527332
 30
0.0
 40
0.0631579
  1
Pinion
  7
Arial
100
AcDbText
  0
TEXT
  5
17D
330
18
100
AcDbEntity
  8
DEFAULT
100
AcDbText
 10
-8.413329
 20
13.219832
 30
0.0
 40
0.0631579
  1
Frame
  7
Arial
100
AcDbText
  0
TEXT
  5
17E
330
18
100
AcDbEntity
  8
DEFAULT
100
AcDbText
 10
-9.048329
 20
11.813032
 30
0.0
 40
0.0631579
  1
Frame
  7
Arial
100
AcDbText
  0
TEXT
  5
17F
330
18
100
AcDbEntity
  8
DEFAULT
100
AcDbText
 10
-10.457629
 20
11.859032
 30
0.0
 40
0.0421053
  1
c
  7
Arial
100
AcDbText
  0
TEXT
  5
180
330
18
100
AcDbEntity
  8
DEFAULT
100
AcDbText
 10
-10.459629
 20
11.823432
 30
0.0
 40
0.0421053
  1
a
  7
Arial
100
AcDbText
  0
TEXT
  5
181
330
18
100
AcDbEntity
  8
DEFAULT
100
AcDbText
 10
-10.454029
 20
11.786732
 30
0.0
 40
0.0421053
  1
p
  7
Arial
100
AcDbText
  0
TEXT
  5
182
330
18
100
AcDbEntity
  8
DEFAULT
100
AcDbText
 10
-10.457629
 20
13.264132
 30
0.0
 40
0.0421053
  1
c
  7
Arial
100
AcDbText
  0
TEXT
  5
183
330
18
100
AcDbEntity
  8
DEFAULT
100
AcDbText
 10
-10.459629
 20
13.228532
 30
0.0
 40
0.0421053
  1
a
  7
Arial
100
AcDbText
  0
TEXT
  5
184
330
18
100
AcDbEntity
  8
DEFAULT
100
AcDbText
 10
-10.454029
 20
13.191832
 30
0.0
 40
0.0421053
  1
p
  7
Arial
100
AcDbText
  0
TEXT
  5
185
330
18
100
AcDbEntity
  8
DEFAULT
100
AcDbText
 10
-9.531729
 20
13.008832
 30
0.0
 40
0.0421053
  1
3rd
  7
Arial
100
AcDbText
  0
TEXT
  5
186
330
18
100
AcDbEntity
  8
DEFAULT
100
AcDbText
 10
-9.568229
 20
12.941332
 30
0.0
 40
0.0421053
  1
Wheel
  7
Arial
100
AcDbText
  0
LINE
  5
187
330
18
100
AcDbEntity
  8
DEFAULT
  6
DOT
100
AcDbLine
 10
-8.549729
 20
12.787732
 30
0.0
 11
-8.549729
 21
13.181032
 31
0.0
  0
LINE
  5
188
330
18
100
AcDbEntity
  8
DEFAULT
  6
DOT
100
AcDbLine
 10
-9.359729
 20
13.062632
 30
0.0
 11
-9.359729
 21
13.181032
 31
0.0
  0
LINE
  5
189
330
18
100
AcDbEntity
  8
DEFAULT
  6
DOT
100
AcDbLine
 10
-9.359729
 20
12.787732
 30
0.0
 11
-9.359729
 21
12.906232
 31
0.0
  0
TEXT
  5
18A
330
18
100
AcDbEntity
  8
DEFAULT
100
AcDbText
 10
-9.055129
 20
13.228832
 30
0.0
 40
0.0421053
  1
Spacer
  7
Arial
100
AcDbText
  0
TEXT
  5
18B
330
18
100
AcDbEntity
  8
DEFAULT
100
AcDbText
 10
-9.048729
 20
12.683932
 30
0.0
 40
0.0421053
  1
Spacer
  7
Arial
100
AcDbText
  0
TEXT
  5
18C
330
18
100
AcDbEntity
  8
DEFAULT
100
AcDbText
 10
-9.591829
 20
11.584232
 30
0.0
 40
0.0421053
  1
Escape
  7
Arial
100
AcDbText
  0
TEXT
  5
18D
330
18
100
AcDbEntity
  8
DEFAULT
100
AcDbText
 10
-9.589729
 20
11.522732
 30
0.0
 40
0.0421053
  1
Wheel
  7
Arial
100
AcDbText
  0
TEXT
  5
18E
330
18
100
AcDbEntity
  8
DEFAULT
100
AcDbText
 10
-9.599829
 20
11.370832
 30
0.0
 40
0.0631579
  1
5/32 Tube
  7
Arial
100
AcDbText
  0
LINE
  5
18F
330
18
100
AcDbEntity
  8
DEFAULT
  6
DOT
100
AcDbLine
 10
-10.364829
 20
11.638732
 30
0.0
 11
-10.363329
 21
11.776532
 31
0.0
  0
LINE
  5
190
330
18
100
AcDbEntity
  8
DEFAULT
  6
DOT
100
AcDbLine
 10
-9.174829
 20
11.638732
 30
0.0
 11
-9.173329
 21
11.776532
 31
0.0
  0
TEXT
  5
191
330
18
100
AcDbEntity
  8
DEFAULT
100
AcDbText
 10
-9.854329
 20
12.950032
 30
0.0
 40
0.0421053
  1
Connector
  7
Arial
100
AcDbText
  0
TEXT
  5
192
330
18
100
AcDbEntity
  8
DEFAULT
100
AcDbText
 10
-9.867029
 20
11.516232
 30
0.0
 40
0.0421053
  1
Connector
  7
Arial
100
AcDbText
  0
TEXT
  5
193
330
18
100
AcDbEntity
  8
DEFAULT
100
AcDbText
 10
-10.223761
 20
12.688301
 30
0.0
 40
0.105263
  1
5/32 Tube
  7
Arial
100
AcDbText
  0
TEXT
  5
194
330
18
100
AcDbEntity
  8
DEFAULT
100
AcDbText
 10
-9.4101
 20
12.3498
 30
0.0
 40
0.105305
  1
Insert 1/8 metal rods into Exact Center's Strip
  7
Arial
100
AcDbText
  0
ARC
  5
195
330
18
100
AcDbEntity
  8
DEFAULT
100
AcDbCircle
 10
-3.1761
 20
11.023318
 30
0.0
 40
0.15
100
AcDbArc
 50
8.100335
 51
153.310167
  0
ARC
  5
196
330
18
100
AcDbEntity
  8
DEFAULT
100
AcDbCircle
 10
-1.4991
 20
11.262
 30
0.0
 40
1.5439
100
AcDbArc
 50
188.100335
 51
244.112652
  0
ARC
  5
197
330
18
100
AcDbEntity
  8
DEFAULT
100
AcDbCircle
 10
-2.238662
 20
9.738076
 30
0.0
 40
0.15
100
AcDbArc
 50
295.891108
 51
64.112652
  0
ARC
  5
198
330
18
100
AcDbEntity
  8
DEFAULT
100
AcDbCircle
 10
-1.499
 20
8.2142
 30
0.0
 40
1.5439
100
AcDbArc
 50
115.891108
 51
171.910288
  0
ARC
  5
199
330
18
100
AcDbEntity
  8
DEFAULT
100
AcDbCircle
 10
-0.6194
 20
9.738
 30
0.0
 40
3.0116
100
AcDbArc
 50
153.310167
 51
206.692319
  0
ARC
  5
19A
330
18
100
AcDbEntity
  8
DEFAULT
100
AcDbCircle
 10
-3.176044
 20
8.452571
 30
0.0
 40
0.15
100
AcDbArc
 50
206.692319
 51
351.910288
  0
ARC
  5
19B
330
18
100
AcDbEntity
  8
DEFAULT
100
AcDbCircle
 10
-0.453824
 20
6.881194
 30
0.0
 40
0.15
100
AcDbArc
 50
128.099094
 51
273.317062
  0
ARC
  5
19C
330
18
100
AcDbEntity
  8
DEFAULT
100
AcDbCircle
 10
-0.6194
 20
9.738
 30
0.0
 40
3.0116
100
AcDbArc
 50
273.317063
 51
326.6843489999999
  0
ARC
  5
19D
330
18
100
AcDbEntity
  8
DEFAULT
100
AcDbCircle
 10
1.771917
 20
8.166263
 30
0.0
 40
0.15
100
AcDbArc
 50
326.6843489999999
 51
111.893187
  0
ARC
  5
19E
330
18
100
AcDbEntity
  8
DEFAULT
100
AcDbCircle
 10
1.1403
 20
9.738
 30
0.0
 40
1.5439
100
AcDbArc
 50
235.896932
 51
291.893187
  0
ARC
  5
19F
330
18
100
AcDbEntity
  8
DEFAULT
100
AcDbCircle
 10
-1.499
 20
8.2142
 30
0.0
 40
1.5439
100
AcDbArc
 50
308.0990939999999
 51
4.10305
  0
ARC
  5
1A0
330
18
100
AcDbEntity
  8
DEFAULT
100
AcDbCircle
 10
0.190558
 20
8.335399
 30
0.0
 40
0.15
100
AcDbArc
 50
55.89693200000001
 51
184.10305
  0
ARC
  5
1A1
330
18
100
AcDbEntity
  8
DEFAULT
100
AcDbCircle
 10
1.771917
 20
11.309737
 30
0.0
 40
0.15
100
AcDbArc
 50
248.106813
 51
33.31565
  0
ARC
  5
1A2
330
18
100
AcDbEntity
  8
DEFAULT
100
AcDbCircle
 10
1.1403
 20
9.738
 30
0.0
 40
1.5439
100
AcDbArc
 50
68.106813
 51
124.107979
  0
ARC
  5
1A3
330
18
100
AcDbEntity
  8
DEFAULT
100
AcDbCircle
 10
0.190438
 20
11.140519
 30
0.0
 40
0.15
100
AcDbArc
 50
175.887407
 51
304.107979
  0
ARC
  5
1A4
330
18
100
AcDbEntity
  8
DEFAULT
100
AcDbCircle
 10
-1.4991
 20
11.262
 30
0.0
 40
1.5439
100
AcDbArc
 50
355.887407
 51
51.889411
  0
ARC
  5
1A5
330
18
100
AcDbEntity
  8
DEFAULT
100
AcDbCircle
 10
-0.6194
 20
9.738
 30
0.0
 40
3.0116
100
AcDbArc
 50
33.31565
 51
86.67957999999999
  0
ARC
  5
1A6
330
18
100
AcDbEntity
  8
DEFAULT
100
AcDbCircle
 10
-0.453657
 20
12.594796
 30
0.0
 40
0.15
100
AcDbArc
 50
86.67957999999999
 51
231.889411
  0
ARC
  5
1A7
330
18
100
AcDbEntity
  8
DEFAULT
100
AcDbCircle
 10
-4.9218
 20
13.489
 30
0.0
 40
0.0742
100
AcDbArc
 50
207.9133
 51
4.62425
  0
LINE
  5
1A8
330
18
100
AcDbEntity
  8
DEFAULT
100
AcDbLine
 10
-4.8664
 20
13.5959
 30
0.0
 11
-4.847842
 21
13.494982
 31
0.0
  0
ARC
  5
1A9
330
18
100
AcDbEntity
  8
DEFAULT
100
AcDbCircle
 10
-4.6518
 20
13.4889
 30
0.0
 40
0.0742
100
AcDbArc
 50
162.9371
 51
319.5544290000001
  0
LINE
  5
1AA
330
18
100
AcDbEntity
  8
DEFAULT
100
AcDbLine
 10
-4.595332
 20
13.440765
 30
0.0
 11
-4.5369
 21
13.5252
 31
0.0
  0
ARC
  5
1AB
330
18
100
AcDbEntity
  8
DEFAULT
100
AcDbCircle
 10
-4.4607
 20
13.298
 30
0.0
 40
0.0742
100
AcDbArc
 50
117.9496
 51
286.1081060000001
  0
LINE
  5
1AC
330
18
100
AcDbEntity
  8
DEFAULT
100
AcDbLine
 10
-4.440113
 20
13.226713
 30
0.0
 11
-4.3538
 21
13.2425
 31
0.0
  0
ARC
  5
1AD
330
18
100
AcDbEntity
  8
DEFAULT
100
AcDbCircle
 10
-4.4606
 20
13.0279
 30
0.0
 40
0.0742
100
AcDbArc
 50
72.9598
 51
229.558642
  0
LINE
  5
1AE
330
18
100
AcDbEntity
  8
DEFAULT
100
AcDbLine
 10
-4.508731
 20
12.971429
 30
0.0
 11
-4.4242
 21
12.9131
 31
0.0
  0
ARC
  5
1AF
330
18
100
AcDbEntity
  8
DEFAULT
100
AcDbCircle
 10
-4.6516
 20
12.8368
 30
0.0
 40
0.0742
100
AcDbArc
 50
27.9133
 51
196.215908
  0
LINE
  5
1B0
330
18
100
AcDbEntity
  8
DEFAULT
100
AcDbLine
 10
-4.722848
 20
12.816079
 30
0.0
 11
-4.707
 21
12.7299
 31
0.0
  0
ARC
  5
1B1
330
18
100
AcDbEntity
  8
DEFAULT
100
AcDbCircle
 10
-4.9216
 20
12.8369
 30
0.0
 40
0.0742
100
AcDbArc
 50
342.9371
 51
151.076522
  0
LINE
  5
1B2
330
18
100
AcDbEntity
  8
DEFAULT
100
AcDbLine
 10
-5.0365
 20
12.8006
 30
0.0
 11
-4.986545
 21
12.872786
 31
0.0
  0
ARC
  5
1B3
330
18
100
AcDbEntity
  8
DEFAULT
100
AcDbCircle
 10
-5.1127
 20
13.0278
 30
0.0
 40
0.0742
100
AcDbArc
 50
297.9496
 51
106.108106
  0
LINE
  5
1B4
330
18
100
AcDbEntity
  8
DEFAULT
100
AcDbLine
 10
-5.2196
 20
13.0833
 30
0.0
 11
-5.133287
 21
13.099087
 31
0.0
  0
ARC
  5
1B5
330
18
100
AcDbEntity
  8
DEFAULT
100
AcDbCircle
 10
-5.1128
 20
13.2979
 30
0.0
 40
0.0742
100
AcDbArc
 50
252.9598
 51
61.228163
  0
LINE
  5
1B6
330
18
100
AcDbEntity
  8
DEFAULT
100
AcDbLine
 10
-5.1492
 20
13.4127
 30
0.0
 11
-5.077086
 21
13.36294
 31
0.0
  0
ENDSEC
  0
SECTION
  2
OBJECTS
  0
DICTIONARY
  5
C
330
0
100
AcDbDictionary
281
     1
  3
ACAD_DETAILVIEWSTYLE
350
22F
  3
ACAD_GROUP
350
D
  3
ACAD_LAYOUT
350
1D9
  3
ACAD_MATERIAL
350
1F5
  3
ACAD_MLEADERSTYLE
350
22D
  3
ACAD_MLINESTYLE
350
1B
  3
ACAD_SCALELIST
350
1B7
  3
ACAD_SECTIONVIEWSTYLE
350
230
  3
ACAD_TABLESTYLE
350
22C
  3
ACAD_VISUALSTYLE
350
1DC
  3
AcDbVariableDictionary
350
1F9
  0
DICTIONARY
  5
22F
102
{ACAD_REACTORS
330
C
102
}
330
C
100
AcDbDictionary
281
     1
  0
DICTIONARY
  5
D
102
{ACAD_REACTORS
330
C
102
}
330
C
100
AcDbDictionary
281
     1
  0
DICTIONARY
  5
1D9
102
{ACAD_REACTORS
330
C
102
}
330
C
100
AcDbDictionary
281
     1
  3
Layout1
350
1DB
  3
Model
350
1DA
  0
DICTIONARY
  5
1F5
102
{ACAD_REACTORS
330
C
102
}
330
C
100
AcDbDictionary
281
     1
  3
ByBlock
350
1F7
  3
ByLayer
350
1F6
  3
Global
350
1F8
  0
DICTIONARY
  5
22D
102
{ACAD_REACTORS
330
C
102
}
330
C
100
AcDbDictionary
281
     1
  0
DICTIONARY
  5
1B
102
{ACAD_REACTORS
330
C
102
}
330
C
100
AcDbDictionary
281
     1
  3
STANDARD
350
1C
  0
DICTIONARY
  5
1B7
102
{ACAD_REACTORS
330
C
102
}
330
C
100
AcDbDictionary
281
     1
  3
A0
350
1B8
  3
A1
350
1B9
  3
A2
350
1BA
  3
A3
350
1BB
  3
A4
350
1BC
  3
A5
350
1BD
  3
A6
350
1BE
  3
A7
350
1BF
  3
A8
350
1C0
  3
A9
350
1C1
  3
B0
350
1C2
  3
B1
350
1C3
  3
B2
350
1C4
  3
B3
350
1C5
  3
B4
350
1C6
  3
B5
350
1C7
  3
B6
350
1C8
  3
B7
350
1C9
  3
B8
350
1CA
  3
B9
350
1CB
  3
C0
350
1CC
  3
C1
350
1CD
  3
C2
350
1CE
  3
C3
350
1CF
  3
C4
350
1D0
  3
C5
350
1D1
  3
C6
350
1D2
  3
C7
350
1D3
  3
C8
350
1D4
  3
C9
350
1D5
  3
D0
350
1D6
  3
D1
350
1D7
  3
D2
350
1D8
  0
DICTIONARY
  5
230
102
{ACAD_REACTORS
330
C
102
}
330
C
100
AcDbDictionary
281
     1
  0
DICTIONARY
  5
22C
102
{ACAD_REACTORS
330
C
102
}
330
C
100
AcDbDictionary
281
     1
  0
DICTIONARY
  5
1DC
102
{ACAD_REACTORS
330
C
102
}
330
C
100
AcDbDictionary
281
     1
  3
2dWireframe
350
1E1
  3
Basic
350
1E4
  3
Brighten
350
1E8
  3
ColorChange
350
1EC
  3
Conceptual
350
1E6
  3
Dim
350
1E7
  3
EdgeColorOff
350
1EF
  3
Facepattern
350
1EB
  3
Flat
350
1DD
  3
FlatWithEdges
350
1DE
  3
Gouraud
350
1DF
  3
GouraudWithEdges
350
1E0
  3
Hidden
350
1E3
  3
JitterOff
350
1ED
  3
Linepattern
350
1EA
  3
OverhangOff
350
1EE
  3
Realistic
350
1E5
  3
Shaded
350
1F4
  3
Shaded with edges
350
1F3
  3
Shades of Gray
350
1F0
  3
Sketchy
350
1F1
  3
Thicken
350
1E9
  3
Wireframe
350
1E2
  3
X-Ray
350
1F2
  0
DICTIONARY
  5
1F9
102
{ACAD_REACTORS
330
C
102
}
330
C
100
AcDbDictionary
281
     1
  3
CANNOSCALE
350
1FA
  3
LIGHTINGUNITS
350
1FB
  3
MSLTSCALE
350
22E
  0
LAYOUT
  5
1DB
102
{ACAD_REACTORS
330
1D9
102
}
330
1D9
100
AcDbPlotSettings
  1

  2
none_device
  4

  6

 40
0.0
 41
0.0
 42
0.0
 43
0.0
 44
0.0
 45
0.0
 46
0.0
 47
0.0
 48
0.0
 49
0.0
140
0.0
141
0.0
142
1.0
143
1.0
 70
   688
 72
     0
 73
     0
 74
     5
  7

 75
    16
 76
     0
 77
     2
 78
   300
147
1.0
148
0.0
149
0.0
100
AcDbLayout
  1
Layout1
 70
     1
 71
     1
 10
0.0
 20
0.0
 11
12.0
 21
9.0
 12
0.0
 22
0.0
 32
0.0
 14
1.000000000000000E+20
 24
1.000000000000000E+20
 34
1.000000000000000E+20
 15
-1.000000000000000E+20
 25
-1.000000000000000E+20
 35
-1.000000000000000E+20
146
0.0
 13
0.0
 23
0.0
 33
0.0
 16
1.0
 26
0.0
 36
0.0
 17
0.0
 27
1.0
 37
0.0
 76
     0
330
15
  0
LAYOUT
  5
1DA
102
{ACAD_REACTORS
330
1D9
102
}
330
1D9
100
AcDbPlotSettings
  1

  2
none_device
  4
Letter_(8.50_x_11.00_Inches)
  6

 40
6.35
 41
6.35
 42
6.35000508
 43
6.35000508
 44
215.9
 45
279.4
 46
0.0
 47
0.0
 48
0.0
 49
0.0
140
0.0
141
0.0
142
1.0
143
2.344263396402835
 70
  1712
 72
     0
 73
     0
 74
     0
  7

 75
     0
 76
     0
 77
     2
 78
   300
147
0.4265732261717921
148
370.2253289200989
149
-159.3127751
100
AcDbLayout
  1
Model
 70
     1
 71
     0
 10
0.0
 20
0.0
 11
2.8021
 21
14.356112
 12
0.0
 22
0.0
 32
0.0
 14
-13.199594
 24
6.3152
 34
0.0
 15
2.8021
 25
14.356112
 35
0.0
146
0.0
 13
0.0
 23
0.0
 33
0.0
 16
1.0
 26
0.0
 36
0.0
 17
0.0
 27
1.0
 37
0.0
 76
     0
330
18
331
1E
  0
MATERIAL
  5
1F7
102
{ACAD_REACTORS
330
1F5
102
}
330
1F5
100
AcDbMaterial
  1
ByBlock
 72
     1
 94
      127
  0
MATERIAL
  5
1F6
102
{ACAD_REACTORS
330
1F5
102
}
330
1F5
100
AcDbMaterial
  1
ByLayer
 72
     1
 94
      127
  0
MATERIAL
  5
1F8
102
{ACAD_REACTORS
330
1F5
102
}
330
1F5
100
AcDbMaterial
  1
Global
 72
     1
 94
      127
  0
MLINESTYLE
  5
1C
102
{ACAD_REACTORS
330
1B
102
}
330
1B
100
AcDbMlineStyle
  2
STANDARD
 70
     0
  3

 62
   256
 51
90.0
 52
90.0
 71
     2
 49
0.5
 62
   256
  6
BYLAYER
 49
-0.5
 62
   256
  6
BYLAYER
  0
SCALE
  5
1B8
102
{ACAD_REACTORS
330
1B7
102
}
330
1B7
100
AcDbScale
 70
     0
300
1:1
140
1.0
141
1.0
290
     1
  0
SCALE
  5
1B9
102
{ACAD_REACTORS
330
1B7
102
}
330
1B7
100
AcDbScale
 70
     0
300
1:2
140
1.0
141
2.0
290
     0
  0
SCALE
  5
1BA
102
{ACAD_REACTORS
330
1B7
102
}
330
1B7
100
AcDbScale
 70
     0
300
1:4
140
1.0
141
4.0
290
     0
  0
SCALE
  5
1BB
102
{ACAD_REACTORS
330
1B7
102
}
330
1B7
100
AcDbScale
 70
     0
300
1:5
140
1.0
141
5.0
290
     0
  0
SCALE
  5
1BC
102
{ACAD_REACTORS
330
1B7
102
}
330
1B7
100
AcDbScale
 70
     0
300
1:8
140
1.0
141
8.0
290
     0
  0
SCALE
  5
1BD
102
{ACAD_REACTORS
330
1B7
102
}
330
1B7
100
AcDbScale
 70
     0
300
1:10
140
1.0
141
10.0
290
     0
  0
SCALE
  5
1BE
102
{ACAD_REACTORS
330
1B7
102
}
330
1B7
100
AcDbScale
 70
     0
300
1:16
140
1.0
141
16.0
290
     0
  0
SCALE
  5
1BF
102
{ACAD_REACTORS
330
1B7
102
}
330
1B7
100
AcDbScale
 70
     0
300
1:20
140
1.0
141
20.0
290
     0
  0
SCALE
  5
1C0
102
{ACAD_REACTORS
330
1B7
102
}
330
1B7
100
AcDbScale
 70
     0
300
1:30
140
1.0
141
30.0
290
     0
  0
SCALE
  5
1C1
102
{ACAD_REACTORS
330
1B7
102
}
330
1B7
100
AcDbScale
 70
     0
300
1:40
140
1.0
141
40.0
290
     0
  0
SCALE
  5
1C2
102
{ACAD_REACTORS
330
1B7
102
}
330
1B7
100
AcDbScale
 70
     0
300
1:50
140
1.0
141
50.0
290
     0
  0
SCALE
  5
1C3
102
{ACAD_REACTORS
330
1B7
102
}
330
1B7
100
AcDbScale
 70
     0
300
1:100
140
1.0
141
100.0
290
     0
  0
SCALE
  5
1C4
102
{ACAD_REACTORS
330
1B7
102
}
330
1B7
100
AcDbScale
 70
     0
300
2:1
140
2.0
141
1.0
290
     0
  0
SCALE
  5
1C5
102
{ACAD_REACTORS
330
1B7
102
}
330
1B7
100
AcDbScale
 70
     0
300
4:1
140
4.0
141
1.0
290
     0
  0
SCALE
  5
1C6
102
{ACAD_REACTORS
330
1B7
102
}
330
1B7
100
AcDbScale
 70
     0
300
8:1
140
8.0
141
1.0
290
     0
  0
SCALE
  5
1C7
102
{ACAD_REACTORS
330
1B7
102
}
330
1B7
100
AcDbScale
 70
     0
300
10:1
140
10.0
141
1.0
290
     0
  0
SCALE
  5
1C8
102
{ACAD_REACTORS
330
1B7
102
}
330
1B7
100
AcDbScale
 70
     0
300
100:1
140
100.0
141
1.0
290
     0
  0
SCALE
  5
1C9
102
{ACAD_REACTORS
330
1B7
102
}
330
1B7
100
AcDbScale
 70
     0
300
1/128" = 1'-0"
140
0.0078125
141
12.0
290
     0
  0
SCALE
  5
1CA
102
{ACAD_REACTORS
330
1B7
102
}
330
1B7
100
AcDbScale
 70
     0
300
1/64" = 1'-0"
140
0.015625
141
12.0
290
     0
  0
SCALE
  5
1CB
102
{ACAD_REACTORS
330
1B7
102
}
330
1B7
100
AcDbScale
 70
     0
300
1/32" = 1'-0"
140
0.03125
141
12.0
290
     0
  0
SCALE
  5
1CC
102
{ACAD_REACTORS
330
1B7
102
}
330
1B7
100
AcDbScale
 70
     0
300
1/16" = 1'-0"
140
0.0625
141
12.0
290
     0
  0
SCALE
  5
1CD
102
{ACAD_REACTORS
330
1B7
102
}
330
1B7
100
AcDbScale
 70
     0
300
3/32" = 1'-0"
140
0.09375
141
12.0
290
     0
  0
SCALE
  5
1CE
102
{ACAD_REACTORS
330
1B7
102
}
330
1B7
100
AcDbScale
 70
     0
300
1/8" = 1'-0"
140
0.125
141
12.0
290
     0
  0
SCALE
  5
1CF
102
{ACAD_REACTORS
330
1B7
102
}
330
1B7
100
AcDbScale
 70
     0
300
3/16" = 1'-0"
140
0.1875
141
12.0
290
     0
  0
SCALE
  5
1D0
102
{ACAD_REACTORS
330
1B7
102
}
330
1B7
100
AcDbScale
 70
     0
300
1/4" = 1'-0"
140
0.25
141
12.0
290
     0
  0
SCALE
  5
1D1
102
{ACAD_REACTORS
330
1B7
102
}
330
1B7
100
AcDbScale
 70
     0
300
3/8" = 1'-0"
140
0.375
141
12.0
290
     0
  0
SCALE
  5
1D2
102
{ACAD_REACTORS
330
1B7
102
}
330
1B7
100
AcDbScale
 70
     0
300
1/2" = 1'-0"
140
0.5
141
12.0
290
     0
  0
SCALE
  5
1D3
102
{ACAD_REACTORS
330
1B7
102
}
330
1B7
100
AcDbScale
 70
     0
300
3/4" = 1'-0"
140
0.75
141
12.0
290
     0
  0
SCALE
  5
1D4
102
{ACAD_REACTORS
330
1B7
102
}
330
1B7
100
AcDbScale
 70
     0
300
1" = 1'-0"
140
1.0
141
12.0
290
     0
  0
SCALE
  5
1D5
102
{ACAD_REACTORS
330
1B7
102
}
330
1B7
100
AcDbScale
 70
     0
300
1-1/2" = 1'-0"
140
1.5
141
12.0
290
     0
  0
SCALE
  5
1D6
102
{ACAD_REACTORS
330
1B7
102
}
330
1B7
100
AcDbScale
 70
     0
300
3" = 1'-0"
140
3.0
141
12.0
290
     0
  0
SCALE
  5
1D7
102
{ACAD_REACTORS
330
1B7
102
}
330
1B7
100
AcDbScale
 70
     0
300
6" = 1'-0"
140
6.0
141
12.0
290
     0
  0
SCALE
  5
1D8
102
{ACAD_REACTORS
330
1B7
102
}
330
1B7
100
AcDbScale
 70
     0
300
1'-0" = 1'-0"
140
12.0
141
12.0
290
     0
  0
VISUALSTYLE
  5
1E1
102
{ACAD_REACTORS
330
1DC
102
}
102
{ACAD_XDICTIONARY
360
204
102
}
330
1DC
100
AcDbVisualStyle
  2
2dWireframe
 70
     4
 71
     0
 72
     2
 73
     0
 90
        0
 40
0.6
 41
30.0
 62
     5
 63
     7
421
 16777215
 74
     1
 91
        4
 64
     7
 65
   257
 75
     1
175
     1
 42
1.0
 92
        0
 66
   257
 43
1.0
 76
     1
 77
     6
 78
     2
 67
     7
 79
     5
170
     0
171
     0
290
     0
174
     0
 93
        1
 44
0.0
173
     0
291
     0
 45
0.0
  0
VISUALSTYLE
  5
1E4
102
{ACAD_REACTORS
330
1DC
102
}
102
{ACAD_XDICTIONARY
360
20A
102
}
330
1DC
100
AcDbVisualStyle
  2
Basic
 70
     7
 71
     1
 72
     0
 73
     1
 90
        0
 40
0.6
 41
30.0
 62
     5
 63
     7
421
 16777215
 74
     0
 91
        4
 64
     7
 65
   257
 75
     1
175
     1
 42
1.0
 92
        8
 66
     7
 43
1.0
 76
     1
 77
     6
 78
     2
 67
     7
 79
     5
170
     0
171
     0
290
     0
174
     0
 93
        1
 44
0.0
173
     0
291
     1
 45
0.0
  0
VISUALSTYLE
  5
1E8
102
{ACAD_REACTORS
330
1DC
102
}
102
{ACAD_XDICTIONARY
360
212
102
}
330
1DC
100
AcDbVisualStyle
  2
Brighten
 70
    12
 71
     2
 72
     2
 73
     0
 90
        0
 40
0.6
 41
30.0
 62
     5
 63
     7
421
 16777215
 74
     1
 91
        4
 64
     7
 65
   257
 75
     1
175
     1
 42
1.0
 92
        8
 66
     7
 43
1.0
 76
     1
 77
     6
 78
     2
 67
     7
 79
     5
170
     0
171
     0
290
     0
174
     0
 93
        1
 44
50.0
173
     0
291
     1
 45
0.0
  0
VISUALSTYLE
  5
1EC
102
{ACAD_REACTORS
330
1DC
102
}
102
{ACAD_XDICTIONARY
360
21A
102
}
330
1DC
100
AcDbVisualStyle
  2
ColorChange
 70
    16
 71
     2
 72
     2
 73
     3
 90
        0
 40
0.6
 41
30.0
 62
     5
 63
     8
421
  8421504
 74
     1
 91
        4
 64
     7
 65
   257
 75
     1
175
     1
 42
1.0
 92
        8
 66
     8
424
  8421504
 43
1.0
 76
     1
 77
     6
 78
     2
 67
     7
 79
     5
170
     0
171
     0
290
     0
174
     0
 93
        1
 44
0.0
173
     0
291
     1
 45
0.0
  0
VISUALSTYLE
  5
1E6
102
{ACAD_REACTORS
330
1DC
102
}
102
{ACAD_XDICTIONARY
360
20E
102
}
330
1DC
100
AcDbVisualStyle
  2
Conceptual
 70
     9
 71
     3
 72
     2
 73
     0
 90
        0
 40
0.6
 41
30.0
 62
     5
 63
     7
421
 16777215
 74
     2
 91
        2
 64
     7
 65
   257
 75
     1
175
     1
 42
179.0
 92
        8
 66
     7
 43
1.0
 76
     1
 77
     6
 78
     2
 67
     7
 79
     3
170
     0
171
     0
290
     0
174
     0
 93
        1
 44
0.0
173
     0
291
     0
 45
0.0
  0
VISUALSTYLE
  5
1E7
102
{ACAD_REACTORS
330
1DC
102
}
102
{ACAD_XDICTIONARY
360
210
102
}
330
1DC
100
AcDbVisualStyle
  2
Dim
 70
    11
 71
     2
 72
     2
 73
     0
 90
        0
 40
0.6
 41
30.0
 62
     5
 63
     7
421
 16777215
 74
     1
 91
        4
 64
     7
 65
   257
 75
     1
175
     1
 42
1.0
 92
        8
 66
     7
 43
1.0
 76
     1
 77
     6
 78
     2
 67
     7
 79
     5
170
     0
171
     0
290
     0
174
     0
 93
        1
 44
-50.0
173
     0
291
     1
 45
0.0
  0
VISUALSTYLE
  5
1EF
102
{ACAD_REACTORS
330
1DC
102
}
102
{ACAD_XDICTIONARY
360
220
102
}
330
1DC
100
AcDbVisualStyle
  2
EdgeColorOff
 70
    22
 71
     2
 72
     2
 73
     0
 90
        0
 40
0.6
 41
30.0
 62
     5
 63
     7
421
 16777215
 74
     1
 91
        4
 64
     7
 65
   257
 75
     1
175
     1
 42
1.0
 92
        8
 66
     7
 43
1.0
 76
     1
 77
     6
 78
     2
 67
     7
 79
     5
170
     0
171
     0
290
     0
174
     0
 93
        1
 44
0.0
173
     0
291
     1
 45
0.0
  0
VISUALSTYLE
  5
1EB
102
{ACAD_REACTORS
330
1DC
102
}
102
{ACAD_XDICTIONARY
360
218
102
}
330
1DC
100
AcDbVisualStyle
  2
Facepattern
 70
    15
 71
     2
 72
     2
 73
     0
 90
        0
 40
0.6
 41
30.0
 62
     5
 63
     7
421
 16777215
 74
     1
 91
        4
 64
     7
 65
   257
 75
     1
175
     1
 42
1.0
 92
        8
 66
     7
 43
1.0
 76
     1
 77
     6
 78
     2
 67
     7
 79
     5
170
     0
171
     0
290
     0
174
     0
 93
        1
 44
0.0
173
     0
291
     1
 45
0.0
  0
VISUALSTYLE
  5
1DD
102
{ACAD_REACTORS
330
1DC
102
}
102
{ACAD_XDICTIONARY
360
1FC
102
}
330
1DC
100
AcDbVisualStyle
  2
Flat
 70
     0
 71
     2
 72
     1
 73
     1
 90
        2
 40
0.6
 41
30.0
 62
     5
 63
     7
421
 16777215
 74
     0
 91
        0
 64
     7
 65
   257
 75
     1
175
     1
 42
1.0
 92
        8
 66
     7
 43
1.0
 76
     1
 77
     6
 78
     2
 67
     7
 79
     5
170
     0
171
     0
290
     0
174
     0
 93
       13
 44
0.0
173
     0
291
     1
 45
0.0
  0
VISUALSTYLE
  5
1DE
102
{ACAD_REACTORS
330
1DC
102
}
102
{ACAD_XDICTIONARY
360
1FE
102
}
330
1DC
100
AcDbVisualStyle
  2
FlatWithEdges
 70
     1
 71
     2
 72
     1
 73
     1
 90
        2
 40
0.6
 41
30.0
 62
     5
 63
     7
421
 16777215
 74
     1
 91
        0
 64
     7
 65
   257
 75
     1
175
     1
 42
1.0
 92
        0
 66
   257
 43
1.0
 76
     1
 77
     6
 78
     2
 67
     7
 79
     5
170
     0
171
     0
290
     0
174
     0
 93
       13
 44
0.0
173
     0
291
     1
 45
0.0
  0
VISUALSTYLE
  5
1DF
102
{ACAD_REACTORS
330
1DC
102
}
102
{ACAD_XDICTIONARY
360
200
102
}
330
1DC
100
AcDbVisualStyle
  2
Gouraud
 70
     2
 71
     2
 72
     2
 73
     1
 90
        2
 40
0.6
 41
30.0
 62
     5
 63
     7
421
 16777215
 74
     0
 91
        0
 64
     7
 65
   257
 75
     1
175
     1
 42
1.0
 92
        0
 66
     7
 43
1.0
 76
     1
 77
     6
 78
     2
 67
     7
 79
     5
170
     0
171
     0
290
     0
174
     0
 93
       13
 44
0.0
173
     0
291
     1
 45
0.0
  0
VISUALSTYLE
  5
1E0
102
{ACAD_REACTORS
330
1DC
102
}
102
{ACAD_XDICTIONARY
360
202
102
}
330
1DC
100
AcDbVisualStyle
  2
GouraudWithEdges
 70
     3
 71
     2
 72
     2
 73
     1
 90
        2
 40
0.6
 41
30.0
 62
     5
 63
     7
421
 16777215
 74
     1
 91
        0
 64
     7
 65
   257
 75
     1
175
     1
 42
1.0
 92
        0
 66
   257
 43
1.0
 76
     1
 77
     6
 78
     2
 67
     7
 79
     5
170
     0
171
     0
290
     0
174
     0
 93
       13
 44
0.0
173
     0
291
     1
 45
0.0
  0
VISUALSTYLE
  5
1E3
102
{ACAD_REACTORS
330
1DC
102
}
102
{ACAD_XDICTIONARY
360
208
102
}
330
1DC
100
AcDbVisualStyle
  2
Hidden
 70
     6
 71
     1
 72
     2
 73
     2
 90
        0
 40
0.6
 41
30.0
 62
     5
 63
     7
421
 16777215
 74
     2
 91
        2
 64
     7
 65
   257
 75
     2
175
     1
 42
40.0
 92
        0
 66
   257
 43
1.0
 76
     1
 77
     6
 78
     2
 67
     7
 79
     3
170
     0
171
     0
290
     0
174
     0
 93
        1
 44
0.0
173
     0
291
     0
 45
0.0
  0
VISUALSTYLE
  5
1ED
102
{ACAD_REACTORS
330
1DC
102
}
102
{ACAD_XDICTIONARY
360
21C
102
}
330
1DC
100
AcDbVisualStyle
  2
JitterOff
 70
    20
 71
     2
 72
     2
 73
     0
 90
        0
 40
0.6
 41
30.0
 62
     5
 63
     7
421
 16777215
 74
     1
 91
        4
 64
     7
 65
   257
 75
     1
175
     1
 42
1.0
 92
       10
 66
     7
 43
1.0
 76
     1
 77
     6
 78
     2
 67
     7
 79
     5
170
     0
171
     0
290
     0
174
     0
 93
        1
 44
0.0
173
     0
291
     1
 45
0.0
  0
VISUALSTYLE
  5
1EA
102
{ACAD_REACTORS
330
1DC
102
}
102
{ACAD_XDICTIONARY
360
216
102
}
330
1DC
100
AcDbVisualStyle
  2
Linepattern
 70
    14
 71
     2
 72
     2
 73
     0
 90
        0
 40
0.6
 41
30.0
 62
     5
 63
     7
421
 16777215
 74
     1
 91
        4
 64
     7
 65
   257
 75
     7
175
     7
 42
1.0
 92
        8
 66
     7
 43
1.0
 76
     1
 77
     6
 78
     2
 67
     7
 79
     5
170
     0
171
     0
290
     0
174
     0
 93
        1
 44
0.0
173
     0
291
     1
 45
0.0
  0
VISUALSTYLE
  5
1EE
102
{ACAD_REACTORS
330
1DC
102
}
102
{ACAD_XDICTIONARY
360
21E
102
}
330
1DC
100
AcDbVisualStyle
  2
OverhangOff
 70
    21
 71
     2
 72
     2
 73
     0
 90
        0
 40
0.6
 41
30.0
 62
     5
 63
     7
421
 16777215
 74
     1
 91
        4
 64
     7
 65
   257
 75
     1
175
     1
 42
1.0
 92
        9
 66
     7
 43
1.0
 76
     1
 77
     6
 78
     2
 67
     7
 79
     5
170
     0
171
     0
290
     0
174
     0
 93
        1
 44
0.0
173
     0
291
     1
 45
0.0
  0
VISUALSTYLE
  5
1E5
102
{ACAD_REACTORS
330
1DC
102
}
102
{ACAD_XDICTIONARY
360
20C
102
}
330
1DC
100
AcDbVisualStyle
  2
Realistic
 70
     8
 71
     2
 72
     3
 73
     0
 90
        2
 40
0.6
 41
30.0
 62
     5
 63
     7
421
 16777215
 74
     0
 91
        0
 64
     7
 65
   257
 75
     1
175
     1
 42
1.0
 92
        8
 66
   257
 43
1.0
 76
     1
 77
     6
 78
     2
 67
     7
 79
     3
170
     0
171
     0
290
     0
174
     0
 93
       13
 44
0.0
173
     0
291
     0
 45
0.0
  0
VISUALSTYLE
  5
1F4
102
{ACAD_REACTORS
330
1DC
102
}
102
{ACAD_XDICTIONARY
360
22A
102
}
330
1DC
100
AcDbVisualStyle
  2
Shaded
 70
    27
 71
     2
 72
     2
 73
     1
 90
        2
 40
0.6
 41
30.0
 62
     5
 63
     7
421
 16777215
 74
     0
 91
        4
 64
     7
 65
   257
 75
     1
175
     1
 42
1.0
 92
        8
 66
   257
 43
1.0
 76
     1
 77
     6
 78
     2
 67
     8
425
  7895160
 79
     3
170
     0
171
     0
290
     0
174
     0
 93
        5
 44
0.0
173
     0
291
     0
 45
0.0
  0
VISUALSTYLE
  5
1F3
102
{ACAD_REACTORS
330
1DC
102
}
102
{ACAD_XDICTIONARY
360
228
102
}
330
1DC
100
AcDbVisualStyle
  2
Shaded with edges
 70
    26
 71
     2
 72
     2
 73
     1
 90
        2
 40
0.6
 41
30.0
 62
     5
 63
     7
421
 16777215
 74
     1
 91
       10
 64
     7
 65
   257
 75
     2
175
     1
 42
1.0
 92
        8
 66
   257
 43
1.0
 76
     1
 77
     6
 78
     2
 67
     7
 79
     3
170
     0
171
     0
290
     0
174
     0
 93
        5
 44
0.0
173
     0
291
     0
 45
0.0
  0
VISUALSTYLE
  5
1F0
102
{ACAD_REACTORS
330
1DC
102
}
102
{ACAD_XDICTIONARY
360
222
102
}
330
1DC
100
AcDbVisualStyle
  2
Shades of Gray
 70
    23
 71
     2
 72
     2
 73
     3
 90
        0
 40
0.6
 41
30.0
 62
     5
 63
     7
421
 16777215
 74
     2
 91
        2
 64
     7
 65
     7
 75
     1
175
     1
 42
40.0
 92
        8
 66
     7
 43
1.0
 76
     1
 77
     6
 78
     2
 67
     7
 79
     3
170
     0
171
     0
290
     0
174
     0
 93
        1
 44
0.0
173
     0
291
     0
 45
0.0
  0
VISUALSTYLE
  5
1F1
102
{ACAD_REACTORS
330
1DC
102
}
102
{ACAD_XDICTIONARY
360
224
102
}
330
1DC
100
AcDbVisualStyle
  2
Sketchy
 70
    24
 71
     1
 72
     2
 73
     2
 90
        0
 40
0.6
 41
30.0
 62
     5
 63
     7
421
 16777215
 74
     2
 91
        2
 64
     7
 65
     7
 75
     1
175
     1
 42
40.0
 92
       11
 66
     7
 43
1.0
 76
     1
 77
     6
 78
     2
 67
     7
 79
     6
170
     0
171
     0
290
     0
174
     0
 93
        1
 44
0.0
173
     0
291
     0
 45
0.0
  0
VISUALSTYLE
  5
1E9
102
{ACAD_REACTORS
330
1DC
102
}
102
{ACAD_XDICTIONARY
360
214
102
}
330
1DC
100
AcDbVisualStyle
  2
Thicken
 70
    13
 71
     2
 72
     2
 73
     0
 90
        0
 40
0.6
 41
30.0
 62
     5
 63
     7
421
 16777215
 74
     1
 91
        4
 64
     7
 65
   257
 75
     1
175
     1
 42
1.0
 92
       12
 66
     7
 43
1.0
 76
     1
 77
     6
 78
     2
 67
     7
 79
     5
170
     0
171
     0
290
     0
174
     0
 93
        1
 44
0.0
173
     0
291
     1
 45
0.0
  0
VISUALSTYLE
  5
1E2
102
{ACAD_REACTORS
330
1DC
102
}
102
{ACAD_XDICTIONARY
360
206
102
}
330
1DC
100
AcDbVisualStyle
  2
Wireframe
 70
     5
 71
     0
 72
     2
 73
     0
 90
        0
 40
0.6
 41
30.0
 62
     5
 63
     7
421
 16777215
 74
     1
 91
        4
 64
     7
 65
   257
 75
     1
175
     1
 42
1.0
 92
        0
 66
   257
 43
1.0
 76
     1
 77
     6
 78
     2
 67
     7
 79
     3
170
     0
171
     0
290
     0
174
     0
 93
        1
 44
0.0
173
     0
291
     0
 45
0.0
  0
VISUALSTYLE
  5
1F2
102
{ACAD_REACTORS
330
1DC
102
}
102
{ACAD_XDICTIONARY
360
226
102
}
330
1DC
100
AcDbVisualStyle
  2
X-Ray
 70
    25
 71
     2
 72
     2
 73
     1
 90
        1
 40
0.5
 41
30.0
 62
     5
 63
     7
421
 16777215
 74
     1
 91
        0
 64
     7
 65
   257
 75
     1
175
     1
 42
1.0
 92
        8
 66
     7
 43
1.0
 76
     1
 77
     6
 78
     2
 67
     7
 79
     3
170
     0
171
     0
290
     0
174
     0
 93
       13
 44
0.0
173
     0
291
     0
 45
0.0
  0
DICTIONARYVAR
  5
1FA
102
{ACAD_REACTORS
330
1F9
102
}
330
1F9
100
DictionaryVariables
280
     0
  1
1:1
  0
DICTIONARYVAR
  5
1FB
102
{ACAD_REACTORS
330
1F9
102
}
330
1F9
100
DictionaryVariables
280
     0
  1
0
  0
DICTIONARYVAR
  5
22E
102
{ACAD_REACTORS
330
1F9
102
}
330
1F9
100
DictionaryVariables
280
     0
  1
0
  0
DICTIONARY
  5
204
330
1E1
100
AcDbDictionary
280
     1
281
     1
  3
ACAD_XREC_ROUNDTRIP
360
205
  0
DICTIONARY
  5
20A
330
1E4
100
AcDbDictionary
280
     1
281
     1
  3
ACAD_XREC_ROUNDTRIP
360
20B
  0
DICTIONARY
  5
212
330
1E8
100
AcDbDictionary
280
     1
281
     1
  3
ACAD_XREC_ROUNDTRIP
360
213
  0
DICTIONARY
  5
21A
330
1EC
100
AcDbDictionary
280
     1
281
     1
  3
ACAD_XREC_ROUNDTRIP
360
21B
  0
DICTIONARY
  5
20E
330
1E6
100
AcDbDictionary
280
     1
281
     1
  3
ACAD_XREC_ROUNDTRIP
360
20F
  0
DICTIONARY
  5
210
330
1E7
100
AcDbDictionary
280
     1
281
     1
  3
ACAD_XREC_ROUNDTRIP
360
211
  0
DICTIONARY
  5
220
330
1EF
100
AcDbDictionary
280
     1
281
     1
  3
ACAD_XREC_ROUNDTRIP
360
221
  0
DICTIONARY
  5
218
330
1EB
100
AcDbDictionary
280
     1
281
     1
  3
ACAD_XREC_ROUNDTRIP
360
219
  0
DICTIONARY
  5
1FC
330
1DD
100
AcDbDictionary
280
     1
281
     1
  3
ACAD_XREC_ROUNDTRIP
360
1FD
  0
DICTIONARY
  5
1FE
330
1DE
100
AcDbDictionary
280
     1
281
     1
  3
ACAD_XREC_ROUNDTRIP
360
1FF
  0
DICTIONARY
  5
200
330
1DF
100
AcDbDictionary
280
     1
281
     1
  3
ACAD_XREC_ROUNDTRIP
360
201
  0
DICTIONARY
  5
202
330
1E0
100
AcDbDictionary
280
     1
281
     1
  3
ACAD_XREC_ROUNDTRIP
360
203
  0
DICTIONARY
  5
208
330
1E3
100
AcDbDictionary
280
     1
281
     1
  3
ACAD_XREC_ROUNDTRIP
360
209
  0
DICTIONARY
  5
21C
330
1ED
100
AcDbDictionary
280
     1
281
     1
  3
ACAD_XREC_ROUNDTRIP
360
21D
  0
DICTIONARY
  5
216
330
1EA
100
AcDbDictionary
280
     1
281
     1
  3
ACAD_XREC_ROUNDTRIP
360
217
  0
DICTIONARY
  5
21E
330
1EE
100
AcDbDictionary
280
     1
281
     1
  3
ACAD_XREC_ROUNDTRIP
360
21F
  0
DICTIONARY
  5
20C
330
1E5
100
AcDbDictionary
280
     1
281
     1
  3
ACAD_XREC_ROUNDTRIP
360
20D
  0
DICTIONARY
  5
22A
330
1F4
100
AcDbDictionary
280
     1
281
     1
  3
ACAD_XREC_ROUNDTRIP
360
22B
  0
DICTIONARY
  5
228
330
1F3
100
AcDbDictionary
280
     1
281
     1
  3
ACAD_XREC_ROUNDTRIP
360
229
  0
DICTIONARY
  5
222
330
1F0
100
AcDbDictionary
280
     1
281
     1
  3
ACAD_XREC_ROUNDTRIP
360
223
  0
DICTIONARY
  5
224
330
1F1
100
AcDbDictionary
280
     1
281
     1
  3
ACAD_XREC_ROUNDTRIP
360
225
  0
DICTIONARY
  5
214
330
1E9
100
AcDbDictionary
280
     1
281
     1
  3
ACAD_XREC_ROUNDTRIP
360
215
  0
DICTIONARY
  5
206
330
1E2
100
AcDbDictionary
280
     1
281
     1
  3
ACAD_XREC_ROUNDTRIP
360
207
  0
DICTIONARY
  5
226
330
1F2
100
AcDbDictionary
280
     1
281
     1
  3
ACAD_XREC_ROUNDTRIP
360
227
  0
XRECORD
  5
205
102
{ACAD_REACTORS
330
204
102
}
330
204
100
AcDbXrecord
280
     1
102
RTVSPropertyOp0
 70
     1
102
RTVSPropertyOp1
 70
     1
102
RTVSPropertyOp2
 70
     1
102
RTVSPropertyOp3
 70
     1
102
RTVSPropertyOp4
 70
     1
102
RTVSPropertyOp5
 70
     1
102
RTVSPropertyOp6
 70
     1
102
RTVSPropertyOp7
 70
     1
102
RTVSPropertyOp8
 70
     1
102
RTVSPropertyOp9
 70
     1
102
RTVSPropertyOp10
 70
     1
102
RTVSPropertyOp11
 70
     1
102
RTVSPropertyOp12
 70
     1
102
RTVSPropertyOp13
 70
     1
102
RTVSPropertyOp14
 70
     1
102
RTVSPropertyOp15
 70
     1
102
RTVSPropertyOp16
 70
     1
102
RTVSPropertyOp17
 70
     1
102
RTVSPropertyOp18
 70
     1
102
RTVSPropertyOp19
 70
     1
102
RTVSPropertyOp20
 70
     1
102
RTVSPropertyOp21
 70
     1
102
RTVSPropertyOp22
 70
     1
102
RTVSPropertyOp23
 70
     1
102
RTVSPropertyOp24
 70
     1
102
RTVSPropertyOp25
 70
     1
102
RTVSPropertyOp26
 70
     1
102
RTVSPropertyOp27
 70
     1
102
RTVSPropertyOp28
 70
     1
102
RTVSPropertyOp29
 70
     1
102
RTVSPropertyOp30
 70
     1
102
RTVSPropertyOp31
 70
     1
102
RTVSPropertyOp32
 70
     1
102
RTVSPropertyOp33
 70
     1
102
RTVSPropertyOp34
 70
     1
102
RTVSPropertyOp35
 70
     1
102
RTVSPropertyOp36
 70
     1
102
RTVSPropertyOp37
 70
     1
102
RTVSPropertyOp38
 70
     1
102
RTVSPropertyOp39
 70
     1
102
RTVSPropertyOp40
 70
     1
102
RTVSPropertyOp41
 70
     1
102
RTVSPropertyOp42
 70
     1
102
RTVSPropertyOp43
 70
     1
102
RTVSPropertyOp44
 70
     1
102
RTVSPropertyOp45
 70
     1
102
RTVSPropertyOp46
 70
     1
102
RTVSPropertyOp47
 70
     1
102
RTVSPropertyOp48
 70
     1
102
RTVSPropertyOp49
 70
     1
102
RTVSPropertyOp50
 70
     1
102
RTVSPropertyOp51
 70
     0
102
RTVSPropertyOp52
 70
     0
102
RTVSPropertyOp53
 70
     1
102
RTVSPropertyOp54
 70
     1
102
RTVSPropertyOp55
 70
     1
102
RTVSPropertyOp56
 70
     1
102
RTVSPropertyOp57
 70
     1
102
RTVSPost2010Prop28
280
     1
102
RTVSPost2010PropOp28
 70
     1
102
RTVSPost2010Prop29
280
     1
102
RTVSPost2010PropOp29
 70
     1
102
RTVSPost2010Prop30
280
     0
102
RTVSPost2010PropOp30
 70
     1
102
RTVSPost2010Prop31
280
     0
102
RTVSPost2010PropOp31
 70
     1
102
RTVSPost2010Prop32
280
     0
102
RTVSPost2010PropOp32
 70
     1
102
RTVSPost2010Prop33
280
     0
102
RTVSPost2010PropOp33
 70
     1
102
RTVSPost2010Prop34
280
     0
102
RTVSPost2010PropOp34
 70
     1
102
RTVSPost2010Prop35
280
     0
102
RTVSPost2010PropOp35
 70
     1
102
RTVSPost2010Prop36
280
     0
102
RTVSPost2010PropOp36
 70
     1
102
RTVSPost2010Prop37
 90
       50
102
RTVSPost2010PropOp37
 70
     1
102
RTVSPost2010Prop38
140
0.0
102
RTVSPost2010PropOp38
 70
     1
102
RTVSPost2010Prop39
140
1.0
102
RTVSPost2010PropOp39
 70
     1
102
RTVSPost2010Prop40
 90
        0
102
RTVSPost2010PropOp40
 70
     1
102
RTVSPost2010Prop41ColorIndex
 90
       18
102
RTVSPost2010Prop41ColorRGB
 90
        0
102
RTVSPost2010PropOp41
 70
     1
102
RTVSPost2010Prop42
 90
       50
102
RTVSPost2010PropOp42
 70
     1
102
RTVSPost2010Prop43
 90
        3
102
RTVSPost2010PropOp43
 70
     1
102
RTVSPost2010Prop44ColorIndex
 90
        5
102
RTVSPost2010Prop44ColorRGB
 90
      255
102
RTVSPost2010PropOp44
 70
     1
102
RTVSPost2010Prop45
280
     0
102
RTVSPost2010PropOp45
 70
     1
102
RTVSPost2010Prop46
 90
       50
102
RTVSPost2010PropOp46
 70
     1
102
RTVSPost2010Prop47
 90
       50
102
RTVSPost2010PropOp47
 70
     1
102
RTVSPost2010Prop48
 90
       50
102
RTVSPost2010PropOp48
 70
     1
102
RTVSPost2010Prop49
280
     0
102
RTVSPost2010PropOp49
 70
     1
102
RTVSPost2010Prop50
 90
       50
102
RTVSPost2010PropOp50
 70
     1
102
RTVSPost2010Prop51ColorIndex
 90
      256
102
RTVSPost2010Prop51ColorRGB
 90
-16777216
102
RTVSPost2010PropOp51
 70
     0
102
RTVSPost2010Prop52
140
1.0
102
RTVSPost2010PropOp52
 70
     0
102
RTVSPost2010Prop53
 90
        2
102
RTVSPost2010PropOp53
 70
     1
102
RTVSPost2010Prop54
  1
strokes_ogs.tif
102
RTVSPost2010PropOp54
 70
     1
102
RTVSPost2010Prop55
280
     0
102
RTVSPost2010PropOp55
 70
     1
102
RTVSPost2010Prop56
140
1.0
102
RTVSPost2010PropOp56
 70
     1
102
RTVSPost2010Prop57
140
1.0
102
RTVSPost2010PropOp57
 70
     1
  0
XRECORD
  5
20B
102
{ACAD_REACTORS
330
20A
102
}
330
20A
100
AcDbXrecord
280
     1
102
RTVSPropertyOp0
 70
     1
102
RTVSPropertyOp1
 70
     1
102
RTVSPropertyOp2
 70
     1
102
RTVSPropertyOp3
 70
     1
102
RTVSPropertyOp4
 70
     1
102
RTVSPropertyOp5
 70
     1
102
RTVSPropertyOp6
 70
     1
102
RTVSPropertyOp7
 70
     1
102
RTVSPropertyOp8
 70
     1
102
RTVSPropertyOp9
 70
     1
102
RTVSPropertyOp10
 70
     1
102
RTVSPropertyOp11
 70
     1
102
RTVSPropertyOp12
 70
     1
102
RTVSPropertyOp13
 70
     1
102
RTVSPropertyOp14
 70
     1
102
RTVSPropertyOp15
 70
     1
102
RTVSPropertyOp16
 70
     1
102
RTVSPropertyOp17
 70
     1
102
RTVSPropertyOp18
 70
     1
102
RTVSPropertyOp19
 70
     1
102
RTVSPropertyOp20
 70
     1
102
RTVSPropertyOp21
 70
     1
102
RTVSPropertyOp22
 70
     1
102
RTVSPropertyOp23
 70
     1
102
RTVSPropertyOp24
 70
     1
102
RTVSPropertyOp25
 70
     1
102
RTVSPropertyOp26
 70
     1
102
RTVSPropertyOp27
 70
     1
102
RTVSPropertyOp28
 70
     1
102
RTVSPropertyOp29
 70
     1
102
RTVSPropertyOp30
 70
     1
102
RTVSPropertyOp31
 70
     1
102
RTVSPropertyOp32
 70
     1
102
RTVSPropertyOp33
 70
     1
102
RTVSPropertyOp34
 70
     1
102
RTVSPropertyOp35
 70
     1
102
RTVSPropertyOp36
 70
     1
102
RTVSPropertyOp37
 70
     1
102
RTVSPropertyOp38
 70
     1
102
RTVSPropertyOp39
 70
     1
102
RTVSPropertyOp40
 70
     1
102
RTVSPropertyOp41
 70
     1
102
RTVSPropertyOp42
 70
     1
102
RTVSPropertyOp43
 70
     1
102
RTVSPropertyOp44
 70
     1
102
RTVSPropertyOp45
 70
     1
102
RTVSPropertyOp46
 70
     1
102
RTVSPropertyOp47
 70
     1
102
RTVSPropertyOp48
 70
     1
102
RTVSPropertyOp49
 70
     1
102
RTVSPropertyOp50
 70
     1
102
RTVSPropertyOp51
 70
     0
102
RTVSPropertyOp52
 70
     0
102
RTVSPropertyOp53
 70
     1
102
RTVSPropertyOp54
 70
     1
102
RTVSPropertyOp55
 70
     1
102
RTVSPropertyOp56
 70
     1
102
RTVSPropertyOp57
 70
     1
102
RTVSPost2010Prop28
280
     0
102
RTVSPost2010PropOp28
 70
     1
102
RTVSPost2010Prop29
280
     1
102
RTVSPost2010PropOp29
 70
     1
102
RTVSPost2010Prop30
280
     1
102
RTVSPost2010PropOp30
 70
     1
102
RTVSPost2010Prop31
280
     0
102
RTVSPost2010PropOp31
 70
     1
102
RTVSPost2010Prop32
280
     0
102
RTVSPost2010PropOp32
 70
     1
102
RTVSPost2010Prop33
280
     0
102
RTVSPost2010PropOp33
 70
     1
102
RTVSPost2010Prop34
280
     0
102
RTVSPost2010PropOp34
 70
     1
102
RTVSPost2010Prop35
280
     0
102
RTVSPost2010PropOp35
 70
     1
102
RTVSPost2010Prop36
280
     0
102
RTVSPost2010PropOp36
 70
     1
102
RTVSPost2010Prop37
 90
       50
102
RTVSPost2010PropOp37
 70
     1
102
RTVSPost2010Prop38
140
0.0
102
RTVSPost2010PropOp38
 70
     1
102
RTVSPost2010Prop39
140
1.0
102
RTVSPost2010PropOp39
 70
     1
102
RTVSPost2010Prop40
 90
        0
102
RTVSPost2010PropOp40
 70
     1
102
RTVSPost2010Prop41ColorIndex
 90
       18
102
RTVSPost2010Prop41ColorRGB
 90
        0
102
RTVSPost2010PropOp41
 70
     1
102
RTVSPost2010Prop42
 90
       50
102
RTVSPost2010PropOp42
 70
     1
102
RTVSPost2010Prop43
 90
        3
102
RTVSPost2010PropOp43
 70
     1
102
RTVSPost2010Prop44ColorIndex
 90
        5
102
RTVSPost2010Prop44ColorRGB
 90
      255
102
RTVSPost2010PropOp44
 70
     1
102
RTVSPost2010Prop45
280
     0
102
RTVSPost2010PropOp45
 70
     1
102
RTVSPost2010Prop46
 90
       50
102
RTVSPost2010PropOp46
 70
     1
102
RTVSPost2010Prop47
 90
       50
102
RTVSPost2010PropOp47
 70
     1
102
RTVSPost2010Prop48
 90
       50
102
RTVSPost2010PropOp48
 70
     1
102
RTVSPost2010Prop49
280
     0
102
RTVSPost2010PropOp49
 70
     1
102
RTVSPost2010Prop50
 90
       50
102
RTVSPost2010PropOp50
 70
     1
102
RTVSPost2010Prop51ColorIndex
 90
      256
102
RTVSPost2010Prop51ColorRGB
 90
-16777216
102
RTVSPost2010PropOp51
 70
     0
102
RTVSPost2010Prop52
140
1.0
102
RTVSPost2010PropOp52
 70
     0
102
RTVSPost2010Prop53
 90
        2
102
RTVSPost2010PropOp53
 70
     1
102
RTVSPost2010Prop54
  1
strokes_ogs.tif
102
RTVSPost2010PropOp54
 70
     1
102
RTVSPost2010Prop55
280
     0
102
RTVSPost2010PropOp55
 70
     1
102
RTVSPost2010Prop56
140
1.0
102
RTVSPost2010PropOp56
 70
     1
102
RTVSPost2010Prop57
140
1.0
102
RTVSPost2010PropOp57
 70
     1
  0
XRECORD
  5
213
102
{ACAD_REACTORS
330
212
102
}
330
212
100
AcDbXrecord
280
     1
102
RTVSPropertyOp0
 70
     1
102
RTVSPropertyOp1
 70
     1
102
RTVSPropertyOp2
 70
     1
102
RTVSPropertyOp3
 70
     1
102
RTVSPropertyOp4
 70
     1
102
RTVSPropertyOp5
 70
     1
102
RTVSPropertyOp6
 70
     1
102
RTVSPropertyOp7
 70
     1
102
RTVSPropertyOp8
 70
     1
102
RTVSPropertyOp9
 70
     1
102
RTVSPropertyOp10
 70
     1
102
RTVSPropertyOp11
 70
     1
102
RTVSPropertyOp12
 70
     1
102
RTVSPropertyOp13
 70
     1
102
RTVSPropertyOp14
 70
     1
102
RTVSPropertyOp15
 70
     1
102
RTVSPropertyOp16
 70
     1
102
RTVSPropertyOp17
 70
     1
102
RTVSPropertyOp18
 70
     1
102
RTVSPropertyOp19
 70
     1
102
RTVSPropertyOp20
 70
     1
102
RTVSPropertyOp21
 70
     1
102
RTVSPropertyOp22
 70
     1
102
RTVSPropertyOp23
 70
     1
102
RTVSPropertyOp24
 70
     1
102
RTVSPropertyOp25
 70
     1
102
RTVSPropertyOp26
 70
     1
102
RTVSPropertyOp27
 70
     1
102
RTVSPropertyOp28
 70
     1
102
RTVSPropertyOp29
 70
     1
102
RTVSPropertyOp30
 70
     1
102
RTVSPropertyOp31
 70
     1
102
RTVSPropertyOp32
 70
     1
102
RTVSPropertyOp33
 70
     1
102
RTVSPropertyOp34
 70
     1
102
RTVSPropertyOp35
 70
     1
102
RTVSPropertyOp36
 70
     1
102
RTVSPropertyOp37
 70
     1
102
RTVSPropertyOp38
 70
     1
102
RTVSPropertyOp39
 70
     1
102
RTVSPropertyOp40
 70
     1
102
RTVSPropertyOp41
 70
     1
102
RTVSPropertyOp42
 70
     1
102
RTVSPropertyOp43
 70
     1
102
RTVSPropertyOp44
 70
     1
102
RTVSPropertyOp45
 70
     1
102
RTVSPropertyOp46
 70
     1
102
RTVSPropertyOp47
 70
     1
102
RTVSPropertyOp48
 70
     1
102
RTVSPropertyOp49
 70
     1
102
RTVSPropertyOp50
 70
     1
102
RTVSPropertyOp51
 70
     0
102
RTVSPropertyOp52
 70
     0
102
RTVSPropertyOp53
 70
     1
102
RTVSPropertyOp54
 70
     1
102
RTVSPropertyOp55
 70
     1
102
RTVSPropertyOp56
 70
     1
102
RTVSPropertyOp57
 70
     1
102
RTVSPost2010Prop28
280
     0
102
RTVSPost2010PropOp28
 70
     1
102
RTVSPost2010Prop29
280
     1
102
RTVSPost2010PropOp29
 70
     1
102
RTVSPost2010Prop30
280
     1
102
RTVSPost2010PropOp30
 70
     1
102
RTVSPost2010Prop31
280
     0
102
RTVSPost2010PropOp31
 70
     1
102
RTVSPost2010Prop32
280
     0
102
RTVSPost2010PropOp32
 70
     1
102
RTVSPost2010Prop33
280
     0
102
RTVSPost2010PropOp33
 70
     1
102
RTVSPost2010Prop34
280
     0
102
RTVSPost2010PropOp34
 70
     1
102
RTVSPost2010Prop35
280
     0
102
RTVSPost2010PropOp35
 70
     1
102
RTVSPost2010Prop36
280
     0
102
RTVSPost2010PropOp36
 70
     1
102
RTVSPost2010Prop37
 90
       50
102
RTVSPost2010PropOp37
 70
     1
102
RTVSPost2010Prop38
140
0.0
102
RTVSPost2010PropOp38
 70
     1
102
RTVSPost2010Prop39
140
1.0
102
RTVSPost2010PropOp39
 70
     1
102
RTVSPost2010Prop40
 90
        0
102
RTVSPost2010PropOp40
 70
     1
102
RTVSPost2010Prop41ColorIndex
 90
       18
102
RTVSPost2010Prop41ColorRGB
 90
        0
102
RTVSPost2010PropOp41
 70
     1
102
RTVSPost2010Prop42
 90
       50
102
RTVSPost2010PropOp42
 70
     1
102
RTVSPost2010Prop43
 90
        3
102
RTVSPost2010PropOp43
 70
     1
102
RTVSPost2010Prop44ColorIndex
 90
        5
102
RTVSPost2010Prop44ColorRGB
 90
      255
102
RTVSPost2010PropOp44
 70
     1
102
RTVSPost2010Prop45
280
     0
102
RTVSPost2010PropOp45
 70
     1
102
RTVSPost2010Prop46
 90
       50
102
RTVSPost2010PropOp46
 70
     1
102
RTVSPost2010Prop47
 90
       50
102
RTVSPost2010PropOp47
 70
     1
102
RTVSPost2010Prop48
 90
       50
102
RTVSPost2010PropOp48
 70
     1
102
RTVSPost2010Prop49
280
     0
102
RTVSPost2010PropOp49
 70
     1
102
RTVSPost2010Prop50
 90
       50
102
RTVSPost2010PropOp50
 70
     1
102
RTVSPost2010Prop51ColorIndex
 90
      256
102
RTVSPost2010Prop51ColorRGB
 90
-16777216
102
RTVSPost2010PropOp51
 70
     0
102
RTVSPost2010Prop52
140
1.0
102
RTVSPost2010PropOp52
 70
     0
102
RTVSPost2010Prop53
 90
        2
102
RTVSPost2010PropOp53
 70
     1
102
RTVSPost2010Prop54
  1
strokes_ogs.tif
102
RTVSPost2010PropOp54
 70
     1
102
RTVSPost2010Prop55
280
     0
102
RTVSPost2010PropOp55
 70
     1
102
RTVSPost2010Prop56
140
1.0
102
RTVSPost2010PropOp56
 70
     1
102
RTVSPost2010Prop57
140
1.0
102
RTVSPost2010PropOp57
 70
     1
  0
XRECORD
  5
21B
102
{ACAD_REACTORS
330
21A
102
}
330
21A
100
AcDbXrecord
280
     1
102
RTVSPropertyOp0
 70
     1
102
RTVSPropertyOp1
 70
     1
102
RTVSPropertyOp2
 70
     1
102
RTVSPropertyOp3
 70
     1
102
RTVSPropertyOp4
 70
     1
102
RTVSPropertyOp5
 70
     1
102
RTVSPropertyOp6
 70
     1
102
RTVSPropertyOp7
 70
     1
102
RTVSPropertyOp8
 70
     1
102
RTVSPropertyOp9
 70
     1
102
RTVSPropertyOp10
 70
     1
102
RTVSPropertyOp11
 70
     1
102
RTVSPropertyOp12
 70
     1
102
RTVSPropertyOp13
 70
     1
102
RTVSPropertyOp14
 70
     1
102
RTVSPropertyOp15
 70
     1
102
RTVSPropertyOp16
 70
     1
102
RTVSPropertyOp17
 70
     1
102
RTVSPropertyOp18
 70
     1
102
RTVSPropertyOp19
 70
     1
102
RTVSPropertyOp20
 70
     1
102
RTVSPropertyOp21
 70
     1
102
RTVSPropertyOp22
 70
     1
102
RTVSPropertyOp23
 70
     1
102
RTVSPropertyOp24
 70
     1
102
RTVSPropertyOp25
 70
     1
102
RTVSPropertyOp26
 70
     1
102
RTVSPropertyOp27
 70
     1
102
RTVSPropertyOp28
 70
     1
102
RTVSPropertyOp29
 70
     1
102
RTVSPropertyOp30
 70
     1
102
RTVSPropertyOp31
 70
     1
102
RTVSPropertyOp32
 70
     1
102
RTVSPropertyOp33
 70
     1
102
RTVSPropertyOp34
 70
     1
102
RTVSPropertyOp35
 70
     1
102
RTVSPropertyOp36
 70
     1
102
RTVSPropertyOp37
 70
     1
102
RTVSPropertyOp38
 70
     1
102
RTVSPropertyOp39
 70
     1
102
RTVSPropertyOp40
 70
     1
102
RTVSPropertyOp41
 70
     1
102
RTVSPropertyOp42
 70
     1
102
RTVSPropertyOp43
 70
     1
102
RTVSPropertyOp44
 70
     1
102
RTVSPropertyOp45
 70
     1
102
RTVSPropertyOp46
 70
     1
102
RTVSPropertyOp47
 70
     1
102
RTVSPropertyOp48
 70
     1
102
RTVSPropertyOp49
 70
     1
102
RTVSPropertyOp50
 70
     1
102
RTVSPropertyOp51
 70
     0
102
RTVSPropertyOp52
 70
     0
102
RTVSPropertyOp53
 70
     1
102
RTVSPropertyOp54
 70
     1
102
RTVSPropertyOp55
 70
     1
102
RTVSPropertyOp56
 70
     1
102
RTVSPropertyOp57
 70
     1
102
RTVSPost2010Prop28
280
     0
102
RTVSPost2010PropOp28
 70
     1
102
RTVSPost2010Prop29
280
     1
102
RTVSPost2010PropOp29
 70
     1
102
RTVSPost2010Prop30
280
     1
102
RTVSPost2010PropOp30
 70
     1
102
RTVSPost2010Prop31
280
     0
102
RTVSPost2010PropOp31
 70
     1
102
RTVSPost2010Prop32
280
     0
102
RTVSPost2010PropOp32
 70
     1
102
RTVSPost2010Prop33
280
     0
102
RTVSPost2010PropOp33
 70
     1
102
RTVSPost2010Prop34
280
     0
102
RTVSPost2010PropOp34
 70
     1
102
RTVSPost2010Prop35
280
     0
102
RTVSPost2010PropOp35
 70
     1
102
RTVSPost2010Prop36
280
     0
102
RTVSPost2010PropOp36
 70
     1
102
RTVSPost2010Prop37
 90
       50
102
RTVSPost2010PropOp37
 70
     1
102
RTVSPost2010Prop38
140
0.0
102
RTVSPost2010PropOp38
 70
     1
102
RTVSPost2010Prop39
140
1.0
102
RTVSPost2010PropOp39
 70
     1
102
RTVSPost2010Prop40
 90
        0
102
RTVSPost2010PropOp40
 70
     1
102
RTVSPost2010Prop41ColorIndex
 90
       18
102
RTVSPost2010Prop41ColorRGB
 90
        0
102
RTVSPost2010PropOp41
 70
     1
102
RTVSPost2010Prop42
 90
       50
102
RTVSPost2010PropOp42
 70
     1
102
RTVSPost2010Prop43
 90
        3
102
RTVSPost2010PropOp43
 70
     1
102
RTVSPost2010Prop44ColorIndex
 90
        5
102
RTVSPost2010Prop44ColorRGB
 90
      255
102
RTVSPost2010PropOp44
 70
     1
102
RTVSPost2010Prop45
280
     0
102
RTVSPost2010PropOp45
 70
     1
102
RTVSPost2010Prop46
 90
       50
102
RTVSPost2010PropOp46
 70
     1
102
RTVSPost2010Prop47
 90
       50
102
RTVSPost2010PropOp47
 70
     1
102
RTVSPost2010Prop48
 90
       50
102
RTVSPost2010PropOp48
 70
     1
102
RTVSPost2010Prop49
280
     0
102
RTVSPost2010PropOp49
 70
     1
102
RTVSPost2010Prop50
 90
       50
102
RTVSPost2010PropOp50
 70
     1
102
RTVSPost2010Prop51ColorIndex
 90
      256
102
RTVSPost2010Prop51ColorRGB
 90
-16777216
102
RTVSPost2010PropOp51
 70
     0
102
RTVSPost2010Prop52
140
1.0
102
RTVSPost2010PropOp52
 70
     0
102
RTVSPost2010Prop53
 90
        2
102
RTVSPost2010PropOp53
 70
     1
102
RTVSPost2010Prop54
  1
strokes_ogs.tif
102
RTVSPost2010PropOp54
 70
     1
102
RTVSPost2010Prop55
280
     0
102
RTVSPost2010PropOp55
 70
     1
102
RTVSPost2010Prop56
140
1.0
102
RTVSPost2010PropOp56
 70
     1
102
RTVSPost2010Prop57
140
1.0
102
RTVSPost2010PropOp57
 70
     1
  0
XRECORD
  5
20F
102
{ACAD_REACTORS
330
20E
102
}
330
20E
100
AcDbXrecord
280
     1
102
RTVSPropertyOp0
 70
     1
102
RTVSPropertyOp1
 70
     1
102
RTVSPropertyOp2
 70
     1
102
RTVSPropertyOp3
 70
     1
102
RTVSPropertyOp4
 70
     1
102
RTVSPropertyOp5
 70
     1
102
RTVSPropertyOp6
 70
     1
102
RTVSPropertyOp7
 70
     1
102
RTVSPropertyOp8
 70
     1
102
RTVSPropertyOp9
 70
     1
102
RTVSPropertyOp10
 70
     1
102
RTVSPropertyOp11
 70
     1
102
RTVSPropertyOp12
 70
     1
102
RTVSPropertyOp13
 70
     1
102
RTVSPropertyOp14
 70
     1
102
RTVSPropertyOp15
 70
     1
102
RTVSPropertyOp16
 70
     1
102
RTVSPropertyOp17
 70
     1
102
RTVSPropertyOp18
 70
     1
102
RTVSPropertyOp19
 70
     1
102
RTVSPropertyOp20
 70
     1
102
RTVSPropertyOp21
 70
     1
102
RTVSPropertyOp22
 70
     1
102
RTVSPropertyOp23
 70
     1
102
RTVSPropertyOp24
 70
     1
102
RTVSPropertyOp25
 70
     1
102
RTVSPropertyOp26
 70
     1
102
RTVSPropertyOp27
 70
     1
102
RTVSPropertyOp28
 70
     1
102
RTVSPropertyOp29
 70
     1
102
RTVSPropertyOp30
 70
     1
102
RTVSPropertyOp31
 70
     1
102
RTVSPropertyOp32
 70
     1
102
RTVSPropertyOp33
 70
     1
102
RTVSPropertyOp34
 70
     1
102
RTVSPropertyOp35
 70
     1
102
RTVSPropertyOp36
 70
     1
102
RTVSPropertyOp37
 70
     1
102
RTVSPropertyOp38
 70
     1
102
RTVSPropertyOp39
 70
     1
102
RTVSPropertyOp40
 70
     1
102
RTVSPropertyOp41
 70
     1
102
RTVSPropertyOp42
 70
     1
102
RTVSPropertyOp43
 70
     1
102
RTVSPropertyOp44
 70
     1
102
RTVSPropertyOp45
 70
     1
102
RTVSPropertyOp46
 70
     1
102
RTVSPropertyOp47
 70
     1
102
RTVSPropertyOp48
 70
     1
102
RTVSPropertyOp49
 70
     1
102
RTVSPropertyOp50
 70
     1
102
RTVSPropertyOp51
 70
     0
102
RTVSPropertyOp52
 70
     0
102
RTVSPropertyOp53
 70
     1
102
RTVSPropertyOp54
 70
     1
102
RTVSPropertyOp55
 70
     1
102
RTVSPropertyOp56
 70
     1
102
RTVSPropertyOp57
 70
     1
102
RTVSPost2010Prop28
280
     0
102
RTVSPost2010PropOp28
 70
     1
102
RTVSPost2010Prop29
280
     1
102
RTVSPost2010PropOp29
 70
     1
102
RTVSPost2010Prop30
280
     1
102
RTVSPost2010PropOp30
 70
     1
102
RTVSPost2010Prop31
280
     0
102
RTVSPost2010PropOp31
 70
     1
102
RTVSPost2010Prop32
280
     0
102
RTVSPost2010PropOp32
 70
     1
102
RTVSPost2010Prop33
280
     0
102
RTVSPost2010PropOp33
 70
     1
102
RTVSPost2010Prop34
280
     0
102
RTVSPost2010PropOp34
 70
     1
102
RTVSPost2010Prop35
280
     0
102
RTVSPost2010PropOp35
 70
     1
102
RTVSPost2010Prop36
280
     0
102
RTVSPost2010PropOp36
 70
     1
102
RTVSPost2010Prop37
 90
       50
102
RTVSPost2010PropOp37
 70
     1
102
RTVSPost2010Prop38
140
0.0
102
RTVSPost2010PropOp38
 70
     1
102
RTVSPost2010Prop39
140
1.0
102
RTVSPost2010PropOp39
 70
     1
102
RTVSPost2010Prop40
 90
        0
102
RTVSPost2010PropOp40
 70
     1
102
RTVSPost2010Prop41ColorIndex
 90
       18
102
RTVSPost2010Prop41ColorRGB
 90
        0
102
RTVSPost2010PropOp41
 70
     1
102
RTVSPost2010Prop42
 90
       50
102
RTVSPost2010PropOp42
 70
     1
102
RTVSPost2010Prop43
 90
        3
102
RTVSPost2010PropOp43
 70
     1
102
RTVSPost2010Prop44ColorIndex
 90
        5
102
RTVSPost2010Prop44ColorRGB
 90
      255
102
RTVSPost2010PropOp44
 70
     1
102
RTVSPost2010Prop45
280
     0
102
RTVSPost2010PropOp45
 70
     1
102
RTVSPost2010Prop46
 90
       50
102
RTVSPost2010PropOp46
 70
     1
102
RTVSPost2010Prop47
 90
       50
102
RTVSPost2010PropOp47
 70
     1
102
RTVSPost2010Prop48
 90
       50
102
RTVSPost2010PropOp48
 70
     1
102
RTVSPost2010Prop49
280
     0
102
RTVSPost2010PropOp49
 70
     1
102
RTVSPost2010Prop50
 90
       50
102
RTVSPost2010PropOp50
 70
     1
102
RTVSPost2010Prop51ColorIndex
 90
      256
102
RTVSPost2010Prop51ColorRGB
 90
-16777216
102
RTVSPost2010PropOp51
 70
     0
102
RTVSPost2010Prop52
140
1.0
102
RTVSPost2010PropOp52
 70
     0
102
RTVSPost2010Prop53
 90
        2
102
RTVSPost2010PropOp53
 70
     1
102
RTVSPost2010Prop54
  1
strokes_ogs.tif
102
RTVSPost2010PropOp54
 70
     1
102
RTVSPost2010Prop55
280
     0
102
RTVSPost2010PropOp55
 70
     1
102
RTVSPost2010Prop56
140
1.0
102
RTVSPost2010PropOp56
 70
     1
102
RTVSPost2010Prop57
140
1.0
102
RTVSPost2010PropOp57
 70
     1
  0
XRECORD
  5
211
102
{ACAD_REACTORS
330
210
102
}
330
210
100
AcDbXrecord
280
     1
102
RTVSPropertyOp0
 70
     1
102
RTVSPropertyOp1
 70
     1
102
RTVSPropertyOp2
 70
     1
102
RTVSPropertyOp3
 70
     1
102
RTVSPropertyOp4
 70
     1
102
RTVSPropertyOp5
 70
     1
102
RTVSPropertyOp6
 70
     1
102
RTVSPropertyOp7
 70
     1
102
RTVSPropertyOp8
 70
     1
102
RTVSPropertyOp9
 70
     1
102
RTVSPropertyOp10
 70
     1
102
RTVSPropertyOp11
 70
     1
102
RTVSPropertyOp12
 70
     1
102
RTVSPropertyOp13
 70
     1
102
RTVSPropertyOp14
 70
     1
102
RTVSPropertyOp15
 70
     1
102
RTVSPropertyOp16
 70
     1
102
RTVSPropertyOp17
 70
     1
102
RTVSPropertyOp18
 70
     1
102
RTVSPropertyOp19
 70
     1
102
RTVSPropertyOp20
 70
     1
102
RTVSPropertyOp21
 70
     1
102
RTVSPropertyOp22
 70
     1
102
RTVSPropertyOp23
 70
     1
102
RTVSPropertyOp24
 70
     1
102
RTVSPropertyOp25
 70
     1
102
RTVSPropertyOp26
 70
     1
102
RTVSPropertyOp27
 70
     1
102
RTVSPropertyOp28
 70
     1
102
RTVSPropertyOp29
 70
     1
102
RTVSPropertyOp30
 70
     1
102
RTVSPropertyOp31
 70
     1
102
RTVSPropertyOp32
 70
     1
102
RTVSPropertyOp33
 70
     1
102
RTVSPropertyOp34
 70
     1
102
RTVSPropertyOp35
 70
     1
102
RTVSPropertyOp36
 70
     1
102
RTVSPropertyOp37
 70
     1
102
RTVSPropertyOp38
 70
     1
102
RTVSPropertyOp39
 70
     1
102
RTVSPropertyOp40
 70
     1
102
RTVSPropertyOp41
 70
     1
102
RTVSPropertyOp42
 70
     1
102
RTVSPropertyOp43
 70
     1
102
RTVSPropertyOp44
 70
     1
102
RTVSPropertyOp45
 70
     1
102
RTVSPropertyOp46
 70
     1
102
RTVSPropertyOp47
 70
     1
102
RTVSPropertyOp48
 70
     1
102
RTVSPropertyOp49
 70
     1
102
RTVSPropertyOp50
 70
     1
102
RTVSPropertyOp51
 70
     0
102
RTVSPropertyOp52
 70
     0
102
RTVSPropertyOp53
 70
     1
102
RTVSPropertyOp54
 70
     1
102
RTVSPropertyOp55
 70
     1
102
RTVSPropertyOp56
 70
     1
102
RTVSPropertyOp57
 70
     1
102
RTVSPost2010Prop28
280
     0
102
RTVSPost2010PropOp28
 70
     1
102
RTVSPost2010Prop29
280
     1
102
RTVSPost2010PropOp29
 70
     1
102
RTVSPost2010Prop30
280
     1
102
RTVSPost2010PropOp30
 70
     1
102
RTVSPost2010Prop31
280
     0
102
RTVSPost2010PropOp31
 70
     1
102
RTVSPost2010Prop32
280
     0
102
RTVSPost2010PropOp32
 70
     1
102
RTVSPost2010Prop33
280
     0
102
RTVSPost2010PropOp33
 70
     1
102
RTVSPost2010Prop34
280
     0
102
RTVSPost2010PropOp34
 70
     1
102
RTVSPost2010Prop35
280
     0
102
RTVSPost2010PropOp35
 70
     1
102
RTVSPost2010Prop36
280
     0
102
RTVSPost2010PropOp36
 70
     1
102
RTVSPost2010Prop37
 90
       50
102
RTVSPost2010PropOp37
 70
     1
102
RTVSPost2010Prop38
140
0.0
102
RTVSPost2010PropOp38
 70
     1
102
RTVSPost2010Prop39
140
1.0
102
RTVSPost2010PropOp39
 70
     1
102
RTVSPost2010Prop40
 90
        0
102
RTVSPost2010PropOp40
 70
     1
102
RTVSPost2010Prop41ColorIndex
 90
       18
102
RTVSPost2010Prop41ColorRGB
 90
        0
102
RTVSPost2010PropOp41
 70
     1
102
RTVSPost2010Prop42
 90
       50
102
RTVSPost2010PropOp42
 70
     1
102
RTVSPost2010Prop43
 90
        3
102
RTVSPost2010PropOp43
 70
     1
102
RTVSPost2010Prop44ColorIndex
 90
        5
102
RTVSPost2010Prop44ColorRGB
 90
      255
102
RTVSPost2010PropOp44
 70
     1
102
RTVSPost2010Prop45
280
     0
102
RTVSPost2010PropOp45
 70
     1
102
RTVSPost2010Prop46
 90
       50
102
RTVSPost2010PropOp46
 70
     1
102
RTVSPost2010Prop47
 90
       50
102
RTVSPost2010PropOp47
 70
     1
102
RTVSPost2010Prop48
 90
       50
102
RTVSPost2010PropOp48
 70
     1
102
RTVSPost2010Prop49
280
     0
102
RTVSPost2010PropOp49
 70
     1
102
RTVSPost2010Prop50
 90
       50
102
RTVSPost2010PropOp50
 70
     1
102
RTVSPost2010Prop51ColorIndex
 90
      256
102
RTVSPost2010Prop51ColorRGB
 90
-16777216
102
RTVSPost2010PropOp51
 70
     0
102
RTVSPost2010Prop52
140
1.0
102
RTVSPost2010PropOp52
 70
     0
102
RTVSPost2010Prop53
 90
        2
102
RTVSPost2010PropOp53
 70
     1
102
RTVSPost2010Prop54
  1
strokes_ogs.tif
102
RTVSPost2010PropOp54
 70
     1
102
RTVSPost2010Prop55
280
     0
102
RTVSPost2010PropOp55
 70
     1
102
RTVSPost2010Prop56
140
1.0
102
RTVSPost2010PropOp56
 70
     1
102
RTVSPost2010Prop57
140
1.0
102
RTVSPost2010PropOp57
 70
     1
  0
XRECORD
  5
221
102
{ACAD_REACTORS
330
220
102
}
330
220
100
AcDbXrecord
280
     1
102
RTVSPropertyOp0
 70
     0
102
RTVSPropertyOp1
 70
     0
102
RTVSPropertyOp2
 70
     0
102
RTVSPropertyOp3
 70
     0
102
RTVSPropertyOp4
 70
     0
102
RTVSPropertyOp5
 70
     0
102
RTVSPropertyOp6
 70
     0
102
RTVSPropertyOp7
 70
     0
102
RTVSPropertyOp8
 70
     0
102
RTVSPropertyOp9
 70
     0
102
RTVSPropertyOp10
 70
     0
102
RTVSPropertyOp11
 70
     0
102
RTVSPropertyOp12
 70
     0
102
RTVSPropertyOp13
 70
     0
102
RTVSPropertyOp14
 70
     2
102
RTVSPropertyOp15
 70
     0
102
RTVSPropertyOp16
 70
     0
102
RTVSPropertyOp17
 70
     0
102
RTVSPropertyOp18
 70
     0
102
RTVSPropertyOp19
 70
     0
102
RTVSPropertyOp20
 70
     0
102
RTVSPropertyOp21
 70
     0
102
RTVSPropertyOp22
 70
     0
102
RTVSPropertyOp23
 70
     0
102
RTVSPropertyOp24
 70
     0
102
RTVSPropertyOp25
 70
     0
102
RTVSPropertyOp26
 70
     0
102
RTVSPropertyOp27
 70
     0
102
RTVSPropertyOp28
 70
     0
102
RTVSPropertyOp29
 70
     0
102
RTVSPropertyOp30
 70
     0
102
RTVSPropertyOp31
 70
     0
102
RTVSPropertyOp32
 70
     0
102
RTVSPropertyOp33
 70
     0
102
RTVSPropertyOp34
 70
     0
102
RTVSPropertyOp35
 70
     0
102
RTVSPropertyOp36
 70
     0
102
RTVSPropertyOp37
 70
     0
102
RTVSPropertyOp38
 70
     0
102
RTVSPropertyOp39
 70
     0
102
RTVSPropertyOp40
 70
     0
102
RTVSPropertyOp41
 70
     0
102
RTVSPropertyOp42
 70
     0
102
RTVSPropertyOp43
 70
     0
102
RTVSPropertyOp44
 70
     0
102
RTVSPropertyOp45
 70
     0
102
RTVSPropertyOp46
 70
     0
102
RTVSPropertyOp47
 70
     0
102
RTVSPropertyOp48
 70
     0
102
RTVSPropertyOp49
 70
     0
102
RTVSPropertyOp50
 70
     0
102
RTVSPropertyOp51
 70
     0
102
RTVSPropertyOp52
 70
     0
102
RTVSPropertyOp53
 70
     0
102
RTVSPropertyOp54
 70
     0
102
RTVSPropertyOp55
 70
     0
102
RTVSPropertyOp56
 70
     0
102
RTVSPropertyOp57
 70
     0
102
RTVSPost2010Prop28
280
     0
102
RTVSPost2010PropOp28
 70
     0
102
RTVSPost2010Prop29
280
     1
102
RTVSPost2010PropOp29
 70
     0
102
RTVSPost2010Prop30
280
     1
102
RTVSPost2010PropOp30
 70
     0
102
RTVSPost2010Prop31
280
     0
102
RTVSPost2010PropOp31
 70
     0
102
RTVSPost2010Prop32
280
     0
102
RTVSPost2010PropOp32
 70
     0
102
RTVSPost2010Prop33
280
     0
102
RTVSPost2010PropOp33
 70
     0
102
RTVSPost2010Prop34
280
     0
102
RTVSPost2010PropOp34
 70
     0
102
RTVSPost2010Prop35
280
     0
102
RTVSPost2010PropOp35
 70
     0
102
RTVSPost2010Prop36
280
     0
102
RTVSPost2010PropOp36
 70
     0
102
RTVSPost2010Prop37
 90
       50
102
RTVSPost2010PropOp37
 70
     0
102
RTVSPost2010Prop38
140
0.0
102
RTVSPost2010PropOp38
 70
     0
102
RTVSPost2010Prop39
140
1.0
102
RTVSPost2010PropOp39
 70
     0
102
RTVSPost2010Prop40
 90
        0
102
RTVSPost2010PropOp40
 70
     0
102
RTVSPost2010Prop41ColorIndex
 90
       18
102
RTVSPost2010Prop41ColorRGB
 90
        0
102
RTVSPost2010PropOp41
 70
     0
102
RTVSPost2010Prop42
 90
       50
102
RTVSPost2010PropOp42
 70
     0
102
RTVSPost2010Prop43
 90
        3
102
RTVSPost2010PropOp43
 70
     0
102
RTVSPost2010Prop44ColorIndex
 90
        5
102
RTVSPost2010Prop44ColorRGB
 90
      255
102
RTVSPost2010PropOp44
 70
     0
102
RTVSPost2010Prop45
280
     0
102
RTVSPost2010PropOp45
 70
     0
102
RTVSPost2010Prop46
 90
       50
102
RTVSPost2010PropOp46
 70
     0
102
RTVSPost2010Prop47
 90
       50
102
RTVSPost2010PropOp47
 70
     0
102
RTVSPost2010Prop48
 90
       50
102
RTVSPost2010PropOp48
 70
     0
102
RTVSPost2010Prop49
280
     0
102
RTVSPost2010PropOp49
 70
     0
102
RTVSPost2010Prop50
 90
       50
102
RTVSPost2010PropOp50
 70
     0
102
RTVSPost2010Prop51ColorIndex
 90
      256
102
RTVSPost2010Prop51ColorRGB
 90
-16777216
102
RTVSPost2010PropOp51
 70
     0
102
RTVSPost2010Prop52
140
1.0
102
RTVSPost2010PropOp52
 70
     0
102
RTVSPost2010Prop53
 90
        2
102
RTVSPost2010PropOp53
 70
     0
102
RTVSPost2010Prop54
  1
strokes_ogs.tif
102
RTVSPost2010PropOp54
 70
     0
102
RTVSPost2010Prop55
280
     0
102
RTVSPost2010PropOp55
 70
     0
102
RTVSPost2010Prop56
140
1.0
102
RTVSPost2010PropOp56
 70
     0
102
RTVSPost2010Prop57
140
1.0
102
RTVSPost2010PropOp57
 70
     0
  0
XRECORD
  5
219
102
{ACAD_REACTORS
330
218
102
}
330
218
100
AcDbXrecord
280
     1
102
RTVSPropertyOp0
 70
     1
102
RTVSPropertyOp1
 70
     1
102
RTVSPropertyOp2
 70
     1
102
RTVSPropertyOp3
 70
     1
102
RTVSPropertyOp4
 70
     1
102
RTVSPropertyOp5
 70
     1
102
RTVSPropertyOp6
 70
     1
102
RTVSPropertyOp7
 70
     1
102
RTVSPropertyOp8
 70
     1
102
RTVSPropertyOp9
 70
     1
102
RTVSPropertyOp10
 70
     1
102
RTVSPropertyOp11
 70
     1
102
RTVSPropertyOp12
 70
     1
102
RTVSPropertyOp13
 70
     1
102
RTVSPropertyOp14
 70
     1
102
RTVSPropertyOp15
 70
     1
102
RTVSPropertyOp16
 70
     1
102
RTVSPropertyOp17
 70
     1
102
RTVSPropertyOp18
 70
     1
102
RTVSPropertyOp19
 70
     1
102
RTVSPropertyOp20
 70
     1
102
RTVSPropertyOp21
 70
     1
102
RTVSPropertyOp22
 70
     1
102
RTVSPropertyOp23
 70
     1
102
RTVSPropertyOp24
 70
     1
102
RTVSPropertyOp25
 70
     1
102
RTVSPropertyOp26
 70
     1
102
RTVSPropertyOp27
 70
     1
102
RTVSPropertyOp28
 70
     1
102
RTVSPropertyOp29
 70
     1
102
RTVSPropertyOp30
 70
     1
102
RTVSPropertyOp31
 70
     1
102
RTVSPropertyOp32
 70
     1
102
RTVSPropertyOp33
 70
     1
102
RTVSPropertyOp34
 70
     1
102
RTVSPropertyOp35
 70
     1
102
RTVSPropertyOp36
 70
     1
102
RTVSPropertyOp37
 70
     1
102
RTVSPropertyOp38
 70
     1
102
RTVSPropertyOp39
 70
     1
102
RTVSPropertyOp40
 70
     1
102
RTVSPropertyOp41
 70
     1
102
RTVSPropertyOp42
 70
     1
102
RTVSPropertyOp43
 70
     1
102
RTVSPropertyOp44
 70
     1
102
RTVSPropertyOp45
 70
     1
102
RTVSPropertyOp46
 70
     1
102
RTVSPropertyOp47
 70
     1
102
RTVSPropertyOp48
 70
     1
102
RTVSPropertyOp49
 70
     1
102
RTVSPropertyOp50
 70
     1
102
RTVSPropertyOp51
 70
     0
102
RTVSPropertyOp52
 70
     0
102
RTVSPropertyOp53
 70
     1
102
RTVSPropertyOp54
 70
     1
102
RTVSPropertyOp55
 70
     1
102
RTVSPropertyOp56
 70
     1
102
RTVSPropertyOp57
 70
     1
102
RTVSPost2010Prop28
280
     0
102
RTVSPost2010PropOp28
 70
     1
102
RTVSPost2010Prop29
280
     1
102
RTVSPost2010PropOp29
 70
     1
102
RTVSPost2010Prop30
280
     1
102
RTVSPost2010PropOp30
 70
     1
102
RTVSPost2010Prop31
280
     0
102
RTVSPost2010PropOp31
 70
     1
102
RTVSPost2010Prop32
280
     0
102
RTVSPost2010PropOp32
 70
     1
102
RTVSPost2010Prop33
280
     0
102
RTVSPost2010PropOp33
 70
     1
102
RTVSPost2010Prop34
280
     0
102
RTVSPost2010PropOp34
 70
     1
102
RTVSPost2010Prop35
280
     0
102
RTVSPost2010PropOp35
 70
     1
102
RTVSPost2010Prop36
280
     0
102
RTVSPost2010PropOp36
 70
     1
102
RTVSPost2010Prop37
 90
       50
102
RTVSPost2010PropOp37
 70
     1
102
RTVSPost2010Prop38
140
0.0
102
RTVSPost2010PropOp38
 70
     1
102
RTVSPost2010Prop39
140
1.0
102
RTVSPost2010PropOp39
 70
     1
102
RTVSPost2010Prop40
 90
        0
102
RTVSPost2010PropOp40
 70
     1
102
RTVSPost2010Prop41ColorIndex
 90
       18
102
RTVSPost2010Prop41ColorRGB
 90
        0
102
RTVSPost2010PropOp41
 70
     1
102
RTVSPost2010Prop42
 90
       50
102
RTVSPost2010PropOp42
 70
     1
102
RTVSPost2010Prop43
 90
        3
102
RTVSPost2010PropOp43
 70
     1
102
RTVSPost2010Prop44ColorIndex
 90
        5
102
RTVSPost2010Prop44ColorRGB
 90
      255
102
RTVSPost2010PropOp44
 70
     1
102
RTVSPost2010Prop45
280
     0
102
RTVSPost2010PropOp45
 70
     1
102
RTVSPost2010Prop46
 90
       50
102
RTVSPost2010PropOp46
 70
     1
102
RTVSPost2010Prop47
 90
       50
102
RTVSPost2010PropOp47
 70
     1
102
RTVSPost2010Prop48
 90
       50
102
RTVSPost2010PropOp48
 70
     1
102
RTVSPost2010Prop49
280
     0
102
RTVSPost2010PropOp49
 70
     1
102
RTVSPost2010Prop50
 90
       50
102
RTVSPost2010PropOp50
 70
     1
102
RTVSPost2010Prop51ColorIndex
 90
      256
102
RTVSPost2010Prop51ColorRGB
 90
-16777216
102
RTVSPost2010PropOp51
 70
     0
102
RTVSPost2010Prop52
140
1.0
102
RTVSPost2010PropOp52
 70
     0
102
RTVSPost2010Prop53
 90
        2
102
RTVSPost2010PropOp53
 70
     1
102
RTVSPost2010Prop54
  1
strokes_ogs.tif
102
RTVSPost2010PropOp54
 70
     1
102
RTVSPost2010Prop55
280
     0
102
RTVSPost2010PropOp55
 70
     1
102
RTVSPost2010Prop56
140
1.0
102
RTVSPost2010PropOp56
 70
     1
102
RTVSPost2010Prop57
140
1.0
102
RTVSPost2010PropOp57
 70
     1
  0
XRECORD
  5
1FD
102
{ACAD_REACTORS
330
1FC
102
}
330
1FC
100
AcDbXrecord
280
     1
102
RTVSPropertyOp0
 70
     1
102
RTVSPropertyOp1
 70
     1
102
RTVSPropertyOp2
 70
     1
102
RTVSPropertyOp3
 70
     1
102
RTVSPropertyOp4
 70
     1
102
RTVSPropertyOp5
 70
     1
102
RTVSPropertyOp6
 70
     1
102
RTVSPropertyOp7
 70
     1
102
RTVSPropertyOp8
 70
     1
102
RTVSPropertyOp9
 70
     1
102
RTVSPropertyOp10
 70
     1
102
RTVSPropertyOp11
 70
     1
102
RTVSPropertyOp12
 70
     1
102
RTVSPropertyOp13
 70
     1
102
RTVSPropertyOp14
 70
     1
102
RTVSPropertyOp15
 70
     1
102
RTVSPropertyOp16
 70
     1
102
RTVSPropertyOp17
 70
     1
102
RTVSPropertyOp18
 70
     1
102
RTVSPropertyOp19
 70
     1
102
RTVSPropertyOp20
 70
     1
102
RTVSPropertyOp21
 70
     1
102
RTVSPropertyOp22
 70
     1
102
RTVSPropertyOp23
 70
     1
102
RTVSPropertyOp24
 70
     1
102
RTVSPropertyOp25
 70
     1
102
RTVSPropertyOp26
 70
     1
102
RTVSPropertyOp27
 70
     1
102
RTVSPropertyOp28
 70
     1
102
RTVSPropertyOp29
 70
     1
102
RTVSPropertyOp30
 70
     1
102
RTVSPropertyOp31
 70
     1
102
RTVSPropertyOp32
 70
     1
102
RTVSPropertyOp33
 70
     1
102
RTVSPropertyOp34
 70
     1
102
RTVSPropertyOp35
 70
     1
102
RTVSPropertyOp36
 70
     1
102
RTVSPropertyOp37
 70
     1
102
RTVSPropertyOp38
 70
     1
102
RTVSPropertyOp39
 70
     1
102
RTVSPropertyOp40
 70
     1
102
RTVSPropertyOp41
 70
     1
102
RTVSPropertyOp42
 70
     1
102
RTVSPropertyOp43
 70
     1
102
RTVSPropertyOp44
 70
     1
102
RTVSPropertyOp45
 70
     1
102
RTVSPropertyOp46
 70
     1
102
RTVSPropertyOp47
 70
     1
102
RTVSPropertyOp48
 70
     1
102
RTVSPropertyOp49
 70
     1
102
RTVSPropertyOp50
 70
     1
102
RTVSPropertyOp51
 70
     0
102
RTVSPropertyOp52
 70
     0
102
RTVSPropertyOp53
 70
     1
102
RTVSPropertyOp54
 70
     1
102
RTVSPropertyOp55
 70
     1
102
RTVSPropertyOp56
 70
     1
102
RTVSPropertyOp57
 70
     1
102
RTVSPost2010Prop28
280
     0
102
RTVSPost2010PropOp28
 70
     1
102
RTVSPost2010Prop29
280
     1
102
RTVSPost2010PropOp29
 70
     1
102
RTVSPost2010Prop30
280
     1
102
RTVSPost2010PropOp30
 70
     1
102
RTVSPost2010Prop31
280
     0
102
RTVSPost2010PropOp31
 70
     1
102
RTVSPost2010Prop32
280
     0
102
RTVSPost2010PropOp32
 70
     1
102
RTVSPost2010Prop33
280
     0
102
RTVSPost2010PropOp33
 70
     1
102
RTVSPost2010Prop34
280
     0
102
RTVSPost2010PropOp34
 70
     1
102
RTVSPost2010Prop35
280
     0
102
RTVSPost2010PropOp35
 70
     1
102
RTVSPost2010Prop36
280
     0
102
RTVSPost2010PropOp36
 70
     1
102
RTVSPost2010Prop37
 90
       50
102
RTVSPost2010PropOp37
 70
     1
102
RTVSPost2010Prop38
140
0.0
102
RTVSPost2010PropOp38
 70
     1
102
RTVSPost2010Prop39
140
1.0
102
RTVSPost2010PropOp39
 70
     1
102
RTVSPost2010Prop40
 90
        0
102
RTVSPost2010PropOp40
 70
     1
102
RTVSPost2010Prop41ColorIndex
 90
       18
102
RTVSPost2010Prop41ColorRGB
 90
        0
102
RTVSPost2010PropOp41
 70
     1
102
RTVSPost2010Prop42
 90
       50
102
RTVSPost2010PropOp42
 70
     1
102
RTVSPost2010Prop43
 90
        3
102
RTVSPost2010PropOp43
 70
     1
102
RTVSPost2010Prop44ColorIndex
 90
        5
102
RTVSPost2010Prop44ColorRGB
 90
      255
102
RTVSPost2010PropOp44
 70
     1
102
RTVSPost2010Prop45
280
     0
102
RTVSPost2010PropOp45
 70
     1
102
RTVSPost2010Prop46
 90
       50
102
RTVSPost2010PropOp46
 70
     1
102
RTVSPost2010Prop47
 90
       50
102
RTVSPost2010PropOp47
 70
     1
102
RTVSPost2010Prop48
 90
       50
102
RTVSPost2010PropOp48
 70
     1
102
RTVSPost2010Prop49
280
     0
102
RTVSPost2010PropOp49
 70
     1
102
RTVSPost2010Prop50
 90
       50
102
RTVSPost2010PropOp50
 70
     1
102
RTVSPost2010Prop51ColorIndex
 90
      256
102
RTVSPost2010Prop51ColorRGB
 90
-16777216
102
RTVSPost2010PropOp51
 70
     0
102
RTVSPost2010Prop52
140
1.0
102
RTVSPost2010PropOp52
 70
     0
102
RTVSPost2010Prop53
 90
        2
102
RTVSPost2010PropOp53
 70
     1
102
RTVSPost2010Prop54
  1
strokes_ogs.tif
102
RTVSPost2010PropOp54
 70
     1
102
RTVSPost2010Prop55
280
     0
102
RTVSPost2010PropOp55
 70
     1
102
RTVSPost2010Prop56
140
1.0
102
RTVSPost2010PropOp56
 70
     1
102
RTVSPost2010Prop57
140
1.0
102
RTVSPost2010PropOp57
 70
     1
  0
XRECORD
  5
1FF
102
{ACAD_REACTORS
330
1FE
102
}
330
1FE
100
AcDbXrecord
280
     1
102
RTVSPropertyOp0
 70
     1
102
RTVSPropertyOp1
 70
     1
102
RTVSPropertyOp2
 70
     1
102
RTVSPropertyOp3
 70
     1
102
RTVSPropertyOp4
 70
     1
102
RTVSPropertyOp5
 70
     1
102
RTVSPropertyOp6
 70
     1
102
RTVSPropertyOp7
 70
     1
102
RTVSPropertyOp8
 70
     1
102
RTVSPropertyOp9
 70
     1
102
RTVSPropertyOp10
 70
     1
102
RTVSPropertyOp11
 70
     1
102
RTVSPropertyOp12
 70
     1
102
RTVSPropertyOp13
 70
     1
102
RTVSPropertyOp14
 70
     1
102
RTVSPropertyOp15
 70
     1
102
RTVSPropertyOp16
 70
     1
102
RTVSPropertyOp17
 70
     1
102
RTVSPropertyOp18
 70
     1
102
RTVSPropertyOp19
 70
     1
102
RTVSPropertyOp20
 70
     1
102
RTVSPropertyOp21
 70
     1
102
RTVSPropertyOp22
 70
     1
102
RTVSPropertyOp23
 70
     1
102
RTVSPropertyOp24
 70
     1
102
RTVSPropertyOp25
 70
     1
102
RTVSPropertyOp26
 70
     1
102
RTVSPropertyOp27
 70
     1
102
RTVSPropertyOp28
 70
     1
102
RTVSPropertyOp29
 70
     1
102
RTVSPropertyOp30
 70
     1
102
RTVSPropertyOp31
 70
     1
102
RTVSPropertyOp32
 70
     1
102
RTVSPropertyOp33
 70
     1
102
RTVSPropertyOp34
 70
     1
102
RTVSPropertyOp35
 70
     1
102
RTVSPropertyOp36
 70
     1
102
RTVSPropertyOp37
 70
     1
102
RTVSPropertyOp38
 70
     1
102
RTVSPropertyOp39
 70
     1
102
RTVSPropertyOp40
 70
     1
102
RTVSPropertyOp41
 70
     1
102
RTVSPropertyOp42
 70
     1
102
RTVSPropertyOp43
 70
     1
102
RTVSPropertyOp44
 70
     1
102
RTVSPropertyOp45
 70
     1
102
RTVSPropertyOp46
 70
     1
102
RTVSPropertyOp47
 70
     1
102
RTVSPropertyOp48
 70
     1
102
RTVSPropertyOp49
 70
     1
102
RTVSPropertyOp50
 70
     1
102
RTVSPropertyOp51
 70
     0
102
RTVSPropertyOp52
 70
     0
102
RTVSPropertyOp53
 70
     1
102
RTVSPropertyOp54
 70
     1
102
RTVSPropertyOp55
 70
     1
102
RTVSPropertyOp56
 70
     1
102
RTVSPropertyOp57
 70
     1
102
RTVSPost2010Prop28
280
     0
102
RTVSPost2010PropOp28
 70
     1
102
RTVSPost2010Prop29
280
     1
102
RTVSPost2010PropOp29
 70
     1
102
RTVSPost2010Prop30
280
     1
102
RTVSPost2010PropOp30
 70
     1
102
RTVSPost2010Prop31
280
     0
102
RTVSPost2010PropOp31
 70
     1
102
RTVSPost2010Prop32
280
     0
102
RTVSPost2010PropOp32
 70
     1
102
RTVSPost2010Prop33
280
     0
102
RTVSPost2010PropOp33
 70
     1
102
RTVSPost2010Prop34
280
     0
102
RTVSPost2010PropOp34
 70
     1
102
RTVSPost2010Prop35
280
     0
102
RTVSPost2010PropOp35
 70
     1
102
RTVSPost2010Prop36
280
     0
102
RTVSPost2010PropOp36
 70
     1
102
RTVSPost2010Prop37
 90
       50
102
RTVSPost2010PropOp37
 70
     1
102
RTVSPost2010Prop38
140
0.0
102
RTVSPost2010PropOp38
 70
     1
102
RTVSPost2010Prop39
140
1.0
102
RTVSPost2010PropOp39
 70
     1
102
RTVSPost2010Prop40
 90
        0
102
RTVSPost2010PropOp40
 70
     1
102
RTVSPost2010Prop41ColorIndex
 90
       18
102
RTVSPost2010Prop41ColorRGB
 90
        0
102
RTVSPost2010PropOp41
 70
     1
102
RTVSPost2010Prop42
 90
       50
102
RTVSPost2010PropOp42
 70
     1
102
RTVSPost2010Prop43
 90
        3
102
RTVSPost2010PropOp43
 70
     1
102
RTVSPost2010Prop44ColorIndex
 90
        5
102
RTVSPost2010Prop44ColorRGB
 90
      255
102
RTVSPost2010PropOp44
 70
     1
102
RTVSPost2010Prop45
280
     0
102
RTVSPost2010PropOp45
 70
     1
102
RTVSPost2010Prop46
 90
       50
102
RTVSPost2010PropOp46
 70
     1
102
RTVSPost2010Prop47
 90
       50
102
RTVSPost2010PropOp47
 70
     1
102
RTVSPost2010Prop48
 90
       50
102
RTVSPost2010PropOp48
 70
     1
102
RTVSPost2010Prop49
280
     0
102
RTVSPost2010PropOp49
 70
     1
102
RTVSPost2010Prop50
 90
       50
102
RTVSPost2010PropOp50
 70
     1
102
RTVSPost2010Prop51ColorIndex
 90
      256
102
RTVSPost2010Prop51ColorRGB
 90
-16777216
102
RTVSPost2010PropOp51
 70
     0
102
RTVSPost2010Prop52
140
1.0
102
RTVSPost2010PropOp52
 70
     0
102
RTVSPost2010Prop53
 90
        2
102
RTVSPost2010PropOp53
 70
     1
102
RTVSPost2010Prop54
  1
strokes_ogs.tif
102
RTVSPost2010PropOp54
 70
     1
102
RTVSPost2010Prop55
280
     0
102
RTVSPost2010PropOp55
 70
     1
102
RTVSPost2010Prop56
140
1.0
102
RTVSPost2010PropOp56
 70
     1
102
RTVSPost2010Prop57
140
1.0
102
RTVSPost2010PropOp57
 70
     1
  0
XRECORD
  5
201
102
{ACAD_REACTORS
330
200
102
}
330
200
100
AcDbXrecord
280
     1
102
RTVSPropertyOp0
 70
     1
102
RTVSPropertyOp1
 70
     1
102
RTVSPropertyOp2
 70
     1
102
RTVSPropertyOp3
 70
     1
102
RTVSPropertyOp4
 70
     1
102
RTVSPropertyOp5
 70
     1
102
RTVSPropertyOp6
 70
     1
102
RTVSPropertyOp7
 70
     1
102
RTVSPropertyOp8
 70
     1
102
RTVSPropertyOp9
 70
     1
102
RTVSPropertyOp10
 70
     1
102
RTVSPropertyOp11
 70
     1
102
RTVSPropertyOp12
 70
     1
102
RTVSPropertyOp13
 70
     1
102
RTVSPropertyOp14
 70
     1
102
RTVSPropertyOp15
 70
     1
102
RTVSPropertyOp16
 70
     1
102
RTVSPropertyOp17
 70
     1
102
RTVSPropertyOp18
 70
     1
102
RTVSPropertyOp19
 70
     1
102
RTVSPropertyOp20
 70
     1
102
RTVSPropertyOp21
 70
     1
102
RTVSPropertyOp22
 70
     1
102
RTVSPropertyOp23
 70
     1
102
RTVSPropertyOp24
 70
     1
102
RTVSPropertyOp25
 70
     1
102
RTVSPropertyOp26
 70
     1
102
RTVSPropertyOp27
 70
     1
102
RTVSPropertyOp28
 70
     1
102
RTVSPropertyOp29
 70
     1
102
RTVSPropertyOp30
 70
     1
102
RTVSPropertyOp31
 70
     1
102
RTVSPropertyOp32
 70
     1
102
RTVSPropertyOp33
 70
     1
102
RTVSPropertyOp34
 70
     1
102
RTVSPropertyOp35
 70
     1
102
RTVSPropertyOp36
 70
     1
102
RTVSPropertyOp37
 70
     1
102
RTVSPropertyOp38
 70
     1
102
RTVSPropertyOp39
 70
     1
102
RTVSPropertyOp40
 70
     1
102
RTVSPropertyOp41
 70
     1
102
RTVSPropertyOp42
 70
     1
102
RTVSPropertyOp43
 70
     1
102
RTVSPropertyOp44
 70
     1
102
RTVSPropertyOp45
 70
     1
102
RTVSPropertyOp46
 70
     1
102
RTVSPropertyOp47
 70
     1
102
RTVSPropertyOp48
 70
     1
102
RTVSPropertyOp49
 70
     1
102
RTVSPropertyOp50
 70
     1
102
RTVSPropertyOp51
 70
     0
102
RTVSPropertyOp52
 70
     0
102
RTVSPropertyOp53
 70
     1
102
RTVSPropertyOp54
 70
     1
102
RTVSPropertyOp55
 70
     1
102
RTVSPropertyOp56
 70
     1
102
RTVSPropertyOp57
 70
     1
102
RTVSPost2010Prop28
280
     0
102
RTVSPost2010PropOp28
 70
     1
102
RTVSPost2010Prop29
280
     1
102
RTVSPost2010PropOp29
 70
     1
102
RTVSPost2010Prop30
280
     1
102
RTVSPost2010PropOp30
 70
     1
102
RTVSPost2010Prop31
280
     0
102
RTVSPost2010PropOp31
 70
     1
102
RTVSPost2010Prop32
280
     0
102
RTVSPost2010PropOp32
 70
     1
102
RTVSPost2010Prop33
280
     0
102
RTVSPost2010PropOp33
 70
     1
102
RTVSPost2010Prop34
280
     0
102
RTVSPost2010PropOp34
 70
     1
102
RTVSPost2010Prop35
280
     0
102
RTVSPost2010PropOp35
 70
     1
102
RTVSPost2010Prop36
280
     0
102
RTVSPost2010PropOp36
 70
     1
102
RTVSPost2010Prop37
 90
       50
102
RTVSPost2010PropOp37
 70
     1
102
RTVSPost2010Prop38
140
0.0
102
RTVSPost2010PropOp38
 70
     1
102
RTVSPost2010Prop39
140
1.0
102
RTVSPost2010PropOp39
 70
     1
102
RTVSPost2010Prop40
 90
        0
102
RTVSPost2010PropOp40
 70
     1
102
RTVSPost2010Prop41ColorIndex
 90
       18
102
RTVSPost2010Prop41ColorRGB
 90
        0
102
RTVSPost2010PropOp41
 70
     1
102
RTVSPost2010Prop42
 90
       50
102
RTVSPost2010PropOp42
 70
     1
102
RTVSPost2010Prop43
 90
        3
102
RTVSPost2010PropOp43
 70
     1
102
RTVSPost2010Prop44ColorIndex
 90
        5
102
RTVSPost2010Prop44ColorRGB
 90
      255
102
RTVSPost2010PropOp44
 70
     1
102
RTVSPost2010Prop45
280
     0
102
RTVSPost2010PropOp45
 70
     1
102
RTVSPost2010Prop46
 90
       50
102
RTVSPost2010PropOp46
 70
     1
102
RTVSPost2010Prop47
 90
       50
102
RTVSPost2010PropOp47
 70
     1
102
RTVSPost2010Prop48
 90
       50
102
RTVSPost2010PropOp48
 70
     1
102
RTVSPost2010Prop49
280
     0
102
RTVSPost2010PropOp49
 70
     1
102
RTVSPost2010Prop50
 90
       50
102
RTVSPost2010PropOp50
 70
     1
102
RTVSPost2010Prop51ColorIndex
 90
      256
102
RTVSPost2010Prop51ColorRGB
 90
-16777216
102
RTVSPost2010PropOp51
 70
     0
102
RTVSPost2010Prop52
140
1.0
102
RTVSPost2010PropOp52
 70
     0
102
RTVSPost2010Prop53
 90
        2
102
RTVSPost2010PropOp53
 70
     1
102
RTVSPost2010Prop54
  1
strokes_ogs.tif
102
RTVSPost2010PropOp54
 70
     1
102
RTVSPost2010Prop55
280
     0
102
RTVSPost2010PropOp55
 70
     1
102
RTVSPost2010Prop56
140
1.0
102
RTVSPost2010PropOp56
 70
     1
102
RTVSPost2010Prop57
140
1.0
102
RTVSPost2010PropOp57
 70
     1
  0
XRECORD
  5
203
102
{ACAD_REACTORS
330
202
102
}
330
202
100
AcDbXrecord
280
     1
102
RTVSPropertyOp0
 70
     1
102
RTVSPropertyOp1
 70
     1
102
RTVSPropertyOp2
 70
     1
102
RTVSPropertyOp3
 70
     1
102
RTVSPropertyOp4
 70
     1
102
RTVSPropertyOp5
 70
     1
102
RTVSPropertyOp6
 70
     1
102
RTVSPropertyOp7
 70
     1
102
RTVSPropertyOp8
 70
     1
102
RTVSPropertyOp9
 70
     1
102
RTVSPropertyOp10
 70
     1
102
RTVSPropertyOp11
 70
     1
102
RTVSPropertyOp12
 70
     1
102
RTVSPropertyOp13
 70
     1
102
RTVSPropertyOp14
 70
     1
102
RTVSPropertyOp15
 70
     1
102
RTVSPropertyOp16
 70
     1
102
RTVSPropertyOp17
 70
     1
102
RTVSPropertyOp18
 70
     1
102
RTVSPropertyOp19
 70
     1
102
RTVSPropertyOp20
 70
     1
102
RTVSPropertyOp21
 70
     1
102
RTVSPropertyOp22
 70
     1
102
RTVSPropertyOp23
 70
     1
102
RTVSPropertyOp24
 70
     1
102
RTVSPropertyOp25
 70
     1
102
RTVSPropertyOp26
 70
     1
102
RTVSPropertyOp27
 70
     1
102
RTVSPropertyOp28
 70
     1
102
RTVSPropertyOp29
 70
     1
102
RTVSPropertyOp30
 70
     1
102
RTVSPropertyOp31
 70
     1
102
RTVSPropertyOp32
 70
     1
102
RTVSPropertyOp33
 70
     1
102
RTVSPropertyOp34
 70
     1
102
RTVSPropertyOp35
 70
     1
102
RTVSPropertyOp36
 70
     1
102
RTVSPropertyOp37
 70
     1
102
RTVSPropertyOp38
 70
     1
102
RTVSPropertyOp39
 70
     1
102
RTVSPropertyOp40
 70
     1
102
RTVSPropertyOp41
 70
     1
102
RTVSPropertyOp42
 70
     1
102
RTVSPropertyOp43
 70
     1
102
RTVSPropertyOp44
 70
     1
102
RTVSPropertyOp45
 70
     1
102
RTVSPropertyOp46
 70
     1
102
RTVSPropertyOp47
 70
     1
102
RTVSPropertyOp48
 70
     1
102
RTVSPropertyOp49
 70
     1
102
RTVSPropertyOp50
 70
     1
102
RTVSPropertyOp51
 70
     0
102
RTVSPropertyOp52
 70
     0
102
RTVSPropertyOp53
 70
     1
102
RTVSPropertyOp54
 70
     1
102
RTVSPropertyOp55
 70
     1
102
RTVSPropertyOp56
 70
     1
102
RTVSPropertyOp57
 70
     1
102
RTVSPost2010Prop28
280
     0
102
RTVSPost2010PropOp28
 70
     1
102
RTVSPost2010Prop29
280
     1
102
RTVSPost2010PropOp29
 70
     1
102
RTVSPost2010Prop30
280
     1
102
RTVSPost2010PropOp30
 70
     1
102
RTVSPost2010Prop31
280
     0
102
RTVSPost2010PropOp31
 70
     1
102
RTVSPost2010Prop32
280
     0
102
RTVSPost2010PropOp32
 70
     1
102
RTVSPost2010Prop33
280
     0
102
RTVSPost2010PropOp33
 70
     1
102
RTVSPost2010Prop34
280
     0
102
RTVSPost2010PropOp34
 70
     1
102
RTVSPost2010Prop35
280
     0
102
RTVSPost2010PropOp35
 70
     1
102
RTVSPost2010Prop36
280
     0
102
RTVSPost2010PropOp36
 70
     1
102
RTVSPost2010Prop37
 90
       50
102
RTVSPost2010PropOp37
 70
     1
102
RTVSPost2010Prop38
140
0.0
102
RTVSPost2010PropOp38
 70
     1
102
RTVSPost2010Prop39
140
1.0
102
RTVSPost2010PropOp39
 70
     1
102
RTVSPost2010Prop40
 90
        0
102
RTVSPost2010PropOp40
 70
     1
102
RTVSPost2010Prop41ColorIndex
 90
       18
102
RTVSPost2010Prop41ColorRGB
 90
        0
102
RTVSPost2010PropOp41
 70
     1
102
RTVSPost2010Prop42
 90
       50
102
RTVSPost2010PropOp42
 70
     1
102
RTVSPost2010Prop43
 90
        3
102
RTVSPost2010PropOp43
 70
     1
102
RTVSPost2010Prop44ColorIndex
 90
        5
102
RTVSPost2010Prop44ColorRGB
 90
      255
102
RTVSPost2010PropOp44
 70
     1
102
RTVSPost2010Prop45
280
     0
102
RTVSPost2010PropOp45
 70
     1
102
RTVSPost2010Prop46
 90
       50
102
RTVSPost2010PropOp46
 70
     1
102
RTVSPost2010Prop47
 90
       50
102
RTVSPost2010PropOp47
 70
     1
102
RTVSPost2010Prop48
 90
       50
102
RTVSPost2010PropOp48
 70
     1
102
RTVSPost2010Prop49
280
     0
102
RTVSPost2010PropOp49
 70
     1
102
RTVSPost2010Prop50
 90
       50
102
RTVSPost2010PropOp50
 70
     1
102
RTVSPost2010Prop51ColorIndex
 90
      256
102
RTVSPost2010Prop51ColorRGB
 90
-16777216
102
RTVSPost2010PropOp51
 70
     0
102
RTVSPost2010Prop52
140
1.0
102
RTVSPost2010PropOp52
 70
     0
102
RTVSPost2010Prop53
 90
        2
102
RTVSPost2010PropOp53
 70
     1
102
RTVSPost2010Prop54
  1
strokes_ogs.tif
102
RTVSPost2010PropOp54
 70
     1
102
RTVSPost2010Prop55
280
     0
102
RTVSPost2010PropOp55
 70
     1
102
RTVSPost2010Prop56
140
1.0
102
RTVSPost2010PropOp56
 70
     1
102
RTVSPost2010Prop57
140
1.0
102
RTVSPost2010PropOp57
 70
     1
  0
XRECORD
  5
209
102
{ACAD_REACTORS
330
208
102
}
330
208
100
AcDbXrecord
280
     1
102
RTVSPropertyOp0
 70
     1
102
RTVSPropertyOp1
 70
     1
102
RTVSPropertyOp2
 70
     1
102
RTVSPropertyOp3
 70
     1
102
RTVSPropertyOp4
 70
     1
102
RTVSPropertyOp5
 70
     1
102
RTVSPropertyOp6
 70
     1
102
RTVSPropertyOp7
 70
     1
102
RTVSPropertyOp8
 70
     1
102
RTVSPropertyOp9
 70
     1
102
RTVSPropertyOp10
 70
     1
102
RTVSPropertyOp11
 70
     1
102
RTVSPropertyOp12
 70
     1
102
RTVSPropertyOp13
 70
     1
102
RTVSPropertyOp14
 70
     1
102
RTVSPropertyOp15
 70
     1
102
RTVSPropertyOp16
 70
     1
102
RTVSPropertyOp17
 70
     1
102
RTVSPropertyOp18
 70
     1
102
RTVSPropertyOp19
 70
     1
102
RTVSPropertyOp20
 70
     1
102
RTVSPropertyOp21
 70
     1
102
RTVSPropertyOp22
 70
     1
102
RTVSPropertyOp23
 70
     1
102
RTVSPropertyOp24
 70
     1
102
RTVSPropertyOp25
 70
     1
102
RTVSPropertyOp26
 70
     1
102
RTVSPropertyOp27
 70
     1
102
RTVSPropertyOp28
 70
     1
102
RTVSPropertyOp29
 70
     1
102
RTVSPropertyOp30
 70
     1
102
RTVSPropertyOp31
 70
     1
102
RTVSPropertyOp32
 70
     1
102
RTVSPropertyOp33
 70
     1
102
RTVSPropertyOp34
 70
     1
102
RTVSPropertyOp35
 70
     1
102
RTVSPropertyOp36
 70
     1
102
RTVSPropertyOp37
 70
     1
102
RTVSPropertyOp38
 70
     1
102
RTVSPropertyOp39
 70
     1
102
RTVSPropertyOp40
 70
     1
102
RTVSPropertyOp41
 70
     1
102
RTVSPropertyOp42
 70
     1
102
RTVSPropertyOp43
 70
     1
102
RTVSPropertyOp44
 70
     1
102
RTVSPropertyOp45
 70
     1
102
RTVSPropertyOp46
 70
     1
102
RTVSPropertyOp47
 70
     1
102
RTVSPropertyOp48
 70
     1
102
RTVSPropertyOp49
 70
     1
102
RTVSPropertyOp50
 70
     1
102
RTVSPropertyOp51
 70
     0
102
RTVSPropertyOp52
 70
     0
102
RTVSPropertyOp53
 70
     1
102
RTVSPropertyOp54
 70
     1
102
RTVSPropertyOp55
 70
     1
102
RTVSPropertyOp56
 70
     1
102
RTVSPropertyOp57
 70
     1
102
RTVSPost2010Prop28
280
     0
102
RTVSPost2010PropOp28
 70
     1
102
RTVSPost2010Prop29
280
     1
102
RTVSPost2010PropOp29
 70
     1
102
RTVSPost2010Prop30
280
     1
102
RTVSPost2010PropOp30
 70
     1
102
RTVSPost2010Prop31
280
     0
102
RTVSPost2010PropOp31
 70
     1
102
RTVSPost2010Prop32
280
     0
102
RTVSPost2010PropOp32
 70
     1
102
RTVSPost2010Prop33
280
     0
102
RTVSPost2010PropOp33
 70
     1
102
RTVSPost2010Prop34
280
     0
102
RTVSPost2010PropOp34
 70
     1
102
RTVSPost2010Prop35
280
     0
102
RTVSPost2010PropOp35
 70
     1
102
RTVSPost2010Prop36
280
     0
102
RTVSPost2010PropOp36
 70
     1
102
RTVSPost2010Prop37
 90
       50
102
RTVSPost2010PropOp37
 70
     1
102
RTVSPost2010Prop38
140
0.0
102
RTVSPost2010PropOp38
 70
     1
102
RTVSPost2010Prop39
140
1.0
102
RTVSPost2010PropOp39
 70
     1
102
RTVSPost2010Prop40
 90
        0
102
RTVSPost2010PropOp40
 70
     1
102
RTVSPost2010Prop41ColorIndex
 90
       18
102
RTVSPost2010Prop41ColorRGB
 90
        0
102
RTVSPost2010PropOp41
 70
     1
102
RTVSPost2010Prop42
 90
       50
102
RTVSPost2010PropOp42
 70
     1
102
RTVSPost2010Prop43
 90
        3
102
RTVSPost2010PropOp43
 70
     1
102
RTVSPost2010Prop44ColorIndex
 90
        5
102
RTVSPost2010Prop44ColorRGB
 90
      255
102
RTVSPost2010PropOp44
 70
     1
102
RTVSPost2010Prop45
280
     0
102
RTVSPost2010PropOp45
 70
     1
102
RTVSPost2010Prop46
 90
       50
102
RTVSPost2010PropOp46
 70
     1
102
RTVSPost2010Prop47
 90
       50
102
RTVSPost2010PropOp47
 70
     1
102
RTVSPost2010Prop48
 90
       50
102
RTVSPost2010PropOp48
 70
     1
102
RTVSPost2010Prop49
280
     0
102
RTVSPost2010PropOp49
 70
     1
102
RTVSPost2010Prop50
 90
       50
102
RTVSPost2010PropOp50
 70
     1
102
RTVSPost2010Prop51ColorIndex
 90
      256
102
RTVSPost2010Prop51ColorRGB
 90
-16777216
102
RTVSPost2010PropOp51
 70
     0
102
RTVSPost2010Prop52
140
1.0
102
RTVSPost2010PropOp52
 70
     0
102
RTVSPost2010Prop53
 90
        2
102
RTVSPost2010PropOp53
 70
     1
102
RTVSPost2010Prop54
  1
strokes_ogs.tif
102
RTVSPost2010PropOp54
 70
     1
102
RTVSPost2010Prop55
280
     0
102
RTVSPost2010PropOp55
 70
     1
102
RTVSPost2010Prop56
140
1.0
102
RTVSPost2010PropOp56
 70
     1
102
RTVSPost2010Prop57
140
1.0
102
RTVSPost2010PropOp57
 70
     1
  0
XRECORD
  5
21D
102
{ACAD_REACTORS
330
21C
102
}
330
21C
100
AcDbXrecord
280
     1
102
RTVSPropertyOp0
 70
     0
102
RTVSPropertyOp1
 70
     0
102
RTVSPropertyOp2
 70
     0
102
RTVSPropertyOp3
 70
     0
102
RTVSPropertyOp4
 70
     0
102
RTVSPropertyOp5
 70
     0
102
RTVSPropertyOp6
 70
     0
102
RTVSPropertyOp7
 70
     0
102
RTVSPropertyOp8
 70
     0
102
RTVSPropertyOp9
 70
     0
102
RTVSPropertyOp10
 70
     0
102
RTVSPropertyOp11
 70
     0
102
RTVSPropertyOp12
 70
     0
102
RTVSPropertyOp13
 70
     0
102
RTVSPropertyOp14
 70
     2
102
RTVSPropertyOp15
 70
     0
102
RTVSPropertyOp16
 70
     0
102
RTVSPropertyOp17
 70
     0
102
RTVSPropertyOp18
 70
     0
102
RTVSPropertyOp19
 70
     0
102
RTVSPropertyOp20
 70
     0
102
RTVSPropertyOp21
 70
     0
102
RTVSPropertyOp22
 70
     0
102
RTVSPropertyOp23
 70
     0
102
RTVSPropertyOp24
 70
     0
102
RTVSPropertyOp25
 70
     0
102
RTVSPropertyOp26
 70
     0
102
RTVSPropertyOp27
 70
     0
102
RTVSPropertyOp28
 70
     0
102
RTVSPropertyOp29
 70
     0
102
RTVSPropertyOp30
 70
     0
102
RTVSPropertyOp31
 70
     0
102
RTVSPropertyOp32
 70
     0
102
RTVSPropertyOp33
 70
     0
102
RTVSPropertyOp34
 70
     0
102
RTVSPropertyOp35
 70
     0
102
RTVSPropertyOp36
 70
     0
102
RTVSPropertyOp37
 70
     0
102
RTVSPropertyOp38
 70
     0
102
RTVSPropertyOp39
 70
     0
102
RTVSPropertyOp40
 70
     0
102
RTVSPropertyOp41
 70
     0
102
RTVSPropertyOp42
 70
     0
102
RTVSPropertyOp43
 70
     0
102
RTVSPropertyOp44
 70
     0
102
RTVSPropertyOp45
 70
     0
102
RTVSPropertyOp46
 70
     0
102
RTVSPropertyOp47
 70
     0
102
RTVSPropertyOp48
 70
     0
102
RTVSPropertyOp49
 70
     0
102
RTVSPropertyOp50
 70
     0
102
RTVSPropertyOp51
 70
     0
102
RTVSPropertyOp52
 70
     0
102
RTVSPropertyOp53
 70
     0
102
RTVSPropertyOp54
 70
     0
102
RTVSPropertyOp55
 70
     0
102
RTVSPropertyOp56
 70
     0
102
RTVSPropertyOp57
 70
     0
102
RTVSPost2010Prop28
280
     0
102
RTVSPost2010PropOp28
 70
     0
102
RTVSPost2010Prop29
280
     1
102
RTVSPost2010PropOp29
 70
     0
102
RTVSPost2010Prop30
280
     1
102
RTVSPost2010PropOp30
 70
     0
102
RTVSPost2010Prop31
280
     0
102
RTVSPost2010PropOp31
 70
     0
102
RTVSPost2010Prop32
280
     0
102
RTVSPost2010PropOp32
 70
     0
102
RTVSPost2010Prop33
280
     0
102
RTVSPost2010PropOp33
 70
     0
102
RTVSPost2010Prop34
280
     0
102
RTVSPost2010PropOp34
 70
     0
102
RTVSPost2010Prop35
280
     0
102
RTVSPost2010PropOp35
 70
     0
102
RTVSPost2010Prop36
280
     0
102
RTVSPost2010PropOp36
 70
     0
102
RTVSPost2010Prop37
 90
       50
102
RTVSPost2010PropOp37
 70
     0
102
RTVSPost2010Prop38
140
0.0
102
RTVSPost2010PropOp38
 70
     0
102
RTVSPost2010Prop39
140
1.0
102
RTVSPost2010PropOp39
 70
     0
102
RTVSPost2010Prop40
 90
        0
102
RTVSPost2010PropOp40
 70
     0
102
RTVSPost2010Prop41ColorIndex
 90
       18
102
RTVSPost2010Prop41ColorRGB
 90
        0
102
RTVSPost2010PropOp41
 70
     0
102
RTVSPost2010Prop42
 90
       50
102
RTVSPost2010PropOp42
 70
     0
102
RTVSPost2010Prop43
 90
        3
102
RTVSPost2010PropOp43
 70
     0
102
RTVSPost2010Prop44ColorIndex
 90
        5
102
RTVSPost2010Prop44ColorRGB
 90
      255
102
RTVSPost2010PropOp44
 70
     0
102
RTVSPost2010Prop45
280
     0
102
RTVSPost2010PropOp45
 70
     0
102
RTVSPost2010Prop46
 90
       50
102
RTVSPost2010PropOp46
 70
     0
102
RTVSPost2010Prop47
 90
       50
102
RTVSPost2010PropOp47
 70
     0
102
RTVSPost2010Prop48
 90
       50
102
RTVSPost2010PropOp48
 70
     0
102
RTVSPost2010Prop49
280
     0
102
RTVSPost2010PropOp49
 70
     0
102
RTVSPost2010Prop50
 90
       50
102
RTVSPost2010PropOp50
 70
     0
102
RTVSPost2010Prop51ColorIndex
 90
      256
102
RTVSPost2010Prop51ColorRGB
 90
-16777216
102
RTVSPost2010PropOp51
 70
     0
102
RTVSPost2010Prop52
140
1.0
102
RTVSPost2010PropOp52
 70
     0
102
RTVSPost2010Prop53
 90
        2
102
RTVSPost2010PropOp53
 70
     0
102
RTVSPost2010Prop54
  1
strokes_ogs.tif
102
RTVSPost2010PropOp54
 70
     0
102
RTVSPost2010Prop55
280
     0
102
RTVSPost2010PropOp55
 70
     0
102
RTVSPost2010Prop56
140
1.0
102
RTVSPost2010PropOp56
 70
     0
102
RTVSPost2010Prop57
140
1.0
102
RTVSPost2010PropOp57
 70
     0
  0
XRECORD
  5
217
102
{ACAD_REACTORS
330
216
102
}
330
216
100
AcDbXrecord
280
     1
102
RTVSPropertyOp0
 70
     1
102
RTVSPropertyOp1
 70
     1
102
RTVSPropertyOp2
 70
     1
102
RTVSPropertyOp3
 70
     1
102
RTVSPropertyOp4
 70
     1
102
RTVSPropertyOp5
 70
     1
102
RTVSPropertyOp6
 70
     1
102
RTVSPropertyOp7
 70
     1
102
RTVSPropertyOp8
 70
     1
102
RTVSPropertyOp9
 70
     1
102
RTVSPropertyOp10
 70
     1
102
RTVSPropertyOp11
 70
     1
102
RTVSPropertyOp12
 70
     1
102
RTVSPropertyOp13
 70
     1
102
RTVSPropertyOp14
 70
     1
102
RTVSPropertyOp15
 70
     1
102
RTVSPropertyOp16
 70
     1
102
RTVSPropertyOp17
 70
     1
102
RTVSPropertyOp18
 70
     1
102
RTVSPropertyOp19
 70
     1
102
RTVSPropertyOp20
 70
     1
102
RTVSPropertyOp21
 70
     1
102
RTVSPropertyOp22
 70
     1
102
RTVSPropertyOp23
 70
     1
102
RTVSPropertyOp24
 70
     1
102
RTVSPropertyOp25
 70
     1
102
RTVSPropertyOp26
 70
     1
102
RTVSPropertyOp27
 70
     1
102
RTVSPropertyOp28
 70
     1
102
RTVSPropertyOp29
 70
     1
102
RTVSPropertyOp30
 70
     1
102
RTVSPropertyOp31
 70
     1
102
RTVSPropertyOp32
 70
     1
102
RTVSPropertyOp33
 70
     1
102
RTVSPropertyOp34
 70
     1
102
RTVSPropertyOp35
 70
     1
102
RTVSPropertyOp36
 70
     1
102
RTVSPropertyOp37
 70
     1
102
RTVSPropertyOp38
 70
     1
102
RTVSPropertyOp39
 70
     1
102
RTVSPropertyOp40
 70
     1
102
RTVSPropertyOp41
 70
     1
102
RTVSPropertyOp42
 70
     1
102
RTVSPropertyOp43
 70
     1
102
RTVSPropertyOp44
 70
     1
102
RTVSPropertyOp45
 70
     1
102
RTVSPropertyOp46
 70
     1
102
RTVSPropertyOp47
 70
     1
102
RTVSPropertyOp48
 70
     1
102
RTVSPropertyOp49
 70
     1
102
RTVSPropertyOp50
 70
     1
102
RTVSPropertyOp51
 70
     0
102
RTVSPropertyOp52
 70
     0
102
RTVSPropertyOp53
 70
     1
102
RTVSPropertyOp54
 70
     1
102
RTVSPropertyOp55
 70
     1
102
RTVSPropertyOp56
 70
     1
102
RTVSPropertyOp57
 70
     1
102
RTVSPost2010Prop28
280
     0
102
RTVSPost2010PropOp28
 70
     1
102
RTVSPost2010Prop29
280
     1
102
RTVSPost2010PropOp29
 70
     1
102
RTVSPost2010Prop30
280
     1
102
RTVSPost2010PropOp30
 70
     1
102
RTVSPost2010Prop31
280
     0
102
RTVSPost2010PropOp31
 70
     1
102
RTVSPost2010Prop32
280
     0
102
RTVSPost2010PropOp32
 70
     1
102
RTVSPost2010Prop33
280
     0
102
RTVSPost2010PropOp33
 70
     1
102
RTVSPost2010Prop34
280
     0
102
RTVSPost2010PropOp34
 70
     1
102
RTVSPost2010Prop35
280
     0
102
RTVSPost2010PropOp35
 70
     1
102
RTVSPost2010Prop36
280
     0
102
RTVSPost2010PropOp36
 70
     1
102
RTVSPost2010Prop37
 90
       50
102
RTVSPost2010PropOp37
 70
     1
102
RTVSPost2010Prop38
140
0.0
102
RTVSPost2010PropOp38
 70
     1
102
RTVSPost2010Prop39
140
1.0
102
RTVSPost2010PropOp39
 70
     1
102
RTVSPost2010Prop40
 90
        0
102
RTVSPost2010PropOp40
 70
     1
102
RTVSPost2010Prop41ColorIndex
 90
       18
102
RTVSPost2010Prop41ColorRGB
 90
        0
102
RTVSPost2010PropOp41
 70
     1
102
RTVSPost2010Prop42
 90
       50
102
RTVSPost2010PropOp42
 70
     1
102
RTVSPost2010Prop43
 90
        3
102
RTVSPost2010PropOp43
 70
     1
102
RTVSPost2010Prop44ColorIndex
 90
        5
102
RTVSPost2010Prop44ColorRGB
 90
      255
102
RTVSPost2010PropOp44
 70
     1
102
RTVSPost2010Prop45
280
     0
102
RTVSPost2010PropOp45
 70
     1
102
RTVSPost2010Prop46
 90
       50
102
RTVSPost2010PropOp46
 70
     1
102
RTVSPost2010Prop47
 90
       50
102
RTVSPost2010PropOp47
 70
     1
102
RTVSPost2010Prop48
 90
       50
102
RTVSPost2010PropOp48
 70
     1
102
RTVSPost2010Prop49
280
     0
102
RTVSPost2010PropOp49
 70
     1
102
RTVSPost2010Prop50
 90
       50
102
RTVSPost2010PropOp50
 70
     1
102
RTVSPost2010Prop51ColorIndex
 90
      256
102
RTVSPost2010Prop51ColorRGB
 90
-16777216
102
RTVSPost2010PropOp51
 70
     0
102
RTVSPost2010Prop52
140
1.0
102
RTVSPost2010PropOp52
 70
     0
102
RTVSPost2010Prop53
 90
        2
102
RTVSPost2010PropOp53
 70
     1
102
RTVSPost2010Prop54
  1
strokes_ogs.tif
102
RTVSPost2010PropOp54
 70
     1
102
RTVSPost2010Prop55
280
     0
102
RTVSPost2010PropOp55
 70
     1
102
RTVSPost2010Prop56
140
1.0
102
RTVSPost2010PropOp56
 70
     1
102
RTVSPost2010Prop57
140
1.0
102
RTVSPost2010PropOp57
 70
     1
  0
XRECORD
  5
21F
102
{ACAD_REACTORS
330
21E
102
}
330
21E
100
AcDbXrecord
280
     1
102
RTVSPropertyOp0
 70
     0
102
RTVSPropertyOp1
 70
     0
102
RTVSPropertyOp2
 70
     0
102
RTVSPropertyOp3
 70
     0
102
RTVSPropertyOp4
 70
     0
102
RTVSPropertyOp5
 70
     0
102
RTVSPropertyOp6
 70
     0
102
RTVSPropertyOp7
 70
     0
102
RTVSPropertyOp8
 70
     0
102
RTVSPropertyOp9
 70
     0
102
RTVSPropertyOp10
 70
     0
102
RTVSPropertyOp11
 70
     0
102
RTVSPropertyOp12
 70
     0
102
RTVSPropertyOp13
 70
     0
102
RTVSPropertyOp14
 70
     2
102
RTVSPropertyOp15
 70
     0
102
RTVSPropertyOp16
 70
     0
102
RTVSPropertyOp17
 70
     0
102
RTVSPropertyOp18
 70
     0
102
RTVSPropertyOp19
 70
     0
102
RTVSPropertyOp20
 70
     0
102
RTVSPropertyOp21
 70
     0
102
RTVSPropertyOp22
 70
     0
102
RTVSPropertyOp23
 70
     0
102
RTVSPropertyOp24
 70
     0
102
RTVSPropertyOp25
 70
     0
102
RTVSPropertyOp26
 70
     0
102
RTVSPropertyOp27
 70
     0
102
RTVSPropertyOp28
 70
     0
102
RTVSPropertyOp29
 70
     0
102
RTVSPropertyOp30
 70
     0
102
RTVSPropertyOp31
 70
     0
102
RTVSPropertyOp32
 70
     0
102
RTVSPropertyOp33
 70
     0
102
RTVSPropertyOp34
 70
     0
102
RTVSPropertyOp35
 70
     0
102
RTVSPropertyOp36
 70
     0
102
RTVSPropertyOp37
 70
     0
102
RTVSPropertyOp38
 70
     0
102
RTVSPropertyOp39
 70
     0
102
RTVSPropertyOp40
 70
     0
102
RTVSPropertyOp41
 70
     0
102
RTVSPropertyOp42
 70
     0
102
RTVSPropertyOp43
 70
     0
102
RTVSPropertyOp44
 70
     0
102
RTVSPropertyOp45
 70
     0
102
RTVSPropertyOp46
 70
     0
102
RTVSPropertyOp47
 70
     0
102
RTVSPropertyOp48
 70
     0
102
RTVSPropertyOp49
 70
     0
102
RTVSPropertyOp50
 70
     0
102
RTVSPropertyOp51
 70
     0
102
RTVSPropertyOp52
 70
     0
102
RTVSPropertyOp53
 70
     0
102
RTVSPropertyOp54
 70
     0
102
RTVSPropertyOp55
 70
     0
102
RTVSPropertyOp56
 70
     0
102
RTVSPropertyOp57
 70
     0
102
RTVSPost2010Prop28
280
     0
102
RTVSPost2010PropOp28
 70
     0
102
RTVSPost2010Prop29
280
     1
102
RTVSPost2010PropOp29
 70
     0
102
RTVSPost2010Prop30
280
     1
102
RTVSPost2010PropOp30
 70
     0
102
RTVSPost2010Prop31
280
     0
102
RTVSPost2010PropOp31
 70
     0
102
RTVSPost2010Prop32
280
     0
102
RTVSPost2010PropOp32
 70
     0
102
RTVSPost2010Prop33
280
     0
102
RTVSPost2010PropOp33
 70
     0
102
RTVSPost2010Prop34
280
     0
102
RTVSPost2010PropOp34
 70
     0
102
RTVSPost2010Prop35
280
     0
102
RTVSPost2010PropOp35
 70
     0
102
RTVSPost2010Prop36
280
     0
102
RTVSPost2010PropOp36
 70
     0
102
RTVSPost2010Prop37
 90
       50
102
RTVSPost2010PropOp37
 70
     0
102
RTVSPost2010Prop38
140
0.0
102
RTVSPost2010PropOp38
 70
     0
102
RTVSPost2010Prop39
140
1.0
102
RTVSPost2010PropOp39
 70
     0
102
RTVSPost2010Prop40
 90
        0
102
RTVSPost2010PropOp40
 70
     0
102
RTVSPost2010Prop41ColorIndex
 90
       18
102
RTVSPost2010Prop41ColorRGB
 90
        0
102
RTVSPost2010PropOp41
 70
     0
102
RTVSPost2010Prop42
 90
       50
102
RTVSPost2010PropOp42
 70
     0
102
RTVSPost2010Prop43
 90
        3
102
RTVSPost2010PropOp43
 70
     0
102
RTVSPost2010Prop44ColorIndex
 90
        5
102
RTVSPost2010Prop44ColorRGB
 90
      255
102
RTVSPost2010PropOp44
 70
     0
102
RTVSPost2010Prop45
280
     0
102
RTVSPost2010PropOp45
 70
     0
102
RTVSPost2010Prop46
 90
       50
102
RTVSPost2010PropOp46
 70
     0
102
RTVSPost2010Prop47
 90
       50
102
RTVSPost2010PropOp47
 70
     0
102
RTVSPost2010Prop48
 90
       50
102
RTVSPost2010PropOp48
 70
     0
102
RTVSPost2010Prop49
280
     0
102
RTVSPost2010PropOp49
 70
     0
102
RTVSPost2010Prop50
 90
       50
102
RTVSPost2010PropOp50
 70
     0
102
RTVSPost2010Prop51ColorIndex
 90
      256
102
RTVSPost2010Prop51ColorRGB
 90
-16777216
102
RTVSPost2010PropOp51
 70
     0
102
RTVSPost2010Prop52
140
1.0
102
RTVSPost2010PropOp52
 70
     0
102
RTVSPost2010Prop53
 90
        2
102
RTVSPost2010PropOp53
 70
     0
102
RTVSPost2010Prop54
  1
strokes_ogs.tif
102
RTVSPost2010PropOp54
 70
     0
102
RTVSPost2010Prop55
280
     0
102
RTVSPost2010PropOp55
 70
     0
102
RTVSPost2010Prop56
140
1.0
102
RTVSPost2010PropOp56
 70
     0
102
RTVSPost2010Prop57
140
1.0
102
RTVSPost2010PropOp57
 70
     0
  0
XRECORD
  5
20D
102
{ACAD_REACTORS
330
20C
102
}
330
20C
100
AcDbXrecord
280
     1
102
RTVSPropertyOp0
 70
     1
102
RTVSPropertyOp1
 70
     1
102
RTVSPropertyOp2
 70
     1
102
RTVSPropertyOp3
 70
     1
102
RTVSPropertyOp4
 70
     1
102
RTVSPropertyOp5
 70
     1
102
RTVSPropertyOp6
 70
     1
102
RTVSPropertyOp7
 70
     1
102
RTVSPropertyOp8
 70
     1
102
RTVSPropertyOp9
 70
     1
102
RTVSPropertyOp10
 70
     1
102
RTVSPropertyOp11
 70
     1
102
RTVSPropertyOp12
 70
     1
102
RTVSPropertyOp13
 70
     1
102
RTVSPropertyOp14
 70
     1
102
RTVSPropertyOp15
 70
     1
102
RTVSPropertyOp16
 70
     1
102
RTVSPropertyOp17
 70
     1
102
RTVSPropertyOp18
 70
     1
102
RTVSPropertyOp19
 70
     1
102
RTVSPropertyOp20
 70
     1
102
RTVSPropertyOp21
 70
     1
102
RTVSPropertyOp22
 70
     1
102
RTVSPropertyOp23
 70
     1
102
RTVSPropertyOp24
 70
     1
102
RTVSPropertyOp25
 70
     1
102
RTVSPropertyOp26
 70
     1
102
RTVSPropertyOp27
 70
     1
102
RTVSPropertyOp28
 70
     1
102
RTVSPropertyOp29
 70
     1
102
RTVSPropertyOp30
 70
     1
102
RTVSPropertyOp31
 70
     1
102
RTVSPropertyOp32
 70
     1
102
RTVSPropertyOp33
 70
     1
102
RTVSPropertyOp34
 70
     1
102
RTVSPropertyOp35
 70
     1
102
RTVSPropertyOp36
 70
     1
102
RTVSPropertyOp37
 70
     1
102
RTVSPropertyOp38
 70
     1
102
RTVSPropertyOp39
 70
     1
102
RTVSPropertyOp40
 70
     1
102
RTVSPropertyOp41
 70
     1
102
RTVSPropertyOp42
 70
     1
102
RTVSPropertyOp43
 70
     1
102
RTVSPropertyOp44
 70
     1
102
RTVSPropertyOp45
 70
     1
102
RTVSPropertyOp46
 70
     1
102
RTVSPropertyOp47
 70
     1
102
RTVSPropertyOp48
 70
     1
102
RTVSPropertyOp49
 70
     1
102
RTVSPropertyOp50
 70
     1
102
RTVSPropertyOp51
 70
     0
102
RTVSPropertyOp52
 70
     0
102
RTVSPropertyOp53
 70
     1
102
RTVSPropertyOp54
 70
     1
102
RTVSPropertyOp55
 70
     1
102
RTVSPropertyOp56
 70
     1
102
RTVSPropertyOp57
 70
     1
102
RTVSPost2010Prop28
280
     0
102
RTVSPost2010PropOp28
 70
     1
102
RTVSPost2010Prop29
280
     1
102
RTVSPost2010PropOp29
 70
     1
102
RTVSPost2010Prop30
280
     1
102
RTVSPost2010PropOp30
 70
     1
102
RTVSPost2010Prop31
280
     0
102
RTVSPost2010PropOp31
 70
     1
102
RTVSPost2010Prop32
280
     0
102
RTVSPost2010PropOp32
 70
     1
102
RTVSPost2010Prop33
280
     0
102
RTVSPost2010PropOp33
 70
     1
102
RTVSPost2010Prop34
280
     0
102
RTVSPost2010PropOp34
 70
     1
102
RTVSPost2010Prop35
280
     0
102
RTVSPost2010PropOp35
 70
     1
102
RTVSPost2010Prop36
280
     0
102
RTVSPost2010PropOp36
 70
     1
102
RTVSPost2010Prop37
 90
       50
102
RTVSPost2010PropOp37
 70
     1
102
RTVSPost2010Prop38
140
0.0
102
RTVSPost2010PropOp38
 70
     1
102
RTVSPost2010Prop39
140
1.0
102
RTVSPost2010PropOp39
 70
     1
102
RTVSPost2010Prop40
 90
        0
102
RTVSPost2010PropOp40
 70
     1
102
RTVSPost2010Prop41ColorIndex
 90
       18
102
RTVSPost2010Prop41ColorRGB
 90
        0
102
RTVSPost2010PropOp41
 70
     1
102
RTVSPost2010Prop42
 90
       50
102
RTVSPost2010PropOp42
 70
     1
102
RTVSPost2010Prop43
 90
        3
102
RTVSPost2010PropOp43
 70
     1
102
RTVSPost2010Prop44ColorIndex
 90
        5
102
RTVSPost2010Prop44ColorRGB
 90
      255
102
RTVSPost2010PropOp44
 70
     1
102
RTVSPost2010Prop45
280
     0
102
RTVSPost2010PropOp45
 70
     1
102
RTVSPost2010Prop46
 90
       50
102
RTVSPost2010PropOp46
 70
     1
102
RTVSPost2010Prop47
 90
       50
102
RTVSPost2010PropOp47
 70
     1
102
RTVSPost2010Prop48
 90
       50
102
RTVSPost2010PropOp48
 70
     1
102
RTVSPost2010Prop49
280
     0
102
RTVSPost2010PropOp49
 70
     1
102
RTVSPost2010Prop50
 90
       50
102
RTVSPost2010PropOp50
 70
     1
102
RTVSPost2010Prop51ColorIndex
 90
      256
102
RTVSPost2010Prop51ColorRGB
 90
-16777216
102
RTVSPost2010PropOp51
 70
     0
102
RTVSPost2010Prop52
140
1.0
102
RTVSPost2010PropOp52
 70
     0
102
RTVSPost2010Prop53
 90
        2
102
RTVSPost2010PropOp53
 70
     1
102
RTVSPost2010Prop54
  1
strokes_ogs.tif
102
RTVSPost2010PropOp54
 70
     1
102
RTVSPost2010Prop55
280
     0
102
RTVSPost2010PropOp55
 70
     1
102
RTVSPost2010Prop56
140
1.0
102
RTVSPost2010PropOp56
 70
     1
102
RTVSPost2010Prop57
140
1.0
102
RTVSPost2010PropOp57
 70
     1
  0
XRECORD
  5
22B
102
{ACAD_REACTORS
330
22A
102
}
330
22A
100
AcDbXrecord
280
     1
102
RTVSPropertyOp0
 70
     1
102
RTVSPropertyOp1
 70
     1
102
RTVSPropertyOp2
 70
     1
102
RTVSPropertyOp3
 70
     1
102
RTVSPropertyOp4
 70
     1
102
RTVSPropertyOp5
 70
     1
102
RTVSPropertyOp6
 70
     1
102
RTVSPropertyOp7
 70
     1
102
RTVSPropertyOp8
 70
     1
102
RTVSPropertyOp9
 70
     1
102
RTVSPropertyOp10
 70
     1
102
RTVSPropertyOp11
 70
     1
102
RTVSPropertyOp12
 70
     1
102
RTVSPropertyOp13
 70
     1
102
RTVSPropertyOp14
 70
     1
102
RTVSPropertyOp15
 70
     1
102
RTVSPropertyOp16
 70
     1
102
RTVSPropertyOp17
 70
     1
102
RTVSPropertyOp18
 70
     1
102
RTVSPropertyOp19
 70
     1
102
RTVSPropertyOp20
 70
     1
102
RTVSPropertyOp21
 70
     1
102
RTVSPropertyOp22
 70
     1
102
RTVSPropertyOp23
 70
     1
102
RTVSPropertyOp24
 70
     1
102
RTVSPropertyOp25
 70
     1
102
RTVSPropertyOp26
 70
     1
102
RTVSPropertyOp27
 70
     1
102
RTVSPropertyOp28
 70
     1
102
RTVSPropertyOp29
 70
     1
102
RTVSPropertyOp30
 70
     1
102
RTVSPropertyOp31
 70
     1
102
RTVSPropertyOp32
 70
     1
102
RTVSPropertyOp33
 70
     1
102
RTVSPropertyOp34
 70
     1
102
RTVSPropertyOp35
 70
     1
102
RTVSPropertyOp36
 70
     1
102
RTVSPropertyOp37
 70
     1
102
RTVSPropertyOp38
 70
     1
102
RTVSPropertyOp39
 70
     1
102
RTVSPropertyOp40
 70
     1
102
RTVSPropertyOp41
 70
     1
102
RTVSPropertyOp42
 70
     1
102
RTVSPropertyOp43
 70
     1
102
RTVSPropertyOp44
 70
     1
102
RTVSPropertyOp45
 70
     1
102
RTVSPropertyOp46
 70
     1
102
RTVSPropertyOp47
 70
     1
102
RTVSPropertyOp48
 70
     1
102
RTVSPropertyOp49
 70
     1
102
RTVSPropertyOp50
 70
     1
102
RTVSPropertyOp51
 70
     0
102
RTVSPropertyOp52
 70
     0
102
RTVSPropertyOp53
 70
     1
102
RTVSPropertyOp54
 70
     1
102
RTVSPropertyOp55
 70
     1
102
RTVSPropertyOp56
 70
     1
102
RTVSPropertyOp57
 70
     1
102
RTVSPost2010Prop28
280
     0
102
RTVSPost2010PropOp28
 70
     1
102
RTVSPost2010Prop29
280
     1
102
RTVSPost2010PropOp29
 70
     1
102
RTVSPost2010Prop30
280
     1
102
RTVSPost2010PropOp30
 70
     1
102
RTVSPost2010Prop31
280
     0
102
RTVSPost2010PropOp31
 70
     1
102
RTVSPost2010Prop32
280
     0
102
RTVSPost2010PropOp32
 70
     1
102
RTVSPost2010Prop33
280
     0
102
RTVSPost2010PropOp33
 70
     1
102
RTVSPost2010Prop34
280
     0
102
RTVSPost2010PropOp34
 70
     1
102
RTVSPost2010Prop35
280
     0
102
RTVSPost2010PropOp35
 70
     1
102
RTVSPost2010Prop36
280
     0
102
RTVSPost2010PropOp36
 70
     1
102
RTVSPost2010Prop37
 90
       50
102
RTVSPost2010PropOp37
 70
     1
102
RTVSPost2010Prop38
140
0.0
102
RTVSPost2010PropOp38
 70
     1
102
RTVSPost2010Prop39
140
1.0
102
RTVSPost2010PropOp39
 70
     1
102
RTVSPost2010Prop40
 90
        0
102
RTVSPost2010PropOp40
 70
     1
102
RTVSPost2010Prop41ColorIndex
 90
       18
102
RTVSPost2010Prop41ColorRGB
 90
        0
102
RTVSPost2010PropOp41
 70
     1
102
RTVSPost2010Prop42
 90
       50
102
RTVSPost2010PropOp42
 70
     1
102
RTVSPost2010Prop43
 90
        3
102
RTVSPost2010PropOp43
 70
     1
102
RTVSPost2010Prop44ColorIndex
 90
        5
102
RTVSPost2010Prop44ColorRGB
 90
      255
102
RTVSPost2010PropOp44
 70
     1
102
RTVSPost2010Prop45
280
     0
102
RTVSPost2010PropOp45
 70
     1
102
RTVSPost2010Prop46
 90
       50
102
RTVSPost2010PropOp46
 70
     1
102
RTVSPost2010Prop47
 90
       50
102
RTVSPost2010PropOp47
 70
     1
102
RTVSPost2010Prop48
 90
       50
102
RTVSPost2010PropOp48
 70
     1
102
RTVSPost2010Prop49
280
     0
102
RTVSPost2010PropOp49
 70
     1
102
RTVSPost2010Prop50
 90
       50
102
RTVSPost2010PropOp50
 70
     1
102
RTVSPost2010Prop51ColorIndex
 90
      256
102
RTVSPost2010Prop51ColorRGB
 90
-16777216
102
RTVSPost2010PropOp51
 70
     0
102
RTVSPost2010Prop52
140
1.0
102
RTVSPost2010PropOp52
 70
     0
102
RTVSPost2010Prop53
 90
        2
102
RTVSPost2010PropOp53
 70
     1
102
RTVSPost2010Prop54
  1
strokes_ogs.tif
102
RTVSPost2010PropOp54
 70
     1
102
RTVSPost2010Prop55
280
     0
102
RTVSPost2010PropOp55
 70
     1
102
RTVSPost2010Prop56
140
1.0
102
RTVSPost2010PropOp56
 70
     1
102
RTVSPost2010Prop57
140
1.0
102
RTVSPost2010PropOp57
 70
     1
  0
XRECORD
  5
229
102
{ACAD_REACTORS
330
228
102
}
330
228
100
AcDbXrecord
280
     1
102
RTVSPropertyOp0
 70
     1
102
RTVSPropertyOp1
 70
     1
102
RTVSPropertyOp2
 70
     1
102
RTVSPropertyOp3
 70
     1
102
RTVSPropertyOp4
 70
     1
102
RTVSPropertyOp5
 70
     1
102
RTVSPropertyOp6
 70
     1
102
RTVSPropertyOp7
 70
     1
102
RTVSPropertyOp8
 70
     1
102
RTVSPropertyOp9
 70
     1
102
RTVSPropertyOp10
 70
     1
102
RTVSPropertyOp11
 70
     1
102
RTVSPropertyOp12
 70
     1
102
RTVSPropertyOp13
 70
     1
102
RTVSPropertyOp14
 70
     1
102
RTVSPropertyOp15
 70
     1
102
RTVSPropertyOp16
 70
     1
102
RTVSPropertyOp17
 70
     1
102
RTVSPropertyOp18
 70
     1
102
RTVSPropertyOp19
 70
     1
102
RTVSPropertyOp20
 70
     1
102
RTVSPropertyOp21
 70
     1
102
RTVSPropertyOp22
 70
     1
102
RTVSPropertyOp23
 70
     1
102
RTVSPropertyOp24
 70
     1
102
RTVSPropertyOp25
 70
     1
102
RTVSPropertyOp26
 70
     1
102
RTVSPropertyOp27
 70
     1
102
RTVSPropertyOp28
 70
     1
102
RTVSPropertyOp29
 70
     1
102
RTVSPropertyOp30
 70
     1
102
RTVSPropertyOp31
 70
     1
102
RTVSPropertyOp32
 70
     1
102
RTVSPropertyOp33
 70
     1
102
RTVSPropertyOp34
 70
     1
102
RTVSPropertyOp35
 70
     1
102
RTVSPropertyOp36
 70
     1
102
RTVSPropertyOp37
 70
     1
102
RTVSPropertyOp38
 70
     1
102
RTVSPropertyOp39
 70
     1
102
RTVSPropertyOp40
 70
     1
102
RTVSPropertyOp41
 70
     1
102
RTVSPropertyOp42
 70
     1
102
RTVSPropertyOp43
 70
     1
102
RTVSPropertyOp44
 70
     1
102
RTVSPropertyOp45
 70
     1
102
RTVSPropertyOp46
 70
     1
102
RTVSPropertyOp47
 70
     1
102
RTVSPropertyOp48
 70
     1
102
RTVSPropertyOp49
 70
     1
102
RTVSPropertyOp50
 70
     1
102
RTVSPropertyOp51
 70
     0
102
RTVSPropertyOp52
 70
     0
102
RTVSPropertyOp53
 70
     1
102
RTVSPropertyOp54
 70
     1
102
RTVSPropertyOp55
 70
     1
102
RTVSPropertyOp56
 70
     1
102
RTVSPropertyOp57
 70
     1
102
RTVSPost2010Prop28
280
     0
102
RTVSPost2010PropOp28
 70
     1
102
RTVSPost2010Prop29
280
     1
102
RTVSPost2010PropOp29
 70
     1
102
RTVSPost2010Prop30
280
     1
102
RTVSPost2010PropOp30
 70
     1
102
RTVSPost2010Prop31
280
     0
102
RTVSPost2010PropOp31
 70
     1
102
RTVSPost2010Prop32
280
     0
102
RTVSPost2010PropOp32
 70
     1
102
RTVSPost2010Prop33
280
     0
102
RTVSPost2010PropOp33
 70
     1
102
RTVSPost2010Prop34
280
     0
102
RTVSPost2010PropOp34
 70
     1
102
RTVSPost2010Prop35
280
     0
102
RTVSPost2010PropOp35
 70
     1
102
RTVSPost2010Prop36
280
     0
102
RTVSPost2010PropOp36
 70
     1
102
RTVSPost2010Prop37
 90
       50
102
RTVSPost2010PropOp37
 70
     1
102
RTVSPost2010Prop38
140
0.0
102
RTVSPost2010PropOp38
 70
     1
102
RTVSPost2010Prop39
140
1.0
102
RTVSPost2010PropOp39
 70
     1
102
RTVSPost2010Prop40
 90
        0
102
RTVSPost2010PropOp40
 70
     1
102
RTVSPost2010Prop41ColorIndex
 90
       18
102
RTVSPost2010Prop41ColorRGB
 90
        0
102
RTVSPost2010PropOp41
 70
     1
102
RTVSPost2010Prop42
 90
       50
102
RTVSPost2010PropOp42
 70
     1
102
RTVSPost2010Prop43
 90
        3
102
RTVSPost2010PropOp43
 70
     1
102
RTVSPost2010Prop44ColorIndex
 90
        5
102
RTVSPost2010Prop44ColorRGB
 90
      255
102
RTVSPost2010PropOp44
 70
     1
102
RTVSPost2010Prop45
280
     0
102
RTVSPost2010PropOp45
 70
     1
102
RTVSPost2010Prop46
 90
       50
102
RTVSPost2010PropOp46
 70
     1
102
RTVSPost2010Prop47
 90
       50
102
RTVSPost2010PropOp47
 70
     1
102
RTVSPost2010Prop48
 90
       50
102
RTVSPost2010PropOp48
 70
     1
102
RTVSPost2010Prop49
280
     0
102
RTVSPost2010PropOp49
 70
     1
102
RTVSPost2010Prop50
 90
       50
102
RTVSPost2010PropOp50
 70
     1
102
RTVSPost2010Prop51ColorIndex
 90
      256
102
RTVSPost2010Prop51ColorRGB
 90
-16777216
102
RTVSPost2010PropOp51
 70
     0
102
RTVSPost2010Prop52
140
1.0
102
RTVSPost2010PropOp52
 70
     0
102
RTVSPost2010Prop53
 90
        2
102
RTVSPost2010PropOp53
 70
     1
102
RTVSPost2010Prop54
  1
strokes_ogs.tif
102
RTVSPost2010PropOp54
 70
     1
102
RTVSPost2010Prop55
280
     0
102
RTVSPost2010PropOp55
 70
     1
102
RTVSPost2010Prop56
140
1.0
102
RTVSPost2010PropOp56
 70
     1
102
RTVSPost2010Prop57
140
1.0
102
RTVSPost2010PropOp57
 70
     1
  0
XRECORD
  5
223
102
{ACAD_REACTORS
330
222
102
}
330
222
100
AcDbXrecord
280
     1
102
RTVSPropertyOp0
 70
     1
102
RTVSPropertyOp1
 70
     1
102
RTVSPropertyOp2
 70
     1
102
RTVSPropertyOp3
 70
     1
102
RTVSPropertyOp4
 70
     1
102
RTVSPropertyOp5
 70
     1
102
RTVSPropertyOp6
 70
     1
102
RTVSPropertyOp7
 70
     1
102
RTVSPropertyOp8
 70
     1
102
RTVSPropertyOp9
 70
     1
102
RTVSPropertyOp10
 70
     1
102
RTVSPropertyOp11
 70
     1
102
RTVSPropertyOp12
 70
     1
102
RTVSPropertyOp13
 70
     1
102
RTVSPropertyOp14
 70
     1
102
RTVSPropertyOp15
 70
     1
102
RTVSPropertyOp16
 70
     1
102
RTVSPropertyOp17
 70
     1
102
RTVSPropertyOp18
 70
     1
102
RTVSPropertyOp19
 70
     1
102
RTVSPropertyOp20
 70
     1
102
RTVSPropertyOp21
 70
     1
102
RTVSPropertyOp22
 70
     1
102
RTVSPropertyOp23
 70
     1
102
RTVSPropertyOp24
 70
     1
102
RTVSPropertyOp25
 70
     1
102
RTVSPropertyOp26
 70
     1
102
RTVSPropertyOp27
 70
     1
102
RTVSPropertyOp28
 70
     1
102
RTVSPropertyOp29
 70
     1
102
RTVSPropertyOp30
 70
     1
102
RTVSPropertyOp31
 70
     1
102
RTVSPropertyOp32
 70
     1
102
RTVSPropertyOp33
 70
     1
102
RTVSPropertyOp34
 70
     1
102
RTVSPropertyOp35
 70
     1
102
RTVSPropertyOp36
 70
     1
102
RTVSPropertyOp37
 70
     1
102
RTVSPropertyOp38
 70
     1
102
RTVSPropertyOp39
 70
     1
102
RTVSPropertyOp40
 70
     1
102
RTVSPropertyOp41
 70
     1
102
RTVSPropertyOp42
 70
     1
102
RTVSPropertyOp43
 70
     1
102
RTVSPropertyOp44
 70
     1
102
RTVSPropertyOp45
 70
     1
102
RTVSPropertyOp46
 70
     1
102
RTVSPropertyOp47
 70
     1
102
RTVSPropertyOp48
 70
     1
102
RTVSPropertyOp49
 70
     1
102
RTVSPropertyOp50
 70
     1
102
RTVSPropertyOp51
 70
     0
102
RTVSPropertyOp52
 70
     0
102
RTVSPropertyOp53
 70
     1
102
RTVSPropertyOp54
 70
     1
102
RTVSPropertyOp55
 70
     1
102
RTVSPropertyOp56
 70
     1
102
RTVSPropertyOp57
 70
     1
102
RTVSPost2010Prop28
280
     0
102
RTVSPost2010PropOp28
 70
     1
102
RTVSPost2010Prop29
280
     1
102
RTVSPost2010PropOp29
 70
     1
102
RTVSPost2010Prop30
280
     1
102
RTVSPost2010PropOp30
 70
     1
102
RTVSPost2010Prop31
280
     0
102
RTVSPost2010PropOp31
 70
     1
102
RTVSPost2010Prop32
280
     0
102
RTVSPost2010PropOp32
 70
     1
102
RTVSPost2010Prop33
280
     0
102
RTVSPost2010PropOp33
 70
     1
102
RTVSPost2010Prop34
280
     0
102
RTVSPost2010PropOp34
 70
     1
102
RTVSPost2010Prop35
280
     0
102
RTVSPost2010PropOp35
 70
     1
102
RTVSPost2010Prop36
280
     0
102
RTVSPost2010PropOp36
 70
     1
102
RTVSPost2010Prop37
 90
       50
102
RTVSPost2010PropOp37
 70
     1
102
RTVSPost2010Prop38
140
0.0
102
RTVSPost2010PropOp38
 70
     1
102
RTVSPost2010Prop39
140
1.0
102
RTVSPost2010PropOp39
 70
     1
102
RTVSPost2010Prop40
 90
        0
102
RTVSPost2010PropOp40
 70
     1
102
RTVSPost2010Prop41ColorIndex
 90
       18
102
RTVSPost2010Prop41ColorRGB
 90
        0
102
RTVSPost2010PropOp41
 70
     1
102
RTVSPost2010Prop42
 90
       50
102
RTVSPost2010PropOp42
 70
     1
102
RTVSPost2010Prop43
 90
        3
102
RTVSPost2010PropOp43
 70
     1
102
RTVSPost2010Prop44ColorIndex
 90
        5
102
RTVSPost2010Prop44ColorRGB
 90
      255
102
RTVSPost2010PropOp44
 70
     1
102
RTVSPost2010Prop45
280
     0
102
RTVSPost2010PropOp45
 70
     1
102
RTVSPost2010Prop46
 90
       50
102
RTVSPost2010PropOp46
 70
     1
102
RTVSPost2010Prop47
 90
       50
102
RTVSPost2010PropOp47
 70
     1
102
RTVSPost2010Prop48
 90
       50
102
RTVSPost2010PropOp48
 70
     1
102
RTVSPost2010Prop49
280
     0
102
RTVSPost2010PropOp49
 70
     1
102
RTVSPost2010Prop50
 90
       50
102
RTVSPost2010PropOp50
 70
     1
102
RTVSPost2010Prop51ColorIndex
 90
      256
102
RTVSPost2010Prop51ColorRGB
 90
-16777216
102
RTVSPost2010PropOp51
 70
     0
102
RTVSPost2010Prop52
140
1.0
102
RTVSPost2010PropOp52
 70
     0
102
RTVSPost2010Prop53
 90
        2
102
RTVSPost2010PropOp53
 70
     1
102
RTVSPost2010Prop54
  1
strokes_ogs.tif
102
RTVSPost2010PropOp54
 70
     1
102
RTVSPost2010Prop55
280
     0
102
RTVSPost2010PropOp55
 70
     1
102
RTVSPost2010Prop56
140
1.0
102
RTVSPost2010PropOp56
 70
     1
102
RTVSPost2010Prop57
140
1.0
102
RTVSPost2010PropOp57
 70
     1
  0
XRECORD
  5
225
102
{ACAD_REACTORS
330
224
102
}
330
224
100
AcDbXrecord
280
     1
102
RTVSPropertyOp0
 70
     1
102
RTVSPropertyOp1
 70
     1
102
RTVSPropertyOp2
 70
     1
102
RTVSPropertyOp3
 70
     1
102
RTVSPropertyOp4
 70
     1
102
RTVSPropertyOp5
 70
     1
102
RTVSPropertyOp6
 70
     1
102
RTVSPropertyOp7
 70
     1
102
RTVSPropertyOp8
 70
     1
102
RTVSPropertyOp9
 70
     1
102
RTVSPropertyOp10
 70
     1
102
RTVSPropertyOp11
 70
     1
102
RTVSPropertyOp12
 70
     1
102
RTVSPropertyOp13
 70
     1
102
RTVSPropertyOp14
 70
     1
102
RTVSPropertyOp15
 70
     1
102
RTVSPropertyOp16
 70
     1
102
RTVSPropertyOp17
 70
     1
102
RTVSPropertyOp18
 70
     1
102
RTVSPropertyOp19
 70
     1
102
RTVSPropertyOp20
 70
     1
102
RTVSPropertyOp21
 70
     1
102
RTVSPropertyOp22
 70
     1
102
RTVSPropertyOp23
 70
     1
102
RTVSPropertyOp24
 70
     1
102
RTVSPropertyOp25
 70
     1
102
RTVSPropertyOp26
 70
     1
102
RTVSPropertyOp27
 70
     1
102
RTVSPropertyOp28
 70
     1
102
RTVSPropertyOp29
 70
     1
102
RTVSPropertyOp30
 70
     1
102
RTVSPropertyOp31
 70
     1
102
RTVSPropertyOp32
 70
     1
102
RTVSPropertyOp33
 70
     1
102
RTVSPropertyOp34
 70
     1
102
RTVSPropertyOp35
 70
     1
102
RTVSPropertyOp36
 70
     1
102
RTVSPropertyOp37
 70
     1
102
RTVSPropertyOp38
 70
     1
102
RTVSPropertyOp39
 70
     1
102
RTVSPropertyOp40
 70
     1
102
RTVSPropertyOp41
 70
     1
102
RTVSPropertyOp42
 70
     1
102
RTVSPropertyOp43
 70
     1
102
RTVSPropertyOp44
 70
     1
102
RTVSPropertyOp45
 70
     1
102
RTVSPropertyOp46
 70
     1
102
RTVSPropertyOp47
 70
     1
102
RTVSPropertyOp48
 70
     1
102
RTVSPropertyOp49
 70
     1
102
RTVSPropertyOp50
 70
     1
102
RTVSPropertyOp51
 70
     0
102
RTVSPropertyOp52
 70
     0
102
RTVSPropertyOp53
 70
     1
102
RTVSPropertyOp54
 70
     1
102
RTVSPropertyOp55
 70
     1
102
RTVSPropertyOp56
 70
     1
102
RTVSPropertyOp57
 70
     1
102
RTVSPost2010Prop28
280
     0
102
RTVSPost2010PropOp28
 70
     1
102
RTVSPost2010Prop29
280
     1
102
RTVSPost2010PropOp29
 70
     1
102
RTVSPost2010Prop30
280
     1
102
RTVSPost2010PropOp30
 70
     1
102
RTVSPost2010Prop31
280
     0
102
RTVSPost2010PropOp31
 70
     1
102
RTVSPost2010Prop32
280
     0
102
RTVSPost2010PropOp32
 70
     1
102
RTVSPost2010Prop33
280
     0
102
RTVSPost2010PropOp33
 70
     1
102
RTVSPost2010Prop34
280
     0
102
RTVSPost2010PropOp34
 70
     1
102
RTVSPost2010Prop35
280
     0
102
RTVSPost2010PropOp35
 70
     1
102
RTVSPost2010Prop36
280
     0
102
RTVSPost2010PropOp36
 70
     1
102
RTVSPost2010Prop37
 90
       50
102
RTVSPost2010PropOp37
 70
     1
102
RTVSPost2010Prop38
140
0.0
102
RTVSPost2010PropOp38
 70
     1
102
RTVSPost2010Prop39
140
1.0
102
RTVSPost2010PropOp39
 70
     1
102
RTVSPost2010Prop40
 90
        0
102
RTVSPost2010PropOp40
 70
     1
102
RTVSPost2010Prop41ColorIndex
 90
       18
102
RTVSPost2010Prop41ColorRGB
 90
        0
102
RTVSPost2010PropOp41
 70
     1
102
RTVSPost2010Prop42
 90
       50
102
RTVSPost2010PropOp42
 70
     1
102
RTVSPost2010Prop43
 90
        3
102
RTVSPost2010PropOp43
 70
     1
102
RTVSPost2010Prop44ColorIndex
 90
        5
102
RTVSPost2010Prop44ColorRGB
 90
      255
102
RTVSPost2010PropOp44
 70
     1
102
RTVSPost2010Prop45
280
     0
102
RTVSPost2010PropOp45
 70
     1
102
RTVSPost2010Prop46
 90
       50
102
RTVSPost2010PropOp46
 70
     1
102
RTVSPost2010Prop47
 90
       50
102
RTVSPost2010PropOp47
 70
     1
102
RTVSPost2010Prop48
 90
       50
102
RTVSPost2010PropOp48
 70
     1
102
RTVSPost2010Prop49
280
     0
102
RTVSPost2010PropOp49
 70
     1
102
RTVSPost2010Prop50
 90
       50
102
RTVSPost2010PropOp50
 70
     1
102
RTVSPost2010Prop51ColorIndex
 90
      256
102
RTVSPost2010Prop51ColorRGB
 90
-16777216
102
RTVSPost2010PropOp51
 70
     0
102
RTVSPost2010Prop52
140
1.0
102
RTVSPost2010PropOp52
 70
     0
102
RTVSPost2010Prop53
 90
        2
102
RTVSPost2010PropOp53
 70
     1
102
RTVSPost2010Prop54
  1
strokes_ogs.tif
102
RTVSPost2010PropOp54
 70
     1
102
RTVSPost2010Prop55
280
     0
102
RTVSPost2010PropOp55
 70
     1
102
RTVSPost2010Prop56
140
1.0
102
RTVSPost2010PropOp56
 70
     1
102
RTVSPost2010Prop57
140
1.0
102
RTVSPost2010PropOp57
 70
     1
  0
XRECORD
  5
215
102
{ACAD_REACTORS
330
214
102
}
330
214
100
AcDbXrecord
280
     1
102
RTVSPropertyOp0
 70
     1
102
RTVSPropertyOp1
 70
     1
102
RTVSPropertyOp2
 70
     1
102
RTVSPropertyOp3
 70
     1
102
RTVSPropertyOp4
 70
     1
102
RTVSPropertyOp5
 70
     1
102
RTVSPropertyOp6
 70
     1
102
RTVSPropertyOp7
 70
     1
102
RTVSPropertyOp8
 70
     1
102
RTVSPropertyOp9
 70
     1
102
RTVSPropertyOp10
 70
     1
102
RTVSPropertyOp11
 70
     1
102
RTVSPropertyOp12
 70
     1
102
RTVSPropertyOp13
 70
     1
102
RTVSPropertyOp14
 70
     1
102
RTVSPropertyOp15
 70
     1
102
RTVSPropertyOp16
 70
     1
102
RTVSPropertyOp17
 70
     1
102
RTVSPropertyOp18
 70
     1
102
RTVSPropertyOp19
 70
     1
102
RTVSPropertyOp20
 70
     1
102
RTVSPropertyOp21
 70
     1
102
RTVSPropertyOp22
 70
     1
102
RTVSPropertyOp23
 70
     1
102
RTVSPropertyOp24
 70
     1
102
RTVSPropertyOp25
 70
     1
102
RTVSPropertyOp26
 70
     1
102
RTVSPropertyOp27
 70
     1
102
RTVSPropertyOp28
 70
     1
102
RTVSPropertyOp29
 70
     1
102
RTVSPropertyOp30
 70
     1
102
RTVSPropertyOp31
 70
     1
102
RTVSPropertyOp32
 70
     1
102
RTVSPropertyOp33
 70
     1
102
RTVSPropertyOp34
 70
     1
102
RTVSPropertyOp35
 70
     1
102
RTVSPropertyOp36
 70
     1
102
RTVSPropertyOp37
 70
     1
102
RTVSPropertyOp38
 70
     1
102
RTVSPropertyOp39
 70
     1
102
RTVSPropertyOp40
 70
     1
102
RTVSPropertyOp41
 70
     1
102
RTVSPropertyOp42
 70
     1
102
RTVSPropertyOp43
 70
     1
102
RTVSPropertyOp44
 70
     1
102
RTVSPropertyOp45
 70
     1
102
RTVSPropertyOp46
 70
     1
102
RTVSPropertyOp47
 70
     1
102
RTVSPropertyOp48
 70
     1
102
RTVSPropertyOp49
 70
     1
102
RTVSPropertyOp50
 70
     1
102
RTVSPropertyOp51
 70
     0
102
RTVSPropertyOp52
 70
     0
102
RTVSPropertyOp53
 70
     1
102
RTVSPropertyOp54
 70
     1
102
RTVSPropertyOp55
 70
     1
102
RTVSPropertyOp56
 70
     1
102
RTVSPropertyOp57
 70
     1
102
RTVSPost2010Prop28
280
     0
102
RTVSPost2010PropOp28
 70
     1
102
RTVSPost2010Prop29
280
     1
102
RTVSPost2010PropOp29
 70
     1
102
RTVSPost2010Prop30
280
     1
102
RTVSPost2010PropOp30
 70
     1
102
RTVSPost2010Prop31
280
     0
102
RTVSPost2010PropOp31
 70
     1
102
RTVSPost2010Prop32
280
     0
102
RTVSPost2010PropOp32
 70
     1
102
RTVSPost2010Prop33
280
     0
102
RTVSPost2010PropOp33
 70
     1
102
RTVSPost2010Prop34
280
     0
102
RTVSPost2010PropOp34
 70
     1
102
RTVSPost2010Prop35
280
     0
102
RTVSPost2010PropOp35
 70
     1
102
RTVSPost2010Prop36
280
     0
102
RTVSPost2010PropOp36
 70
     1
102
RTVSPost2010Prop37
 90
       50
102
RTVSPost2010PropOp37
 70
     1
102
RTVSPost2010Prop38
140
0.0
102
RTVSPost2010PropOp38
 70
     1
102
RTVSPost2010Prop39
140
1.0
102
RTVSPost2010PropOp39
 70
     1
102
RTVSPost2010Prop40
 90
        0
102
RTVSPost2010PropOp40
 70
     1
102
RTVSPost2010Prop41ColorIndex
 90
       18
102
RTVSPost2010Prop41ColorRGB
 90
        0
102
RTVSPost2010PropOp41
 70
     1
102
RTVSPost2010Prop42
 90
       50
102
RTVSPost2010PropOp42
 70
     1
102
RTVSPost2010Prop43
 90
        3
102
RTVSPost2010PropOp43
 70
     1
102
RTVSPost2010Prop44ColorIndex
 90
        5
102
RTVSPost2010Prop44ColorRGB
 90
      255
102
RTVSPost2010PropOp44
 70
     1
102
RTVSPost2010Prop45
280
     0
102
RTVSPost2010PropOp45
 70
     1
102
RTVSPost2010Prop46
 90
       50
102
RTVSPost2010PropOp46
 70
     1
102
RTVSPost2010Prop47
 90
       50
102
RTVSPost2010PropOp47
 70
     1
102
RTVSPost2010Prop48
 90
       50
102
RTVSPost2010PropOp48
 70
     1
102
RTVSPost2010Prop49
280
     0
102
RTVSPost2010PropOp49
 70
     1
102
RTVSPost2010Prop50
 90
       50
102
RTVSPost2010PropOp50
 70
     1
102
RTVSPost2010Prop51ColorIndex
 90
      256
102
RTVSPost2010Prop51ColorRGB
 90
-16777216
102
RTVSPost2010PropOp51
 70
     0
102
RTVSPost2010Prop52
140
1.0
102
RTVSPost2010PropOp52
 70
     0
102
RTVSPost2010Prop53
 90
        2
102
RTVSPost2010PropOp53
 70
     1
102
RTVSPost2010Prop54
  1
strokes_ogs.tif
102
RTVSPost2010PropOp54
 70
     1
102
RTVSPost2010Prop55
280
     0
102
RTVSPost2010PropOp55
 70
     1
102
RTVSPost2010Prop56
140
1.0
102
RTVSPost2010PropOp56
 70
     1
102
RTVSPost2010Prop57
140
1.0
102
RTVSPost2010PropOp57
 70
     1
  0
XRECORD
  5
207
102
{ACAD_REACTORS
330
206
102
}
330
206
100
AcDbXrecord
280
     1
102
RTVSPropertyOp0
 70
     1
102
RTVSPropertyOp1
 70
     1
102
RTVSPropertyOp2
 70
     1
102
RTVSPropertyOp3
 70
     1
102
RTVSPropertyOp4
 70
     1
102
RTVSPropertyOp5
 70
     1
102
RTVSPropertyOp6
 70
     1
102
RTVSPropertyOp7
 70
     1
102
RTVSPropertyOp8
 70
     1
102
RTVSPropertyOp9
 70
     1
102
RTVSPropertyOp10
 70
     1
102
RTVSPropertyOp11
 70
     1
102
RTVSPropertyOp12
 70
     1
102
RTVSPropertyOp13
 70
     1
102
RTVSPropertyOp14
 70
     1
102
RTVSPropertyOp15
 70
     1
102
RTVSPropertyOp16
 70
     1
102
RTVSPropertyOp17
 70
     1
102
RTVSPropertyOp18
 70
     1
102
RTVSPropertyOp19
 70
     1
102
RTVSPropertyOp20
 70
     1
102
RTVSPropertyOp21
 70
     1
102
RTVSPropertyOp22
 70
     1
102
RTVSPropertyOp23
 70
     1
102
RTVSPropertyOp24
 70
     1
102
RTVSPropertyOp25
 70
     1
102
RTVSPropertyOp26
 70
     1
102
RTVSPropertyOp27
 70
     1
102
RTVSPropertyOp28
 70
     1
102
RTVSPropertyOp29
 70
     1
102
RTVSPropertyOp30
 70
     1
102
RTVSPropertyOp31
 70
     1
102
RTVSPropertyOp32
 70
     1
102
RTVSPropertyOp33
 70
     1
102
RTVSPropertyOp34
 70
     1
102
RTVSPropertyOp35
 70
     1
102
RTVSPropertyOp36
 70
     1
102
RTVSPropertyOp37
 70
     1
102
RTVSPropertyOp38
 70
     1
102
RTVSPropertyOp39
 70
     1
102
RTVSPropertyOp40
 70
     1
102
RTVSPropertyOp41
 70
     1
102
RTVSPropertyOp42
 70
     1
102
RTVSPropertyOp43
 70
     1
102
RTVSPropertyOp44
 70
     1
102
RTVSPropertyOp45
 70
     1
102
RTVSPropertyOp46
 70
     1
102
RTVSPropertyOp47
 70
     1
102
RTVSPropertyOp48
 70
     1
102
RTVSPropertyOp49
 70
     1
102
RTVSPropertyOp50
 70
     1
102
RTVSPropertyOp51
 70
     0
102
RTVSPropertyOp52
 70
     0
102
RTVSPropertyOp53
 70
     1
102
RTVSPropertyOp54
 70
     1
102
RTVSPropertyOp55
 70
     1
102
RTVSPropertyOp56
 70
     1
102
RTVSPropertyOp57
 70
     1
102
RTVSPost2010Prop28
280
     0
102
RTVSPost2010PropOp28
 70
     1
102
RTVSPost2010Prop29
280
     1
102
RTVSPost2010PropOp29
 70
     1
102
RTVSPost2010Prop30
280
     1
102
RTVSPost2010PropOp30
 70
     1
102
RTVSPost2010Prop31
280
     0
102
RTVSPost2010PropOp31
 70
     1
102
RTVSPost2010Prop32
280
     0
102
RTVSPost2010PropOp32
 70
     1
102
RTVSPost2010Prop33
280
     0
102
RTVSPost2010PropOp33
 70
     1
102
RTVSPost2010Prop34
280
     0
102
RTVSPost2010PropOp34
 70
     1
102
RTVSPost2010Prop35
280
     0
102
RTVSPost2010PropOp35
 70
     1
102
RTVSPost2010Prop36
280
     0
102
RTVSPost2010PropOp36
 70
     1
102
RTVSPost2010Prop37
 90
       50
102
RTVSPost2010PropOp37
 70
     1
102
RTVSPost2010Prop38
140
0.0
102
RTVSPost2010PropOp38
 70
     1
102
RTVSPost2010Prop39
140
1.0
102
RTVSPost2010PropOp39
 70
     1
102
RTVSPost2010Prop40
 90
        0
102
RTVSPost2010PropOp40
 70
     1
102
RTVSPost2010Prop41ColorIndex
 90
       18
102
RTVSPost2010Prop41ColorRGB
 90
        0
102
RTVSPost2010PropOp41
 70
     1
102
RTVSPost2010Prop42
 90
       50
102
RTVSPost2010PropOp42
 70
     1
102
RTVSPost2010Prop43
 90
        3
102
RTVSPost2010PropOp43
 70
     1
102
RTVSPost2010Prop44ColorIndex
 90
        5
102
RTVSPost2010Prop44ColorRGB
 90
      255
102
RTVSPost2010PropOp44
 70
     1
102
RTVSPost2010Prop45
280
     0
102
RTVSPost2010PropOp45
 70
     1
102
RTVSPost2010Prop46
 90
       50
102
RTVSPost2010PropOp46
 70
     1
102
RTVSPost2010Prop47
 90
       50
102
RTVSPost2010PropOp47
 70
     1
102
RTVSPost2010Prop48
 90
       50
102
RTVSPost2010PropOp48
 70
     1
102
RTVSPost2010Prop49
280
     0
102
RTVSPost2010PropOp49
 70
     1
102
RTVSPost2010Prop50
 90
       50
102
RTVSPost2010PropOp50
 70
     1
102
RTVSPost2010Prop51ColorIndex
 90
      256
102
RTVSPost2010Prop51ColorRGB
 90
-16777216
102
RTVSPost2010PropOp51
 70
     0
102
RTVSPost2010Prop52
140
1.0
102
RTVSPost2010PropOp52
 70
     0
102
RTVSPost2010Prop53
 90
        2
102
RTVSPost2010PropOp53
 70
     1
102
RTVSPost2010Prop54
  1
strokes_ogs.tif
102
RTVSPost2010PropOp54
 70
     1
102
RTVSPost2010Prop55
280
     0
102
RTVSPost2010PropOp55
 70
     1
102
RTVSPost2010Prop56
140
1.0
102
RTVSPost2010PropOp56
 70
     1
102
RTVSPost2010Prop57
140
1.0
102
RTVSPost2010PropOp57
 70
     1
  0
XRECORD
  5
227
102
{ACAD_REACTORS
330
226
102
}
330
226
100
AcDbXrecord
280
     1
102
RTVSPropertyOp0
 70
     1
102
RTVSPropertyOp1
 70
     1
102
RTVSPropertyOp2
 70
     1
102
RTVSPropertyOp3
 70
     1
102
RTVSPropertyOp4
 70
     1
102
RTVSPropertyOp5
 70
     1
102
RTVSPropertyOp6
 70
     1
102
RTVSPropertyOp7
 70
     1
102
RTVSPropertyOp8
 70
     1
102
RTVSPropertyOp9
 70
     1
102
RTVSPropertyOp10
 70
     1
102
RTVSPropertyOp11
 70
     1
102
RTVSPropertyOp12
 70
     1
102
RTVSPropertyOp13
 70
     1
102
RTVSPropertyOp14
 70
     1
102
RTVSPropertyOp15
 70
     1
102
RTVSPropertyOp16
 70
     1
102
RTVSPropertyOp17
 70
     1
102
RTVSPropertyOp18
 70
     1
102
RTVSPropertyOp19
 70
     1
102
RTVSPropertyOp20
 70
     1
102
RTVSPropertyOp21
 70
     1
102
RTVSPropertyOp22
 70
     1
102
RTVSPropertyOp23
 70
     1
102
RTVSPropertyOp24
 70
     1
102
RTVSPropertyOp25
 70
     1
102
RTVSPropertyOp26
 70
     1
102
RTVSPropertyOp27
 70
     1
102
RTVSPropertyOp28
 70
     1
102
RTVSPropertyOp29
 70
     1
102
RTVSPropertyOp30
 70
     1
102
RTVSPropertyOp31
 70
     1
102
RTVSPropertyOp32
 70
     1
102
RTVSPropertyOp33
 70
     1
102
RTVSPropertyOp34
 70
     1
102
RTVSPropertyOp35
 70
     1
102
RTVSPropertyOp36
 70
     1
102
RTVSPropertyOp37
 70
     1
102
RTVSPropertyOp38
 70
     1
102
RTVSPropertyOp39
 70
     1
102
RTVSPropertyOp40
 70
     1
102
RTVSPropertyOp41
 70
     1
102
RTVSPropertyOp42
 70
     1
102
RTVSPropertyOp43
 70
     1
102
RTVSPropertyOp44
 70
     1
102
RTVSPropertyOp45
 70
     1
102
RTVSPropertyOp46
 70
     1
102
RTVSPropertyOp47
 70
     1
102
RTVSPropertyOp48
 70
     1
102
RTVSPropertyOp49
 70
     1
102
RTVSPropertyOp50
 70
     1
102
RTVSPropertyOp51
 70
     0
102
RTVSPropertyOp52
 70
     0
102
RTVSPropertyOp53
 70
     1
102
RTVSPropertyOp54
 70
     1
102
RTVSPropertyOp55
 70
     1
102
RTVSPropertyOp56
 70
     1
102
RTVSPropertyOp57
 70
     1
102
RTVSPost2010Prop28
280
     0
102
RTVSPost2010PropOp28
 70
     1
102
RTVSPost2010Prop29
280
     1
102
RTVSPost2010PropOp29
 70
     1
102
RTVSPost2010Prop30
280
     1
102
RTVSPost2010PropOp30
 70
     1
102
RTVSPost2010Prop31
280
     0
102
RTVSPost2010PropOp31
 70
     1
102
RTVSPost2010Prop32
280
     0
102
RTVSPost2010PropOp32
 70
     1
102
RTVSPost2010Prop33
280
     0
102
RTVSPost2010PropOp33
 70
     1
102
RTVSPost2010Prop34
280
     0
102
RTVSPost2010PropOp34
 70
     1
102
RTVSPost2010Prop35
280
     0
102
RTVSPost2010PropOp35
 70
     1
102
RTVSPost2010Prop36
280
     0
102
RTVSPost2010PropOp36
 70
     1
102
RTVSPost2010Prop37
 90
       50
102
RTVSPost2010PropOp37
 70
     1
102
RTVSPost2010Prop38
140
0.0
102
RTVSPost2010PropOp38
 70
     1
102
RTVSPost2010Prop39
140
1.0
102
RTVSPost2010PropOp39
 70
     1
102
RTVSPost2010Prop40
 90
        0
102
RTVSPost2010PropOp40
 70
     1
102
RTVSPost2010Prop41ColorIndex
 90
       18
102
RTVSPost2010Prop41ColorRGB
 90
        0
102
RTVSPost2010PropOp41
 70
     1
102
RTVSPost2010Prop42
 90
       50
102
RTVSPost2010PropOp42
 70
     1
102
RTVSPost2010Prop43
 90
        3
102
RTVSPost2010PropOp43
 70
     1
102
RTVSPost2010Prop44ColorIndex
 90
        5
102
RTVSPost2010Prop44ColorRGB
 90
      255
102
RTVSPost2010PropOp44
 70
     1
102
RTVSPost2010Prop45
280
     0
102
RTVSPost2010PropOp45
 70
     1
102
RTVSPost2010Prop46
 90
       50
102
RTVSPost2010PropOp46
 70
     1
102
RTVSPost2010Prop47
 90
       50
102
RTVSPost2010PropOp47
 70
     1
102
RTVSPost2010Prop48
 90
       50
102
RTVSPost2010PropOp48
 70
     1
102
RTVSPost2010Prop49
280
     0
102
RTVSPost2010PropOp49
 70
     1
102
RTVSPost2010Prop50
 90
       50
102
RTVSPost2010PropOp50
 70
     1
102
RTVSPost2010Prop51ColorIndex
 90
      256
102
RTVSPost2010Prop51ColorRGB
 90
-16777216
102
RTVSPost2010PropOp51
 70
     0
102
RTVSPost2010Prop52
140
1.0
102
RTVSPost2010PropOp52
 70
     0
102
RTVSPost2010Prop53
 90
        2
102
RTVSPost2010PropOp53
 70
     1
102
RTVSPost2010Prop54
  1
strokes_ogs.tif
102
RTVSPost2010PropOp54
 70
     1
102
RTVSPost2010Prop55
280
     0
102
RTVSPost2010PropOp55
 70
     1
102
RTVSPost2010Prop56
140
1.0
102
RTVSPost2010PropOp56
 70
     1
102
RTVSPost2010Prop57
140
1.0
102
RTVSPost2010PropOp57
 70
     1
  0
ENDSEC
  0
EOF
