  0
SECTION
  2
HEADER
  9
$ACADVER
  1
AC1009
  9
$DWGCODEPAGE
  3
ansi_1252
  9
$INSBASE
 10
0.0
 20
0.0
 30
0.0
  9
$EXTMIN
 10
-2.231794871794871
 20
-6.0
 30
0.0
  9
$EXTMAX
 10
154.2317948717948
 20
168.9999999993481
 30
0.0
  9
$LIMMIN
 10
0.0
 20
0.0
  9
$LIMMAX
 10
12.0
 20
9.0
  9
$ORTHOMODE
 70
     0
  9
$REGENMODE
 70
     1
  9
$FILLMODE
 70
     1
  9
$QTEXTMODE
 70
     0
  9
$MIRRTEXT
 70
     1
  9
$DRAGMODE
 70
     2
  9
$LTSCALE
 40
1.0
  9
$OSMODE
 70
    37
  9
$ATTMODE
 70
     1
  9
$TEXTSIZE
 40
0.2
  9
$TRACEWID
 40
0.05
  9
$TEXTSTYLE
  7
STANDARD
  9
$CLAYER
  8
0
  9
$CELTYPE
  6
BYLAYER
  9
$CECOLOR
 62
   256
  9
$DIMSCALE
 40
1.0
  9
$DIMASZ
 40
0.18
  9
$DIMEXO
 40
0.0625
  9
$DIMDLI
 40
0.38
  9
$DIMRND
 40
0.0
  9
$DIMDLE
 40
0.0
  9
$DIMEXE
 40
0.18
  9
$DIMTP
 40
0.0
  9
$DIMTM
 40
0.0
  9
$DIMTXT
 40
0.18
  9
$DIMCEN
 40
0.09
  9
$DIMTSZ
 40
0.0
  9
$DIMTOL
 70
     0
  9
$DIMLIM
 70
     0
  9
$DIMTIH
 70
     1
  9
$DIMTOH
 70
     1
  9
$DIMSE1
 70
     0
  9
$DIMSE2
 70
     0
  9
$DIMTAD
 70
     0
  9
$DIMZIN
 70
     0
  9
$DIMBLK
  1

  9
$DIMASO
 70
     1
  9
$DIMSHO
 70
     1
  9
$DIMPOST
  1

  9
$DIMAPOST
  1

  9
$DIMALT
 70
     0
  9
$DIMALTD
 70
     2
  9
$DIMALTF
 40
25.4
  9
$DIMLFAC
 40
1.0
  9
$DIMTOFL
 70
     0
  9
$DIMTVP
 40
0.0
  9
$DIMTIX
 70
     0
  9
$DIMSOXD
 70
     0
  9
$DIMSAH
 70
     0
  9
$DIMBLK1
  1

  9
$DIMBLK2
  1

  9
$DIMSTYLE
  2
STANDARD
  9
$DIMCLRD
 70
     0
  9
$DIMCLRE
 70
     0
  9
$DIMCLRT
 70
     0
  9
$DIMTFAC
 40
1.0
  9
$DIMGAP
 40
0.09
  9
$LUNITS
 70
     2
  9
$LUPREC
 70
     4
  9
$SKETCHINC
 40
0.1
  9
$FILLETRAD
 40
0.5
  9
$AUNITS
 70
     0
  9
$AUPREC
 70
     0
  9
$MENU
  1
.
  9
$ELEVATION
 40
0.0
  9
$PELEVATION
 40
0.0
  9
$THICKNESS
 40
0.0
  9
$LIMCHECK
 70
     0
  9
$CHAMFERA
 40
0.0
  9
$CHAMFERB
 40
0.0
  9
$SKPOLY
 70
     0
  9
$TDCREATE
 40
2454910.5
  9
$TDUPDATE
 40
2457892.534323622
  9
$TDINDWG
 40
0.0000000116
  9
$TDUSRTIMER
 40
0.0000000116
  9
$USRTIMER
 70
     1
  9
$ANGBASE
 50
0.0
  9
$ANGDIR
 70
     0
  9
$PDMODE
 70
     0
  9
$PDSIZE
 40
0.0
  9
$PLINEWID
 40
0.0
  9
$COORDS
 70
     1
  9
$SPLFRAME
 70
     0
  9
$SPLINETYPE
 70
     6
  9
$SPLINESEGS
 70
     8
  9
$ATTDIA
 70
     0
  9
$ATTREQ
 70
     1
  9
$HANDLING
 70
     1
  9
$HANDSEED
  5
ACD
  9
$SURFTAB1
 70
     6
  9
$SURFTAB2
 70
     6
  9
$SURFTYPE
 70
     6
  9
$SURFU
 70
     6
  9
$SURFV
 70
     6
  9
$UCSNAME
  2

  9
$UCSORG
 10
0.0
 20
0.0
 30
0.0
  9
$UCSXDIR
 10
1.0
 20
0.0
 30
0.0
  9
$UCSYDIR
 10
0.0
 20
1.0
 30
0.0
  9
$PUCSNAME
  2

  9
$PUCSORG
 10
0.0
 20
0.0
 30
0.0
  9
$PUCSXDIR
 10
1.0
 20
0.0
 30
0.0
  9
$PUCSYDIR
 10
0.0
 20
1.0
 30
0.0
  9
$USERI1
 70
     0
  9
$USERI2
 70
     0
  9
$USERI3
 70
     0
  9
$USERI4
 70
     0
  9
$USERI5
 70
     0
  9
$USERR1
 40
0.0
  9
$USERR2
 40
0.0
  9
$USERR3
 40
0.0
  9
$USERR4
 40
0.0
  9
$USERR5
 40
0.0
  9
$WORLDVIEW
 70
     1
  9
$SHADEDGE
 70
     3
  9
$SHADEDIF
 70
    70
  9
$TILEMODE
 70
     1
  9
$MAXACTVP
 70
    64
  9
$PLIMCHECK
 70
     0
  9
$PEXTMIN
 10
1.000000000000000E+20
 20
1.000000000000000E+20
 30
1.000000000000000E+20
  9
$PEXTMAX
 10
-1.000000000000000E+20
 20
-1.000000000000000E+20
 30
-1.000000000000000E+20
  9
$PLIMMIN
 10
0.0
 20
0.0
  9
$PLIMMAX
 10
12.0
 20
9.0
  9
$UNITMODE
 70
     0
  9
$VISRETAIN
 70
     1
  9
$PLINEGEN
 70
     0
  9
$PSLTSCALE
 70
     1
  0
ENDSEC
  0
SECTION
  2
TABLES
  0
TABLE
  2
VPORT
 70
     1
  0
VPORT
  2
*ACTIVE
 70
     0
 10
0.0
 20
0.0
 11
1.0
 21
1.0
 12
10.42990654205607
 22
4.5
 13
0.0
 23
0.0
 14
0.5
 24
0.5
 15
0.5
 25
0.5
 16
0.0
 26
0.0
 36
1.0
 17
0.0
 27
0.0
 37
0.0
 40
9.0
 41
1.972972972850329
 42
50.0
 43
0.0
 44
0.0
 50
0.0
 51
0.0
 71
     0
 72
   100
 73
     1
 74
     3
 75
     0
 76
     0
 77
     0
 78
     0
  0
ENDTAB
  0
TABLE
  2
LTYPE
 70
     2
  0
LTYPE
  2
CONTINUOUS
 70
     0
  3
Solid line
 72
    65
 73
     0
 40
0.0
  0
LTYPE
  2
CONTINUOUS2
 70
     0
  3
Solid Line
 72
    65
 73
     0
 40
0.0
  0
ENDTAB
  0
TABLE
  2
LAYER
 70
     2
  0
LAYER
  2
0
 70
     0
 62
     7
  6
CONTINUOUS
  0
LAYER
  2
LARGER_ENDPLATE
 70
     0
 62
    18
  6
CONTINUOUS
  0
ENDTAB
  0
TABLE
  2
STYLE
 70
     1
  0
STYLE
  2
STANDARD
 70
     0
 40
0.0
 41
1.0
 50
0.0
 71
     0
 42
0.2
  3
txt
  4

  0
ENDTAB
  0
TABLE
  2
VIEW
 70
     0
  0
ENDTAB
  0
TABLE
  2
UCS
 70
     0
  0
ENDTAB
  0
TABLE
  2
APPID
 70
     1
  0
APPID
  2
ACAD
 70
     0
  0
ENDTAB
  0
TABLE
  2
DIMSTYLE
 70
     1
  0
DIMSTYLE
  2
STANDARD
 70
     0
  3

  4

  5

  6

  7

 40
1.0
 41
0.18
 42
0.0625
 43
0.38
 44
0.18
 45
0.0
 46
0.0
 47
0.0
 48
0.0
140
0.18
141
0.09
142
0.0
143
25.4
144
1.0
145
0.0
146
1.0
147
0.09
 71
     0
 72
     0
 73
     1
 74
     1
 75
     0
 76
     0
 77
     0
 78
     0
170
     0
171
     2
172
     0
173
     0
174
     0
175
     0
176
     0
177
     0
178
     0
  0
ENDTAB
  0
ENDSEC
  0
SECTION
  2
BLOCKS
  0
BLOCK
  8
0
  2
$MODEL_SPACE
 70
     0
 10
0.0
 20
0.0
 30
0.0
  3
$MODEL_SPACE
  1

  0
ENDBLK
  5
21
  8
0
  0
BLOCK
 67
     1
  8
0
  2
$PAPER_SPACE
 70
     0
 10
0.0
 20
0.0
 30
0.0
  3
$PAPER_SPACE
  1

  0
ENDBLK
  5
1D
 67
     1
  8
0
  0
ENDSEC
  0
SECTION
  2
ENTITIES
  0
POLYLINE
  5
70
  8
LARGER_ENDPLATE
 66
     1
 10
0.0
 20
0.0
 30
0.0
 70
     1
  0
VERTEX
  5
8D
  8
LARGER_ENDPLATE
 10
27.07790843776372
 20
162.9999999993479
 30
0.0
  0
VERTEX
  5
8E
  8
LARGER_ENDPLATE
 10
30.91820512801669
 20
162.9999999993479
 30
0.0
  0
VERTEX
  5
8F
  8
LARGER_ENDPLATE
 10
31.256029091545
 20
162.9943142595779
 30
0.0
  0
VERTEX
  5
90
  8
LARGER_ENDPLATE
 10
31.59197299249859
 20
162.9773483978359
 30
0.0
  0
VERTEX
  5
91
  8
LARGER_ENDPLATE
 10
31.92580251333077
 20
162.9492394504743
 30
0.0
  0
VERTEX
  5
92
  8
LARGER_ENDPLATE
 10
32.25728333649485
 20
162.9101244538452
 30
0.0
  0
VERTEX
  5
93
  8
LARGER_ENDPLATE
 10
32.58618114444413
 20
162.8601404443011
 30
0.0
  0
VERTEX
  5
94
  8
LARGER_ENDPLATE
 10
32.91226161963192
 20
162.799424458194
 30
0.0
  0
VERTEX
  5
95
  8
LARGER_ENDPLATE
 10
33.23529044451152
 20
162.7281135318763
 30
0.0
  0
VERTEX
  5
96
  8
LARGER_ENDPLATE
 10
33.55503330153624
 20
162.6463447017002
 30
0.0
  0
VERTEX
  5
97
  8
LARGER_ENDPLATE
 10
33.87125587315938
 20
162.554255004018
 30
0.0
  0
VERTEX
  5
98
  8
LARGER_ENDPLATE
 10
34.18372384183424
 20
162.451981475182
 30
0.0
  0
VERTEX
  5
99
  8
LARGER_ENDPLATE
 10
34.49220289001414
 20
162.3396611515445
 30
0.0
  0
VERTEX
  5
9A
  8
LARGER_ENDPLATE
 10
34.79645870015237
 20
162.2174310694576
 30
0.0
  0
VERTEX
  5
9B
  8
LARGER_ENDPLATE
 10
35.09625695470225
 20
162.0854282652736
 30
0.0
  0
VERTEX
  5
9C
  8
LARGER_ENDPLATE
 10
35.39136333611707
 20
161.9437897753449
 30
0.0
  0
VERTEX
  5
9D
  8
LARGER_ENDPLATE
 10
35.68154352685013
 20
161.7926526360236
 30
0.0
  0
VERTEX
  5
9E
  8
LARGER_ENDPLATE
 10
35.96656320935476
 20
161.6321538836621
 30
0.0
  0
VERTEX
  5
9F
  8
LARGER_ENDPLATE
 10
36.24618806608425
 20
161.4624305546125
 30
0.0
  0
VERTEX
  5
A0
  8
LARGER_ENDPLATE
 10
36.5201837794919
 20
161.2836196852272
 30
0.0
  0
VERTEX
  5
A1
  8
LARGER_ENDPLATE
 10
36.78831603203102
 20
161.0958583118584
 30
0.0
  0
VERTEX
  5
A2
  8
LARGER_ENDPLATE
 10
37.05035050615493
 20
160.8992834708584
 30
0.0
  0
VERTEX
  5
A3
  8
LARGER_ENDPLATE
 10
37.30605288431691
 20
160.6940321985794
 30
0.0
  0
VERTEX
  5
A4
  8
LARGER_ENDPLATE
 10
37.55518884897029
 20
160.4802415313737
 30
0.0
  0
VERTEX
  5
A5
  8
LARGER_ENDPLATE
 10
37.79752408256834
 20
160.2580485055936
 30
0.0
  0
VERTEX
  5
A6
  8
LARGER_ENDPLATE
 10
38.03282426756441
 20
160.0275901575912
 30
0.0
  0
VERTEX
  5
A7
  8
LARGER_ENDPLATE
 10
38.26085508641177
 20
159.789003523719
 30
0.0
  0
VERTEX
  5
A8
  8
LARGER_ENDPLATE
 10
38.48138222156373
 20
159.5424256403291
 30
0.0
  0
VERTEX
  5
A9
  8
LARGER_ENDPLATE
 10
38.69417135547361
 20
159.2879935437738
 30
0.0
  0
VERTEX
  5
AA
  8
LARGER_ENDPLATE
 10
38.89898817059471
 20
159.0258442704053
 30
0.0
  0
VERTEX
  5
AB
  8
LARGER_ENDPLATE
 10
39.09559834938032
 20
158.756114856576
 30
0.0
  0
VERTEX
  5
AC
  8
LARGER_ENDPLATE
 10
39.28376757428377
 20
158.478942338638
 30
0.0
  0
VERTEX
  5
AD
  8
LARGER_ENDPLATE
 10
39.46326152775835
 20
158.1944637529437
 30
0.0
  0
VERTEX
  5
AE
  8
LARGER_ENDPLATE
 10
39.63384589225736
 20
157.9028161358453
 30
0.0
  0
VERTEX
  5
AF
  8
LARGER_ENDPLATE
 10
62.48384589216535
 20
117.2828161360079
 30
0.0
  0
VERTEX
  5
B0
  8
LARGER_ENDPLATE
 10
62.63703262137457
 20
116.9999477782431
 30
0.0
  0
VERTEX
  5
B1
  8
LARGER_ENDPLATE
 10
62.78078878972358
 20
116.7128262505737
 30
0.0
  0
VERTEX
  5
B2
  8
LARGER_ENDPLATE
 10
62.91505196662594
 20
116.4216898708147
 30
0.0
  0
VERTEX
  5
B3
  8
LARGER_ENDPLATE
 10
63.0397597214952
 20
116.1267769567808
 30
0.0
  0
VERTEX
  5
B4
  8
LARGER_ENDPLATE
 10
63.15484962374495
 20
115.828325826287
 30
0.0
  0
VERTEX
  5
B5
  8
LARGER_ENDPLATE
 10
63.26025924278876
 20
115.5265747971481
 30
0.0
  0
VERTEX
  5
B6
  8
LARGER_ENDPLATE
 10
63.35592614804018
 20
115.221762187179
 30
0.0
  0
VERTEX
  5
B7
  8
LARGER_ENDPLATE
 10
63.4417879089128
 20
114.9141263141945
 30
0.0
  0
VERTEX
  5
B8
  8
LARGER_ENDPLATE
 10
63.51778209482018
 20
114.6039054960095
 30
0.0
  0
VERTEX
  5
B9
  8
LARGER_ENDPLATE
 10
63.58384627517589
 20
114.291338050439
 30
0.0
  0
VERTEX
  5
BA
  8
LARGER_ENDPLATE
 10
63.63991801939349
 20
113.9766622952977
 30
0.0
  0
VERTEX
  5
BB
  8
LARGER_ENDPLATE
 10
63.68593489688656
 20
113.6601165484005
 30
0.0
  0
VERTEX
  5
BC
  8
LARGER_ENDPLATE
 10
63.72183447706866
 20
113.3419391275623
 30
0.0
  0
VERTEX
  5
BD
  8
LARGER_ENDPLATE
 10
63.74755432935336
 20
113.022368350598
 30
0.0
  0
VERTEX
  5
BE
  8
LARGER_ENDPLATE
 10
63.76303202315424
 20
112.7016425353224
 30
0.0
  0
VERTEX
  5
BF
  8
LARGER_ENDPLATE
 10
63.76820512788485
 20
112.3799999995504
 30
0.0
  0
VERTEX
  5
C0
  8
LARGER_ENDPLATE
 10
63.76820512788474
 20
9.999999999959982
 30
0.0
  0
VERTEX
  5
C1
  8
LARGER_ENDPLATE
 10
63.75519318993749
 20
9.485401326328567
 30
0.0
  0
VERTEX
  5
C2
  8
LARGER_ENDPLATE
 10
63.7165762551857
 20
8.977558090452884
 30
0.0
  0
VERTEX
  5
C3
  8
LARGER_ENDPLATE
 10
63.65298264226433
 20
8.477098610967893
 30
0.0
  0
VERTEX
  5
C4
  8
LARGER_ENDPLATE
 10
63.56504066980835
 20
7.984651206508554
 30
0.0
  0
VERTEX
  5
C5
  8
LARGER_ENDPLATE
 10
63.45337865645271
 20
7.500844195709826
 30
0.0
  0
VERTEX
  5
C6
  8
LARGER_ENDPLATE
 10
63.31862492083238
 20
7.02630589720667
 30
0.0
  0
VERTEX
  5
C7
  8
LARGER_ENDPLATE
 10
63.16140778158231
 20
6.561664629634047
 30
0.0
  0
VERTEX
  5
C8
  8
LARGER_ENDPLATE
 10
62.98235555733746
 20
6.107548711626915
 30
0.0
  0
VERTEX
  5
C9
  8
LARGER_ENDPLATE
 10
62.7820965667328
 20
5.664586461820237
 30
0.0
  0
VERTEX
  5
CA
  8
LARGER_ENDPLATE
 10
62.56125912840329
 20
5.233406198848972
 30
0.0
  0
VERTEX
  5
CB
  8
LARGER_ENDPLATE
 10
62.32047156098388
 20
4.814636241348079
 30
0.0
  0
VERTEX
  5
CC
  8
LARGER_ENDPLATE
 10
62.06036218310953
 20
4.408904907952521
 30
0.0
  0
VERTEX
  5
CD
  8
LARGER_ENDPLATE
 10
61.78155931341522
 20
4.016840517297256
 30
0.0
  0
VERTEX
  5
CE
  8
LARGER_ENDPLATE
 10
61.48469127053588
 20
3.639071388017245
 30
0.0
  0
VERTEX
  5
CF
  8
LARGER_ENDPLATE
 10
61.1703863731065
 20
3.276225838747446
 30
0.0
  0
VERTEX
  5
D0
  8
LARGER_ENDPLATE
 10
60.83927293976203
 20
2.928932188122822
 30
0.0
  0
VERTEX
  5
D1
  8
LARGER_ENDPLATE
 10
60.49197928913741
 20
2.597818754778332
 30
0.0
  0
VERTEX
  5
D2
  8
LARGER_ENDPLATE
 10
60.12913373986763
 20
2.283513857348936
 30
0.0
  0
VERTEX
  5
D3
  8
LARGER_ENDPLATE
 10
59.75136461058761
 20
1.986645814469595
 30
0.0
  0
VERTEX
  5
D4
  8
LARGER_ENDPLATE
 10
59.35930021993236
 20
1.707842944775269
 30
0.0
  0
VERTEX
  5
D5
  8
LARGER_ENDPLATE
 10
58.95356888653681
 20
1.447733566900917
 30
0.0
  0
VERTEX
  5
D6
  8
LARGER_ENDPLATE
 10
58.53479892903594
 20
1.2069459994815
 30
0.0
  0
VERTEX
  5
D7
  8
LARGER_ENDPLATE
 10
58.10361866606469
 20
0.9861085611519789
 30
0.0
  0
VERTEX
  5
D8
  8
LARGER_ENDPLATE
 10
57.66065641625802
 20
0.7858495705473127
 30
0.0
  0
VERTEX
  5
D9
  8
LARGER_ENDPLATE
 10
57.2065404982509
 20
0.6067973463024623
 30
0.0
  0
VERTEX
  5
DA
  8
LARGER_ENDPLATE
 10
56.74189923067829
 20
0.4495802070523876
 30
0.0
  0
VERTEX
  5
DB
  8
LARGER_ENDPLATE
 10
56.26736093217515
 20
0.3148264714320488
 30
0.0
  0
VERTEX
  5
DC
  8
LARGER_ENDPLATE
 10
55.78355392137644
 20
0.2031644580764061
 30
0.0
  0
VERTEX
  5
DD
  8
LARGER_ENDPLATE
 10
55.29110651691712
 20
0.1152224856204197
 30
0.0
  0
VERTEX
  5
DE
  8
LARGER_ENDPLATE
 10
54.79064703743214
 20
0.0516288726990498
 30
0.0
  0
VERTEX
  5
DF
  8
LARGER_ENDPLATE
 10
54.28280380155647
 20
0.0130119379472565
 30
0.0
  0
VERTEX
  5
E0
  8
LARGER_ENDPLATE
 10
53.76820512792507
 20
0.0
 30
0.0
  0
VERTEX
  5
E1
  8
LARGER_ENDPLATE
 10
27.02066688355513
 20
0.0
 30
0.0
  0
VERTEX
  5
E2
  8
LARGER_ENDPLATE
 10
13.76820512816517
 20
0.0
 30
0.0
  0
VERTEX
  5
E3
  8
LARGER_ENDPLATE
 10
13.25360645453374
 20
0.013011937947255
 30
0.0
  0
VERTEX
  5
E4
  8
LARGER_ENDPLATE
 10
12.74576321865805
 20
0.0516288726990466
 30
0.0
  0
VERTEX
  5
E5
  8
LARGER_ENDPLATE
 10
12.24530373917304
 20
0.1152224856204147
 30
0.0
  0
VERTEX
  5
E6
  8
LARGER_ENDPLATE
 10
11.75285633471369
 20
0.2031644580763991
 30
0.0
  0
VERTEX
  5
E7
  8
LARGER_ENDPLATE
 10
11.26904932391496
 20
0.3148264714320397
 30
0.0
  0
VERTEX
  5
E8
  8
LARGER_ENDPLATE
 10
10.7945110254118
 20
0.4495802070523762
 30
0.0
  0
VERTEX
  5
E9
  8
LARGER_ENDPLATE
 10
10.32986975783917
 20
0.6067973463024486
 30
0.0
  0
VERTEX
  5
EA
  8
LARGER_ENDPLATE
 10
9.875753839832031
 20
0.7858495705472968
 30
0.0
  0
VERTEX
  5
EB
  8
LARGER_ENDPLATE
 10
9.43279159002535
 20
0.9861085611519605
 30
0.0
  0
VERTEX
  5
EC
  8
LARGER_ENDPLATE
 10
9.001611327054079
 20
1.20694599948148
 30
0.0
  0
VERTEX
  5
ED
  8
LARGER_ENDPLATE
 10
8.582841369553183
 20
1.447733566900894
 30
0.0
  0
VERTEX
  5
EE
  8
LARGER_ENDPLATE
 10
8.177110036157623
 20
1.707842944775243
 30
0.0
  0
VERTEX
  5
EF
  8
LARGER_ENDPLATE
 10
7.785045645502356
 20
1.986645814469568
 30
0.0
  0
VERTEX
  5
F0
  8
LARGER_ENDPLATE
 10
7.407276516222343
 20
2.283513857348908
 30
0.0
  0
VERTEX
  5
F1
  8
LARGER_ENDPLATE
 10
7.044430966952544
 20
2.597818754778301
 30
0.0
  0
VERTEX
  5
F2
  8
LARGER_ENDPLATE
 10
6.69713731632792
 20
2.92893218812279
 30
0.0
  0
VERTEX
  5
F3
  8
LARGER_ENDPLATE
 10
6.366023882983431
 20
3.276225838747413
 30
0.0
  0
VERTEX
  5
F4
  8
LARGER_ENDPLATE
 10
6.051718985554036
 20
3.63907138801721
 30
0.0
  0
VERTEX
  5
F5
  8
LARGER_ENDPLATE
 10
5.754850942674697
 20
4.016840517297221
 30
0.0
  0
VERTEX
  5
F6
  8
LARGER_ENDPLATE
 10
5.476048072980371
 20
4.408904907952486
 30
0.0
  0
VERTEX
  5
F7
  8
LARGER_ENDPLATE
 10
5.215938695106021
 20
4.814636241348046
 30
0.0
  0
VERTEX
  5
F8
  8
LARGER_ENDPLATE
 10
4.975151127686607
 20
5.233406198848938
 30
0.0
  0
VERTEX
  5
F9
  8
LARGER_ENDPLATE
 10
4.754313689357088
 20
5.664586461820203
 30
0.0
  0
VERTEX
  5
FA
  8
LARGER_ENDPLATE
 10
4.554054698752424
 20
6.107548711626883
 30
0.0
  0
VERTEX
  5
FB
  8
LARGER_ENDPLATE
 10
4.375002474507575
 20
6.561664629634016
 30
0.0
  0
VERTEX
  5
FC
  8
LARGER_ENDPLATE
 10
4.217785335257503
 20
7.026305897206642
 30
0.0
  0
VERTEX
  5
FD
  8
LARGER_ENDPLATE
 10
4.083031599637167
 20
7.500844195709801
 30
0.0
  0
VERTEX
  5
FE
  8
LARGER_ENDPLATE
 10
3.971369586281526
 20
7.984651206508532
 30
0.0
  0
VERTEX
  5
FF
  8
LARGER_ENDPLATE
 10
3.883427613825542
 20
8.477098610967875
 30
0.0
  0
VERTEX
  5
100
  8
LARGER_ENDPLATE
 10
3.819834000904174
 20
8.977558090452872
 30
0.0
  0
VERTEX
  5
101
  8
LARGER_ENDPLATE
 10
3.781217066152382
 20
9.48540132632856
 30
0.0
  0
VERTEX
  5
102
  8
LARGER_ENDPLATE
 10
3.768205128205127
 20
9.999999999959982
 30
0.0
  0
VERTEX
  5
103
  8
LARGER_ENDPLATE
 10
3.768205128205127
 20
152.9999999993879
 30
0.0
  0
VERTEX
  5
104
  8
LARGER_ENDPLATE
 10
3.78121706615238
 20
153.5145986730193
 30
0.0
  0
VERTEX
  5
105
  8
LARGER_ENDPLATE
 10
3.819834000904169
 20
154.022441908895
 30
0.0
  0
VERTEX
  5
106
  8
LARGER_ENDPLATE
 10
3.883427613825535
 20
154.5229013883801
 30
0.0
  0
VERTEX
  5
107
  8
LARGER_ENDPLATE
 10
3.971369586281518
 20
155.0153487928394
 30
0.0
  0
VERTEX
  5
108
  8
LARGER_ENDPLATE
 10
4.083031599637157
 20
155.4991558036381
 30
0.0
  0
VERTEX
  5
109
  8
LARGER_ENDPLATE
 10
4.217785335257492
 20
155.9736941021413
 30
0.0
  0
VERTEX
  5
10A
  8
LARGER_ENDPLATE
 10
4.375002474507563
 20
156.4383353697139
 30
0.0
  0
VERTEX
  5
10B
  8
LARGER_ENDPLATE
 10
4.554054698752411
 20
156.892451287721
 30
0.0
  0
VERTEX
  5
10C
  8
LARGER_ENDPLATE
 10
4.754313689357075
 20
157.3354135375277
 30
0.0
  0
VERTEX
  5
10D
  8
LARGER_ENDPLATE
 10
4.975151127686594
 20
157.766593800499
 30
0.0
  0
VERTEX
  5
10E
  8
LARGER_ENDPLATE
 10
5.215938695106009
 20
158.1853637579999
 30
0.0
  0
VERTEX
  5
10F
  8
LARGER_ENDPLATE
 10
5.476048072980358
 20
158.5910950913955
 30
0.0
  0
VERTEX
  5
110
  8
LARGER_ENDPLATE
 10
5.754850942674684
 20
158.9831594820507
 30
0.0
  0
VERTEX
  5
111
  8
LARGER_ENDPLATE
 10
6.051718985554023
 20
159.3609286113307
 30
0.0
  0
VERTEX
  5
112
  8
LARGER_ENDPLATE
 10
6.366023882983418
 20
159.7237741606005
 30
0.0
  0
VERTEX
  5
113
  8
LARGER_ENDPLATE
 10
6.697137316327909
 20
160.0710678112251
 30
0.0
  0
VERTEX
  5
114
  8
LARGER_ENDPLATE
 10
7.044430966952534
 20
160.4021812445696
 30
0.0
  0
VERTEX
  5
115
  8
LARGER_ENDPLATE
 10
7.407276516222334
 20
160.716486141999
 30
0.0
  0
VERTEX
  5
116
  8
LARGER_ENDPLATE
 10
7.785045645502347
 20
161.0133541848783
 30
0.0
  0
VERTEX
  5
117
  8
LARGER_ENDPLATE
 10
8.177110036157615
 20
161.2921570545727
 30
0.0
  0
VERTEX
  5
118
  8
LARGER_ENDPLATE
 10
8.582841369553176
 20
161.552266432447
 30
0.0
  0
VERTEX
  5
119
  8
LARGER_ENDPLATE
 10
9.001611327054073
 20
161.7930539998665
 30
0.0
  0
VERTEX
  5
11A
  8
LARGER_ENDPLATE
 10
9.432791590025342
 20
162.013891438196
 30
0.0
  0
VERTEX
  5
11B
  8
LARGER_ENDPLATE
 10
9.875753839832026
 20
162.2141504288007
 30
0.0
  0
VERTEX
  5
11C
  8
LARGER_ENDPLATE
 10
10.32986975783916
 20
162.3932026530455
 30
0.0
  0
VERTEX
  5
11D
  8
LARGER_ENDPLATE
 10
10.79451102541179
 20
162.5504197922955
 30
0.0
  0
VERTEX
  5
11E
  8
LARGER_ENDPLATE
 10
11.26904932391496
 20
162.6851735279159
 30
0.0
  0
VERTEX
  5
11F
  8
LARGER_ENDPLATE
 10
11.75285633471369
 20
162.7968355412715
 30
0.0
  0
VERTEX
  5
120
  8
LARGER_ENDPLATE
 10
12.24530373917304
 20
162.8847775137275
 30
0.0
  0
VERTEX
  5
121
  8
LARGER_ENDPLATE
 10
12.74576321865805
 20
162.9483711266489
 30
0.0
  0
VERTEX
  5
122
  8
LARGER_ENDPLATE
 10
13.25360645453374
 20
162.9869880614007
 30
0.0
  0
VERTEX
  5
123
  8
LARGER_ENDPLATE
 10
13.76820512816517
 20
162.9999999993479
 30
0.0
  0
SEQEND
  5
AB7
  8
LARGER_ENDPLATE
  0
POLYLINE
  5
71
  8
LARGER_ENDPLATE
 66
     1
 10
0.0
 20
0.0
 30
0.0
 70
     1
  0
VERTEX
  5
124
  8
LARGER_ENDPLATE
 10
20.26820512813924
 20
160.0999999993595
 30
0.0
  0
VERTEX
  5
125
  8
LARGER_ENDPLATE
 10
20.00237023166738
 20
160.0865764924578
 30
0.0
  0
VERTEX
  5
126
  8
LARGER_ENDPLATE
 10
19.74421444184184
 20
160.0471772402597
 30
0.0
  0
VERTEX
  5
127
  8
LARGER_ENDPLATE
 10
19.49504466142334
 20
159.983109145526
 30
0.0
  0
VERTEX
  5
128
  8
LARGER_ENDPLATE
 10
19.25616779317259
 20
159.8956791110173
 30
0.0
  0
VERTEX
  5
129
  8
LARGER_ENDPLATE
 10
19.02889073985033
 20
159.7861940394944
 30
0.0
  0
VERTEX
  5
12A
  8
LARGER_ENDPLATE
 10
18.81452040421724
 20
159.655960833718
 30
0.0
  0
VERTEX
  5
12B
  8
LARGER_ENDPLATE
 10
18.61436368903407
 20
159.5062863964488
 30
0.0
  0
VERTEX
  5
12C
  8
LARGER_ENDPLATE
 10
18.42972749706152
 20
159.3384776304476
 30
0.0
  0
VERTEX
  5
12D
  8
LARGER_ENDPLATE
 10
18.26191873106031
 20
159.1538414384751
 30
0.0
  0
VERTEX
  5
12E
  8
LARGER_ENDPLATE
 10
18.11224429379116
 20
158.9536847232919
 30
0.0
  0
VERTEX
  5
12F
  8
LARGER_ENDPLATE
 10
17.98201108801478
 20
158.7393143876589
 30
0.0
  0
VERTEX
  5
130
  8
LARGER_ENDPLATE
 10
17.87252601649189
 20
158.5120373343366
 30
0.0
  0
VERTEX
  5
131
  8
LARGER_ENDPLATE
 10
17.78509598198321
 20
158.2731604660858
 30
0.0
  0
VERTEX
  5
132
  8
LARGER_ENDPLATE
 10
17.72102788724946
 20
158.0239906856673
 30
0.0
  0
VERTEX
  5
133
  8
LARGER_ENDPLATE
 10
17.68162863505135
 20
157.7658348958418
 30
0.0
  0
VERTEX
  5
134
  8
LARGER_ENDPLATE
 10
17.6682051281496
 20
157.4999999993699
 30
0.0
  0
VERTEX
  5
135
  8
LARGER_ENDPLATE
 10
17.68162863505135
 20
157.2341651028981
 30
0.0
  0
VERTEX
  5
136
  8
LARGER_ENDPLATE
 10
17.72102788724947
 20
156.9760093130726
 30
0.0
  0
VERTEX
  5
137
  8
LARGER_ENDPLATE
 10
17.78509598198323
 20
156.7268395326541
 30
0.0
  0
VERTEX
  5
138
  8
LARGER_ENDPLATE
 10
17.87252601649191
 20
156.4879626644034
 30
0.0
  0
VERTEX
  5
139
  8
LARGER_ENDPLATE
 10
17.9820110880148
 20
156.2606856110811
 30
0.0
  0
VERTEX
  5
13A
  8
LARGER_ENDPLATE
 10
18.11224429379118
 20
156.046315275448
 30
0.0
  0
VERTEX
  5
13B
  8
LARGER_ENDPLATE
 10
18.26191873106034
 20
155.8461585602649
 30
0.0
  0
VERTEX
  5
13C
  8
LARGER_ENDPLATE
 10
18.42972749706155
 20
155.6615223682923
 30
0.0
  0
VERTEX
  5
13D
  8
LARGER_ENDPLATE
 10
18.6143636890341
 20
155.4937136022911
 30
0.0
  0
VERTEX
  5
13E
  8
LARGER_ENDPLATE
 10
18.81452040421728
 20
155.3440391650219
 30
0.0
  0
VERTEX
  5
13F
  8
LARGER_ENDPLATE
 10
19.02889073985036
 20
155.2138059592455
 30
0.0
  0
VERTEX
  5
140
  8
LARGER_ENDPLATE
 10
19.25616779317263
 20
155.1043208877226
 30
0.0
  0
VERTEX
  5
141
  8
LARGER_ENDPLATE
 10
19.49504466142337
 20
155.0168908532139
 30
0.0
  0
VERTEX
  5
142
  8
LARGER_ENDPLATE
 10
19.74421444184186
 20
154.9528227584802
 30
0.0
  0
VERTEX
  5
143
  8
LARGER_ENDPLATE
 10
20.00237023166739
 20
154.9134235062821
 30
0.0
  0
VERTEX
  5
144
  8
LARGER_ENDPLATE
 10
20.26820512813924
 20
154.8999999993804
 30
0.0
  0
VERTEX
  5
145
  8
LARGER_ENDPLATE
 10
20.53404002461109
 20
154.9134235062821
 30
0.0
  0
VERTEX
  5
146
  8
LARGER_ENDPLATE
 10
20.79219581443661
 20
154.9528227584802
 30
0.0
  0
VERTEX
  5
147
  8
LARGER_ENDPLATE
 10
21.0413655948551
 20
155.016890853214
 30
0.0
  0
VERTEX
  5
148
  8
LARGER_ENDPLATE
 10
21.28024246310584
 20
155.1043208877227
 30
0.0
  0
VERTEX
  5
149
  8
LARGER_ENDPLATE
 10
21.5075195164281
 20
155.2138059592455
 30
0.0
  0
VERTEX
  5
14A
  8
LARGER_ENDPLATE
 10
21.72188985206117
 20
155.3440391650219
 30
0.0
  0
VERTEX
  5
14B
  8
LARGER_ENDPLATE
 10
21.92204656724434
 20
155.4937136022911
 30
0.0
  0
VERTEX
  5
14C
  8
LARGER_ENDPLATE
 10
22.10668275921689
 20
155.6615223682923
 30
0.0
  0
VERTEX
  5
14D
  8
LARGER_ENDPLATE
 10
22.2744915252181
 20
155.8461585602648
 30
0.0
  0
VERTEX
  5
14E
  8
LARGER_ENDPLATE
 10
22.42416596248725
 20
156.046315275448
 30
0.0
  0
VERTEX
  5
14F
  8
LARGER_ENDPLATE
 10
22.55439916826363
 20
156.2606856110811
 30
0.0
  0
VERTEX
  5
150
  8
LARGER_ENDPLATE
 10
22.66388423978652
 20
156.4879626644033
 30
0.0
  0
VERTEX
  5
151
  8
LARGER_ENDPLATE
 10
22.7513142742952
 20
156.7268395326541
 30
0.0
  0
VERTEX
  5
152
  8
LARGER_ENDPLATE
 10
22.81538236902896
 20
156.9760093130726
 30
0.0
  0
VERTEX
  5
153
  8
LARGER_ENDPLATE
 10
22.85478162122707
 20
157.2341651028981
 30
0.0
  0
VERTEX
  5
154
  8
LARGER_ENDPLATE
 10
22.86820512812882
 20
157.4999999993699
 30
0.0
  0
VERTEX
  5
155
  8
LARGER_ENDPLATE
 10
22.85478162122707
 20
157.7658348958418
 30
0.0
  0
VERTEX
  5
156
  8
LARGER_ENDPLATE
 10
22.81538236902896
 20
158.0239906856673
 30
0.0
  0
VERTEX
  5
157
  8
LARGER_ENDPLATE
 10
22.7513142742952
 20
158.2731604660858
 30
0.0
  0
VERTEX
  5
158
  8
LARGER_ENDPLATE
 10
22.66388423978652
 20
158.5120373343366
 30
0.0
  0
VERTEX
  5
159
  8
LARGER_ENDPLATE
 10
22.55439916826363
 20
158.7393143876588
 30
0.0
  0
VERTEX
  5
15A
  8
LARGER_ENDPLATE
 10
22.42416596248725
 20
158.9536847232919
 30
0.0
  0
VERTEX
  5
15B
  8
LARGER_ENDPLATE
 10
22.2744915252181
 20
159.1538414384751
 30
0.0
  0
VERTEX
  5
15C
  8
LARGER_ENDPLATE
 10
22.10668275921689
 20
159.3384776304476
 30
0.0
  0
VERTEX
  5
15D
  8
LARGER_ENDPLATE
 10
21.92204656724434
 20
159.5062863964488
 30
0.0
  0
VERTEX
  5
15E
  8
LARGER_ENDPLATE
 10
21.72188985206117
 20
159.655960833718
 30
0.0
  0
VERTEX
  5
15F
  8
LARGER_ENDPLATE
 10
21.5075195164281
 20
159.7861940394944
 30
0.0
  0
VERTEX
  5
160
  8
LARGER_ENDPLATE
 10
21.28024246310584
 20
159.8956791110172
 30
0.0
  0
VERTEX
  5
161
  8
LARGER_ENDPLATE
 10
21.0413655948551
 20
159.9831091455259
 30
0.0
  0
VERTEX
  5
162
  8
LARGER_ENDPLATE
 10
20.79219581443661
 20
160.0471772402597
 30
0.0
  0
VERTEX
  5
163
  8
LARGER_ENDPLATE
 10
20.53404002461109
 20
160.0865764924578
 30
0.0
  0
SEQEND
  5
AB8
  8
LARGER_ENDPLATE
  0
POLYLINE
  5
72
  8
LARGER_ENDPLATE
 66
     1
 10
0.0
 20
0.0
 30
0.0
 70
     1
  0
VERTEX
  5
164
  8
LARGER_ENDPLATE
 10
20.26820512813924
 20
142.5999999994295
 30
0.0
  0
VERTEX
  5
165
  8
LARGER_ENDPLATE
 10
20.00237023166738
 20
142.5865764925278
 30
0.0
  0
VERTEX
  5
166
  8
LARGER_ENDPLATE
 10
19.74421444184184
 20
142.5471772403297
 30
0.0
  0
VERTEX
  5
167
  8
LARGER_ENDPLATE
 10
19.49504466142334
 20
142.483109145596
 30
0.0
  0
VERTEX
  5
168
  8
LARGER_ENDPLATE
 10
19.25616779317259
 20
142.3956791110872
 30
0.0
  0
VERTEX
  5
169
  8
LARGER_ENDPLATE
 10
19.02889073985033
 20
142.2861940395644
 30
0.0
  0
VERTEX
  5
16A
  8
LARGER_ENDPLATE
 10
18.81452040421724
 20
142.155960833788
 30
0.0
  0
VERTEX
  5
16B
  8
LARGER_ENDPLATE
 10
18.61436368903407
 20
142.0062863965188
 30
0.0
  0
VERTEX
  5
16C
  8
LARGER_ENDPLATE
 10
18.42972749706152
 20
141.8384776305176
 30
0.0
  0
VERTEX
  5
16D
  8
LARGER_ENDPLATE
 10
18.26191873106031
 20
141.6538414385451
 30
0.0
  0
VERTEX
  5
16E
  8
LARGER_ENDPLATE
 10
18.11224429379116
 20
141.4536847233619
 30
0.0
  0
VERTEX
  5
16F
  8
LARGER_ENDPLATE
 10
17.98201108801478
 20
141.2393143877288
 30
0.0
  0
VERTEX
  5
170
  8
LARGER_ENDPLATE
 10
17.87252601649189
 20
141.0120373344066
 30
0.0
  0
VERTEX
  5
171
  8
LARGER_ENDPLATE
 10
17.78509598198321
 20
140.7731604661558
 30
0.0
  0
VERTEX
  5
172
  8
LARGER_ENDPLATE
 10
17.72102788724946
 20
140.5239906857373
 30
0.0
  0
VERTEX
  5
173
  8
LARGER_ENDPLATE
 10
17.68162863505135
 20
140.2658348959118
 30
0.0
  0
VERTEX
  5
174
  8
LARGER_ENDPLATE
 10
17.6682051281496
 20
139.9999999994399
 30
0.0
  0
VERTEX
  5
175
  8
LARGER_ENDPLATE
 10
17.68162863505135
 20
139.7341651029681
 30
0.0
  0
VERTEX
  5
176
  8
LARGER_ENDPLATE
 10
17.72102788724947
 20
139.4760093131426
 30
0.0
  0
VERTEX
  5
177
  8
LARGER_ENDPLATE
 10
17.78509598198323
 20
139.2268395327241
 30
0.0
  0
VERTEX
  5
178
  8
LARGER_ENDPLATE
 10
17.87252601649191
 20
138.9879626644733
 30
0.0
  0
VERTEX
  5
179
  8
LARGER_ENDPLATE
 10
17.9820110880148
 20
138.7606856111511
 30
0.0
  0
VERTEX
  5
17A
  8
LARGER_ENDPLATE
 10
18.11224429379118
 20
138.546315275518
 30
0.0
  0
VERTEX
  5
17B
  8
LARGER_ENDPLATE
 10
18.26191873106034
 20
138.3461585603348
 30
0.0
  0
VERTEX
  5
17C
  8
LARGER_ENDPLATE
 10
18.42972749706155
 20
138.1615223683623
 30
0.0
  0
VERTEX
  5
17D
  8
LARGER_ENDPLATE
 10
18.6143636890341
 20
137.9937136023611
 30
0.0
  0
VERTEX
  5
17E
  8
LARGER_ENDPLATE
 10
18.81452040421728
 20
137.8440391650919
 30
0.0
  0
VERTEX
  5
17F
  8
LARGER_ENDPLATE
 10
19.02889073985036
 20
137.7138059593155
 30
0.0
  0
VERTEX
  5
180
  8
LARGER_ENDPLATE
 10
19.25616779317263
 20
137.6043208877926
 30
0.0
  0
VERTEX
  5
181
  8
LARGER_ENDPLATE
 10
19.49504466142337
 20
137.5168908532839
 30
0.0
  0
VERTEX
  5
182
  8
LARGER_ENDPLATE
 10
19.74421444184186
 20
137.4528227585502
 30
0.0
  0
VERTEX
  5
183
  8
LARGER_ENDPLATE
 10
20.00237023166739
 20
137.413423506352
 30
0.0
  0
VERTEX
  5
184
  8
LARGER_ENDPLATE
 10
20.26820512813924
 20
137.3999999994503
 30
0.0
  0
VERTEX
  5
185
  8
LARGER_ENDPLATE
 10
20.53404002461109
 20
137.4134235063521
 30
0.0
  0
VERTEX
  5
186
  8
LARGER_ENDPLATE
 10
20.79219581443661
 20
137.4528227585502
 30
0.0
  0
VERTEX
  5
187
  8
LARGER_ENDPLATE
 10
21.0413655948551
 20
137.5168908532839
 30
0.0
  0
VERTEX
  5
188
  8
LARGER_ENDPLATE
 10
21.28024246310584
 20
137.6043208877926
 30
0.0
  0
VERTEX
  5
189
  8
LARGER_ENDPLATE
 10
21.5075195164281
 20
137.7138059593155
 30
0.0
  0
VERTEX
  5
18A
  8
LARGER_ENDPLATE
 10
21.72188985206117
 20
137.8440391650919
 30
0.0
  0
VERTEX
  5
18B
  8
LARGER_ENDPLATE
 10
21.92204656724434
 20
137.993713602361
 30
0.0
  0
VERTEX
  5
18C
  8
LARGER_ENDPLATE
 10
22.10668275921689
 20
138.1615223683622
 30
0.0
  0
VERTEX
  5
18D
  8
LARGER_ENDPLATE
 10
22.2744915252181
 20
138.3461585603348
 30
0.0
  0
VERTEX
  5
18E
  8
LARGER_ENDPLATE
 10
22.42416596248725
 20
138.546315275518
 30
0.0
  0
VERTEX
  5
18F
  8
LARGER_ENDPLATE
 10
22.55439916826363
 20
138.760685611151
 30
0.0
  0
VERTEX
  5
190
  8
LARGER_ENDPLATE
 10
22.66388423978652
 20
138.9879626644733
 30
0.0
  0
VERTEX
  5
191
  8
LARGER_ENDPLATE
 10
22.7513142742952
 20
139.226839532724
 30
0.0
  0
VERTEX
  5
192
  8
LARGER_ENDPLATE
 10
22.81538236902896
 20
139.4760093131425
 30
0.0
  0
VERTEX
  5
193
  8
LARGER_ENDPLATE
 10
22.85478162122707
 20
139.7341651029681
 30
0.0
  0
VERTEX
  5
194
  8
LARGER_ENDPLATE
 10
22.86820512812882
 20
139.9999999994399
 30
0.0
  0
VERTEX
  5
195
  8
LARGER_ENDPLATE
 10
22.85478162122707
 20
140.2658348959118
 30
0.0
  0
VERTEX
  5
196
  8
LARGER_ENDPLATE
 10
22.81538236902896
 20
140.5239906857373
 30
0.0
  0
VERTEX
  5
197
  8
LARGER_ENDPLATE
 10
22.7513142742952
 20
140.7731604661558
 30
0.0
  0
VERTEX
  5
198
  8
LARGER_ENDPLATE
 10
22.66388423978652
 20
141.0120373344065
 30
0.0
  0
VERTEX
  5
199
  8
LARGER_ENDPLATE
 10
22.55439916826363
 20
141.2393143877288
 30
0.0
  0
VERTEX
  5
19A
  8
LARGER_ENDPLATE
 10
22.42416596248725
 20
141.4536847233619
 30
0.0
  0
VERTEX
  5
19B
  8
LARGER_ENDPLATE
 10
22.2744915252181
 20
141.653841438545
 30
0.0
  0
VERTEX
  5
19C
  8
LARGER_ENDPLATE
 10
22.10668275921689
 20
141.8384776305176
 30
0.0
  0
VERTEX
  5
19D
  8
LARGER_ENDPLATE
 10
21.92204656724434
 20
142.0062863965188
 30
0.0
  0
VERTEX
  5
19E
  8
LARGER_ENDPLATE
 10
21.72188985206117
 20
142.155960833788
 30
0.0
  0
VERTEX
  5
19F
  8
LARGER_ENDPLATE
 10
21.5075195164281
 20
142.2861940395644
 30
0.0
  0
VERTEX
  5
1A0
  8
LARGER_ENDPLATE
 10
21.28024246310584
 20
142.3956791110872
 30
0.0
  0
VERTEX
  5
1A1
  8
LARGER_ENDPLATE
 10
21.0413655948551
 20
142.483109145596
 30
0.0
  0
VERTEX
  5
1A2
  8
LARGER_ENDPLATE
 10
20.79219581443661
 20
142.5471772403297
 30
0.0
  0
VERTEX
  5
1A3
  8
LARGER_ENDPLATE
 10
20.53404002461109
 20
142.5865764925278
 30
0.0
  0
SEQEND
  5
AB9
  8
LARGER_ENDPLATE
  0
POLYLINE
  5
73
  8
LARGER_ENDPLATE
 66
     1
 10
0.0
 20
0.0
 30
0.0
 70
     1
  0
VERTEX
  5
1A4
  8
LARGER_ENDPLATE
 10
20.26820512813924
 20
122.5999999995095
 30
0.0
  0
VERTEX
  5
1A5
  8
LARGER_ENDPLATE
 10
20.00237023166739
 20
122.5865764926078
 30
0.0
  0
VERTEX
  5
1A6
  8
LARGER_ENDPLATE
 10
19.74421444184186
 20
122.5471772404097
 30
0.0
  0
VERTEX
  5
1A7
  8
LARGER_ENDPLATE
 10
19.49504466142336
 20
122.4831091456759
 30
0.0
  0
VERTEX
  5
1A8
  8
LARGER_ENDPLATE
 10
19.25616779317263
 20
122.3956791111673
 30
0.0
  0
VERTEX
  5
1A9
  8
LARGER_ENDPLATE
 10
19.02889073985035
 20
122.2861940396444
 30
0.0
  0
VERTEX
  5
1AA
  8
LARGER_ENDPLATE
 10
18.81452040421728
 20
122.155960833868
 30
0.0
  0
VERTEX
  5
1AB
  8
LARGER_ENDPLATE
 10
18.6143636890341
 20
122.0062863965988
 30
0.0
  0
VERTEX
  5
1AC
  8
LARGER_ENDPLATE
 10
18.42972749706155
 20
121.8384776305976
 30
0.0
  0
VERTEX
  5
1AD
  8
LARGER_ENDPLATE
 10
18.26191873106034
 20
121.6538414386251
 30
0.0
  0
VERTEX
  5
1AE
  8
LARGER_ENDPLATE
 10
18.11224429379119
 20
121.4536847234419
 30
0.0
  0
VERTEX
  5
1AF
  8
LARGER_ENDPLATE
 10
17.9820110880148
 20
121.2393143878088
 30
0.0
  0
VERTEX
  5
1B0
  8
LARGER_ENDPLATE
 10
17.87252601649191
 20
121.0120373344865
 30
0.0
  0
VERTEX
  5
1B1
  8
LARGER_ENDPLATE
 10
17.78509598198323
 20
120.7731604662358
 30
0.0
  0
VERTEX
  5
1B2
  8
LARGER_ENDPLATE
 10
17.72102788724947
 20
120.5239906858173
 30
0.0
  0
VERTEX
  5
1B3
  8
LARGER_ENDPLATE
 10
17.68162863505136
 20
120.2658348959918
 30
0.0
  0
VERTEX
  5
1B4
  8
LARGER_ENDPLATE
 10
17.6682051281496
 20
119.99999999952
 30
0.0
  0
VERTEX
  5
1B5
  8
LARGER_ENDPLATE
 10
17.68162863505135
 20
119.7341651030481
 30
0.0
  0
VERTEX
  5
1B6
  8
LARGER_ENDPLATE
 10
17.72102788724947
 20
119.4760093132226
 30
0.0
  0
VERTEX
  5
1B7
  8
LARGER_ENDPLATE
 10
17.78509598198323
 20
119.2268395328041
 30
0.0
  0
VERTEX
  5
1B8
  8
LARGER_ENDPLATE
 10
17.87252601649191
 20
118.9879626645534
 30
0.0
  0
VERTEX
  5
1B9
  8
LARGER_ENDPLATE
 10
17.98201108801481
 20
118.7606856112311
 30
0.0
  0
VERTEX
  5
1BA
  8
LARGER_ENDPLATE
 10
18.11224429379119
 20
118.546315275598
 30
0.0
  0
VERTEX
  5
1BB
  8
LARGER_ENDPLATE
 10
18.26191873106036
 20
118.3461585604149
 30
0.0
  0
VERTEX
  5
1BC
  8
LARGER_ENDPLATE
 10
18.42972749706157
 20
118.1615223684423
 30
0.0
  0
VERTEX
  5
1BD
  8
LARGER_ENDPLATE
 10
18.61436368903413
 20
117.9937136024411
 30
0.0
  0
VERTEX
  5
1BE
  8
LARGER_ENDPLATE
 10
18.81452040421731
 20
117.8440391651719
 30
0.0
  0
VERTEX
  5
1BF
  8
LARGER_ENDPLATE
 10
19.02889073985039
 20
117.7138059593955
 30
0.0
  0
VERTEX
  5
1C0
  8
LARGER_ENDPLATE
 10
19.25616779317266
 20
117.6043208878726
 30
0.0
  0
VERTEX
  5
1C1
  8
LARGER_ENDPLATE
 10
19.49504466142339
 20
117.516890853364
 30
0.0
  0
VERTEX
  5
1C2
  8
LARGER_ENDPLATE
 10
19.74421444184188
 20
117.4528227586302
 30
0.0
  0
VERTEX
  5
1C3
  8
LARGER_ENDPLATE
 10
20.0023702316674
 20
117.4134235064321
 30
0.0
  0
VERTEX
  5
1C4
  8
LARGER_ENDPLATE
 10
20.26820512813924
 20
117.3999999995303
 30
0.0
  0
VERTEX
  5
1C5
  8
LARGER_ENDPLATE
 10
20.53404002461109
 20
117.4134235064321
 30
0.0
  0
VERTEX
  5
1C6
  8
LARGER_ENDPLATE
 10
20.79219581443661
 20
117.4528227586302
 30
0.0
  0
VERTEX
  5
1C7
  8
LARGER_ENDPLATE
 10
21.0413655948551
 20
117.5168908533639
 30
0.0
  0
VERTEX
  5
1C8
  8
LARGER_ENDPLATE
 10
21.28024246310584
 20
117.6043208878726
 30
0.0
  0
VERTEX
  5
1C9
  8
LARGER_ENDPLATE
 10
21.5075195164281
 20
117.7138059593955
 30
0.0
  0
VERTEX
  5
1CA
  8
LARGER_ENDPLATE
 10
21.72188985206117
 20
117.8440391651719
 30
0.0
  0
VERTEX
  5
1CB
  8
LARGER_ENDPLATE
 10
21.92204656724434
 20
117.9937136024411
 30
0.0
  0
VERTEX
  5
1CC
  8
LARGER_ENDPLATE
 10
22.10668275921689
 20
118.1615223684423
 30
0.0
  0
VERTEX
  5
1CD
  8
LARGER_ENDPLATE
 10
22.2744915252181
 20
118.3461585604148
 30
0.0
  0
VERTEX
  5
1CE
  8
LARGER_ENDPLATE
 10
22.42416596248725
 20
118.546315275598
 30
0.0
  0
VERTEX
  5
1CF
  8
LARGER_ENDPLATE
 10
22.55439916826363
 20
118.7606856112311
 30
0.0
  0
VERTEX
  5
1D0
  8
LARGER_ENDPLATE
 10
22.66388423978652
 20
118.9879626645534
 30
0.0
  0
VERTEX
  5
1D1
  8
LARGER_ENDPLATE
 10
22.7513142742952
 20
119.2268395328041
 30
0.0
  0
VERTEX
  5
1D2
  8
LARGER_ENDPLATE
 10
22.81538236902896
 20
119.4760093132226
 30
0.0
  0
VERTEX
  5
1D3
  8
LARGER_ENDPLATE
 10
22.85478162122707
 20
119.7341651030481
 30
0.0
  0
VERTEX
  5
1D4
  8
LARGER_ENDPLATE
 10
22.86820512812882
 20
119.99999999952
 30
0.0
  0
VERTEX
  5
1D5
  8
LARGER_ENDPLATE
 10
22.85478162122707
 20
120.2658348959918
 30
0.0
  0
VERTEX
  5
1D6
  8
LARGER_ENDPLATE
 10
22.81538236902896
 20
120.5239906858173
 30
0.0
  0
VERTEX
  5
1D7
  8
LARGER_ENDPLATE
 10
22.7513142742952
 20
120.7731604662358
 30
0.0
  0
VERTEX
  5
1D8
  8
LARGER_ENDPLATE
 10
22.66388423978652
 20
121.0120373344865
 30
0.0
  0
VERTEX
  5
1D9
  8
LARGER_ENDPLATE
 10
22.55439916826363
 20
121.2393143878088
 30
0.0
  0
VERTEX
  5
1DA
  8
LARGER_ENDPLATE
 10
22.42416596248725
 20
121.4536847234419
 30
0.0
  0
VERTEX
  5
1DB
  8
LARGER_ENDPLATE
 10
22.2744915252181
 20
121.6538414386251
 30
0.0
  0
VERTEX
  5
1DC
  8
LARGER_ENDPLATE
 10
22.10668275921689
 20
121.8384776305976
 30
0.0
  0
VERTEX
  5
1DD
  8
LARGER_ENDPLATE
 10
21.92204656724434
 20
122.0062863965988
 30
0.0
  0
VERTEX
  5
1DE
  8
LARGER_ENDPLATE
 10
21.72188985206117
 20
122.155960833868
 30
0.0
  0
VERTEX
  5
1DF
  8
LARGER_ENDPLATE
 10
21.5075195164281
 20
122.2861940396444
 30
0.0
  0
VERTEX
  5
1E0
  8
LARGER_ENDPLATE
 10
21.28024246310584
 20
122.3956791111673
 30
0.0
  0
VERTEX
  5
1E1
  8
LARGER_ENDPLATE
 10
21.0413655948551
 20
122.4831091456759
 30
0.0
  0
VERTEX
  5
1E2
  8
LARGER_ENDPLATE
 10
20.79219581443661
 20
122.5471772404097
 30
0.0
  0
VERTEX
  5
1E3
  8
LARGER_ENDPLATE
 10
20.53404002461109
 20
122.5865764926078
 30
0.0
  0
SEQEND
  5
ABA
  8
LARGER_ENDPLATE
  0
POLYLINE
  5
74
  8
LARGER_ENDPLATE
 66
     1
 10
0.0
 20
0.0
 30
0.0
 70
     1
  0
VERTEX
  5
1E4
  8
LARGER_ENDPLATE
 10
20.26820512813924
 20
62.59999999942954
 30
0.0
  0
VERTEX
  5
1E5
  8
LARGER_ENDPLATE
 10
20.00237023166738
 20
62.58657649252779
 30
0.0
  0
VERTEX
  5
1E6
  8
LARGER_ENDPLATE
 10
19.74421444184184
 20
62.54717724032967
 30
0.0
  0
VERTEX
  5
1E7
  8
LARGER_ENDPLATE
 10
19.49504466142334
 20
62.48310914559593
 30
0.0
  0
VERTEX
  5
1E8
  8
LARGER_ENDPLATE
 10
19.25616779317259
 20
62.39567911108725
 30
0.0
  0
VERTEX
  5
1E9
  8
LARGER_ENDPLATE
 10
19.02889073985033
 20
62.28619403956436
 30
0.0
  0
VERTEX
  5
1EA
  8
LARGER_ENDPLATE
 10
18.81452040421724
 20
62.15596083378798
 30
0.0
  0
VERTEX
  5
1EB
  8
LARGER_ENDPLATE
 10
18.61436368903407
 20
62.00628639651882
 30
0.0
  0
VERTEX
  5
1EC
  8
LARGER_ENDPLATE
 10
18.42972749706152
 20
61.83847763051762
 30
0.0
  0
VERTEX
  5
1ED
  8
LARGER_ENDPLATE
 10
18.26191873106031
 20
61.65384143854507
 30
0.0
  0
VERTEX
  5
1EE
  8
LARGER_ENDPLATE
 10
18.11224429379116
 20
61.4536847233619
 30
0.0
  0
VERTEX
  5
1EF
  8
LARGER_ENDPLATE
 10
17.98201108801478
 20
61.23931438772881
 30
0.0
  0
VERTEX
  5
1F0
  8
LARGER_ENDPLATE
 10
17.87252601649189
 20
61.01203733440654
 30
0.0
  0
VERTEX
  5
1F1
  8
LARGER_ENDPLATE
 10
17.78509598198321
 20
60.7731604661558
 30
0.0
  0
VERTEX
  5
1F2
  8
LARGER_ENDPLATE
 10
17.72102788724946
 20
60.52399068573731
 30
0.0
  0
VERTEX
  5
1F3
  8
LARGER_ENDPLATE
 10
17.68162863505135
 20
60.26583489591178
 30
0.0
  0
VERTEX
  5
1F4
  8
LARGER_ENDPLATE
 10
17.6682051281496
 20
59.99999999943992
 30
0.0
  0
VERTEX
  5
1F5
  8
LARGER_ENDPLATE
 10
17.68162863505135
 20
59.73416510296808
 30
0.0
  0
VERTEX
  5
1F6
  8
LARGER_ENDPLATE
 10
17.72102788724947
 20
59.47600931314256
 30
0.0
  0
VERTEX
  5
1F7
  8
LARGER_ENDPLATE
 10
17.78509598198323
 20
59.22683953272407
 30
0.0
  0
VERTEX
  5
1F8
  8
LARGER_ENDPLATE
 10
17.87252601649191
 20
58.98796266447333
 30
0.0
  0
VERTEX
  5
1F9
  8
LARGER_ENDPLATE
 10
17.9820110880148
 20
58.76068561115106
 30
0.0
  0
VERTEX
  5
1FA
  8
LARGER_ENDPLATE
 10
18.11224429379118
 20
58.54631527551798
 30
0.0
  0
VERTEX
  5
1FB
  8
LARGER_ENDPLATE
 10
18.26191873106034
 20
58.34615856033481
 30
0.0
  0
VERTEX
  5
1FC
  8
LARGER_ENDPLATE
 10
18.42972749706155
 20
58.16152236836226
 30
0.0
  0
VERTEX
  5
1FD
  8
LARGER_ENDPLATE
 10
18.6143636890341
 20
57.99371360236105
 30
0.0
  0
VERTEX
  5
1FE
  8
LARGER_ENDPLATE
 10
18.81452040421728
 20
57.84403916509189
 30
0.0
  0
VERTEX
  5
1FF
  8
LARGER_ENDPLATE
 10
19.02889073985036
 20
57.71380595931551
 30
0.0
  0
VERTEX
  5
200
  8
LARGER_ENDPLATE
 10
19.25616779317263
 20
57.60432088779262
 30
0.0
  0
VERTEX
  5
201
  8
LARGER_ENDPLATE
 10
19.49504466142337
 20
57.51689085328394
 30
0.0
  0
VERTEX
  5
202
  8
LARGER_ENDPLATE
 10
19.74421444184186
 20
57.45282275855018
 30
0.0
  0
VERTEX
  5
203
  8
LARGER_ENDPLATE
 10
20.00237023166739
 20
57.41342350635207
 30
0.0
  0
VERTEX
  5
204
  8
LARGER_ENDPLATE
 10
20.26820512813924
 20
57.39999999945033
 30
0.0
  0
VERTEX
  5
205
  8
LARGER_ENDPLATE
 10
20.53404002461109
 20
57.41342350635208
 30
0.0
  0
VERTEX
  5
206
  8
LARGER_ENDPLATE
 10
20.79219581443661
 20
57.4528227585502
 30
0.0
  0
VERTEX
  5
207
  8
LARGER_ENDPLATE
 10
21.0413655948551
 20
57.51689085328395
 30
0.0
  0
VERTEX
  5
208
  8
LARGER_ENDPLATE
 10
21.28024246310584
 20
57.60432088779262
 30
0.0
  0
VERTEX
  5
209
  8
LARGER_ENDPLATE
 10
21.5075195164281
 20
57.71380595931551
 30
0.0
  0
VERTEX
  5
20A
  8
LARGER_ENDPLATE
 10
21.72188985206117
 20
57.84403916509189
 30
0.0
  0
VERTEX
  5
20B
  8
LARGER_ENDPLATE
 10
21.92204656724434
 20
57.99371360236105
 30
0.0
  0
VERTEX
  5
20C
  8
LARGER_ENDPLATE
 10
22.10668275921689
 20
58.16152236836226
 30
0.0
  0
VERTEX
  5
20D
  8
LARGER_ENDPLATE
 10
22.2744915252181
 20
58.3461585603348
 30
0.0
  0
VERTEX
  5
20E
  8
LARGER_ENDPLATE
 10
22.42416596248725
 20
58.54631527551797
 30
0.0
  0
VERTEX
  5
20F
  8
LARGER_ENDPLATE
 10
22.55439916826363
 20
58.76068561115105
 30
0.0
  0
VERTEX
  5
210
  8
LARGER_ENDPLATE
 10
22.66388423978652
 20
58.98796266447332
 30
0.0
  0
VERTEX
  5
211
  8
LARGER_ENDPLATE
 10
22.7513142742952
 20
59.22683953272405
 30
0.0
  0
VERTEX
  5
212
  8
LARGER_ENDPLATE
 10
22.81538236902896
 20
59.47600931314254
 30
0.0
  0
VERTEX
  5
213
  8
LARGER_ENDPLATE
 10
22.85478162122707
 20
59.73416510296807
 30
0.0
  0
VERTEX
  5
214
  8
LARGER_ENDPLATE
 10
22.86820512812882
 20
59.99999999943992
 30
0.0
  0
VERTEX
  5
215
  8
LARGER_ENDPLATE
 10
22.85478162122707
 20
60.26583489591177
 30
0.0
  0
VERTEX
  5
216
  8
LARGER_ENDPLATE
 10
22.81538236902896
 20
60.5239906857373
 30
0.0
  0
VERTEX
  5
217
  8
LARGER_ENDPLATE
 10
22.7513142742952
 20
60.77316046615579
 30
0.0
  0
VERTEX
  5
218
  8
LARGER_ENDPLATE
 10
22.66388423978652
 20
61.01203733440653
 30
0.0
  0
VERTEX
  5
219
  8
LARGER_ENDPLATE
 10
22.55439916826363
 20
61.2393143877288
 30
0.0
  0
VERTEX
  5
21A
  8
LARGER_ENDPLATE
 10
22.42416596248725
 20
61.45368472336188
 30
0.0
  0
VERTEX
  5
21B
  8
LARGER_ENDPLATE
 10
22.2744915252181
 20
61.65384143854506
 30
0.0
  0
VERTEX
  5
21C
  8
LARGER_ENDPLATE
 10
22.10668275921689
 20
61.8384776305176
 30
0.0
  0
VERTEX
  5
21D
  8
LARGER_ENDPLATE
 10
21.92204656724434
 20
62.00628639651882
 30
0.0
  0
VERTEX
  5
21E
  8
LARGER_ENDPLATE
 10
21.72188985206117
 20
62.15596083378797
 30
0.0
  0
VERTEX
  5
21F
  8
LARGER_ENDPLATE
 10
21.5075195164281
 20
62.28619403956435
 30
0.0
  0
VERTEX
  5
220
  8
LARGER_ENDPLATE
 10
21.28024246310584
 20
62.39567911108724
 30
0.0
  0
VERTEX
  5
221
  8
LARGER_ENDPLATE
 10
21.0413655948551
 20
62.48310914559592
 30
0.0
  0
VERTEX
  5
222
  8
LARGER_ENDPLATE
 10
20.79219581443661
 20
62.54717724032967
 30
0.0
  0
VERTEX
  5
223
  8
LARGER_ENDPLATE
 10
20.53404002461109
 20
62.58657649252779
 30
0.0
  0
SEQEND
  5
ABB
  8
LARGER_ENDPLATE
  0
POLYLINE
  5
75
  8
LARGER_ENDPLATE
 66
     1
 10
0.0
 20
0.0
 30
0.0
 70
     1
  0
VERTEX
  5
224
  8
LARGER_ENDPLATE
 10
20.26820512813924
 20
42.59999999950955
 30
0.0
  0
VERTEX
  5
225
  8
LARGER_ENDPLATE
 10
20.00237023166739
 20
42.5865764926078
 30
0.0
  0
VERTEX
  5
226
  8
LARGER_ENDPLATE
 10
19.74421444184186
 20
42.54717724040968
 30
0.0
  0
VERTEX
  5
227
  8
LARGER_ENDPLATE
 10
19.49504466142336
 20
42.48310914567593
 30
0.0
  0
VERTEX
  5
228
  8
LARGER_ENDPLATE
 10
19.25616779317263
 20
42.39567911116725
 30
0.0
  0
VERTEX
  5
229
  8
LARGER_ENDPLATE
 10
19.02889073985035
 20
42.28619403964436
 30
0.0
  0
VERTEX
  5
22A
  8
LARGER_ENDPLATE
 10
18.81452040421728
 20
42.15596083386797
 30
0.0
  0
VERTEX
  5
22B
  8
LARGER_ENDPLATE
 10
18.6143636890341
 20
42.00628639659882
 30
0.0
  0
VERTEX
  5
22C
  8
LARGER_ENDPLATE
 10
18.42972749706155
 20
41.83847763059761
 30
0.0
  0
VERTEX
  5
22D
  8
LARGER_ENDPLATE
 10
18.26191873106034
 20
41.65384143862505
 30
0.0
  0
VERTEX
  5
22E
  8
LARGER_ENDPLATE
 10
18.11224429379119
 20
41.45368472344188
 30
0.0
  0
VERTEX
  5
22F
  8
LARGER_ENDPLATE
 10
17.9820110880148
 20
41.2393143878088
 30
0.0
  0
VERTEX
  5
230
  8
LARGER_ENDPLATE
 10
17.87252601649191
 20
41.01203733448654
 30
0.0
  0
VERTEX
  5
231
  8
LARGER_ENDPLATE
 10
17.78509598198323
 20
40.7731604662358
 30
0.0
  0
VERTEX
  5
232
  8
LARGER_ENDPLATE
 10
17.72102788724947
 20
40.52399068581731
 30
0.0
  0
VERTEX
  5
233
  8
LARGER_ENDPLATE
 10
17.68162863505136
 20
40.26583489599179
 30
0.0
  0
VERTEX
  5
234
  8
LARGER_ENDPLATE
 10
17.6682051281496
 20
39.99999999951996
 30
0.0
  0
VERTEX
  5
235
  8
LARGER_ENDPLATE
 10
17.68162863505135
 20
39.73416510304812
 30
0.0
  0
VERTEX
  5
236
  8
LARGER_ENDPLATE
 10
17.72102788724947
 20
39.4760093132226
 30
0.0
  0
VERTEX
  5
237
  8
LARGER_ENDPLATE
 10
17.78509598198323
 20
39.22683953280411
 30
0.0
  0
VERTEX
  5
238
  8
LARGER_ENDPLATE
 10
17.87252601649191
 20
38.98796266455338
 30
0.0
  0
VERTEX
  5
239
  8
LARGER_ENDPLATE
 10
17.98201108801481
 20
38.76068561123111
 30
0.0
  0
VERTEX
  5
23A
  8
LARGER_ENDPLATE
 10
18.11224429379119
 20
38.54631527559803
 30
0.0
  0
VERTEX
  5
23B
  8
LARGER_ENDPLATE
 10
18.26191873106036
 20
38.34615856041486
 30
0.0
  0
VERTEX
  5
23C
  8
LARGER_ENDPLATE
 10
18.42972749706157
 20
38.16152236844231
 30
0.0
  0
VERTEX
  5
23D
  8
LARGER_ENDPLATE
 10
18.61436368903413
 20
37.99371360244109
 30
0.0
  0
VERTEX
  5
23E
  8
LARGER_ENDPLATE
 10
18.81452040421731
 20
37.84403916517193
 30
0.0
  0
VERTEX
  5
23F
  8
LARGER_ENDPLATE
 10
19.02889073985039
 20
37.71380595939554
 30
0.0
  0
VERTEX
  5
240
  8
LARGER_ENDPLATE
 10
19.25616779317266
 20
37.60432088787265
 30
0.0
  0
VERTEX
  5
241
  8
LARGER_ENDPLATE
 10
19.49504466142339
 20
37.51689085336396
 30
0.0
  0
VERTEX
  5
242
  8
LARGER_ENDPLATE
 10
19.74421444184188
 20
37.45282275863021
 30
0.0
  0
VERTEX
  5
243
  8
LARGER_ENDPLATE
 10
20.0023702316674
 20
37.41342350643209
 30
0.0
  0
VERTEX
  5
244
  8
LARGER_ENDPLATE
 10
20.26820512813924
 20
37.39999999953034
 30
0.0
  0
VERTEX
  5
245
  8
LARGER_ENDPLATE
 10
20.53404002461109
 20
37.41342350643209
 30
0.0
  0
VERTEX
  5
246
  8
LARGER_ENDPLATE
 10
20.79219581443661
 20
37.45282275863021
 30
0.0
  0
VERTEX
  5
247
  8
LARGER_ENDPLATE
 10
21.0413655948551
 20
37.51689085336396
 30
0.0
  0
VERTEX
  5
248
  8
LARGER_ENDPLATE
 10
21.28024246310584
 20
37.60432088787264
 30
0.0
  0
VERTEX
  5
249
  8
LARGER_ENDPLATE
 10
21.5075195164281
 20
37.71380595939553
 30
0.0
  0
VERTEX
  5
24A
  8
LARGER_ENDPLATE
 10
21.72188985206117
 20
37.84403916517191
 30
0.0
  0
VERTEX
  5
24B
  8
LARGER_ENDPLATE
 10
21.92204656724434
 20
37.99371360244106
 30
0.0
  0
VERTEX
  5
24C
  8
LARGER_ENDPLATE
 10
22.10668275921689
 20
38.16152236844228
 30
0.0
  0
VERTEX
  5
24D
  8
LARGER_ENDPLATE
 10
22.2744915252181
 20
38.34615856041482
 30
0.0
  0
VERTEX
  5
24E
  8
LARGER_ENDPLATE
 10
22.42416596248725
 20
38.546315275598
 30
0.0
  0
VERTEX
  5
24F
  8
LARGER_ENDPLATE
 10
22.55439916826363
 20
38.76068561123108
 30
0.0
  0
VERTEX
  5
250
  8
LARGER_ENDPLATE
 10
22.66388423978652
 20
38.98796266455335
 30
0.0
  0
VERTEX
  5
251
  8
LARGER_ENDPLATE
 10
22.7513142742952
 20
39.22683953280409
 30
0.0
  0
VERTEX
  5
252
  8
LARGER_ENDPLATE
 10
22.81538236902896
 20
39.47600931322258
 30
0.0
  0
VERTEX
  5
253
  8
LARGER_ENDPLATE
 10
22.85478162122707
 20
39.73416510304811
 30
0.0
  0
VERTEX
  5
254
  8
LARGER_ENDPLATE
 10
22.86820512812882
 20
39.99999999951996
 30
0.0
  0
VERTEX
  5
255
  8
LARGER_ENDPLATE
 10
22.85478162122707
 20
40.2658348959918
 30
0.0
  0
VERTEX
  5
256
  8
LARGER_ENDPLATE
 10
22.81538236902896
 20
40.52399068581732
 30
0.0
  0
VERTEX
  5
257
  8
LARGER_ENDPLATE
 10
22.7513142742952
 20
40.77316046623582
 30
0.0
  0
VERTEX
  5
258
  8
LARGER_ENDPLATE
 10
22.66388423978652
 20
41.01203733448655
 30
0.0
  0
VERTEX
  5
259
  8
LARGER_ENDPLATE
 10
22.55439916826363
 20
41.23931438780882
 30
0.0
  0
VERTEX
  5
25A
  8
LARGER_ENDPLATE
 10
22.42416596248725
 20
41.4536847234419
 30
0.0
  0
VERTEX
  5
25B
  8
LARGER_ENDPLATE
 10
22.2744915252181
 20
41.65384143862507
 30
0.0
  0
VERTEX
  5
25C
  8
LARGER_ENDPLATE
 10
22.10668275921689
 20
41.83847763059762
 30
0.0
  0
VERTEX
  5
25D
  8
LARGER_ENDPLATE
 10
21.92204656724434
 20
42.00628639659882
 30
0.0
  0
VERTEX
  5
25E
  8
LARGER_ENDPLATE
 10
21.72188985206117
 20
42.15596083386798
 30
0.0
  0
VERTEX
  5
25F
  8
LARGER_ENDPLATE
 10
21.5075195164281
 20
42.28619403964436
 30
0.0
  0
VERTEX
  5
260
  8
LARGER_ENDPLATE
 10
21.28024246310584
 20
42.39567911116725
 30
0.0
  0
VERTEX
  5
261
  8
LARGER_ENDPLATE
 10
21.0413655948551
 20
42.48310914567593
 30
0.0
  0
VERTEX
  5
262
  8
LARGER_ENDPLATE
 10
20.79219581443661
 20
42.54717724040968
 30
0.0
  0
VERTEX
  5
263
  8
LARGER_ENDPLATE
 10
20.53404002461109
 20
42.5865764926078
 30
0.0
  0
SEQEND
  5
ABC
  8
LARGER_ENDPLATE
  0
POLYLINE
  5
76
  8
LARGER_ENDPLATE
 66
     1
 10
0.0
 20
0.0
 30
0.0
 70
     1
  0
VERTEX
  5
264
  8
LARGER_ENDPLATE
 10
13.76820512816517
 20
12.59999999994959
 30
0.0
  0
VERTEX
  5
265
  8
LARGER_ENDPLATE
 10
13.50237023169332
 20
12.58657649304784
 30
0.0
  0
VERTEX
  5
266
  8
LARGER_ENDPLATE
 10
13.24421444186779
 20
12.54717724084972
 30
0.0
  0
VERTEX
  5
267
  8
LARGER_ENDPLATE
 10
12.9950446614493
 20
12.48310914611597
 30
0.0
  0
VERTEX
  5
268
  8
LARGER_ENDPLATE
 10
12.75616779319855
 20
12.39567911160729
 30
0.0
  0
VERTEX
  5
269
  8
LARGER_ENDPLATE
 10
12.52889073987629
 20
12.2861940400844
 30
0.0
  0
VERTEX
  5
26A
  8
LARGER_ENDPLATE
 10
12.31452040424321
 20
12.15596083430802
 30
0.0
  0
VERTEX
  5
26B
  8
LARGER_ENDPLATE
 10
12.11436368906003
 20
12.00628639703887
 30
0.0
  0
VERTEX
  5
26C
  8
LARGER_ENDPLATE
 10
11.92972749708749
 20
11.83847763103766
 30
0.0
  0
VERTEX
  5
26D
  8
LARGER_ENDPLATE
 10
11.76191873108628
 20
11.65384143906511
 30
0.0
  0
VERTEX
  5
26E
  8
LARGER_ENDPLATE
 10
11.61224429381712
 20
11.45368472388193
 30
0.0
  0
VERTEX
  5
26F
  8
LARGER_ENDPLATE
 10
11.48201108804074
 20
11.23931438824886
 30
0.0
  0
VERTEX
  5
270
  8
LARGER_ENDPLATE
 10
11.37252601651785
 20
11.01203733492659
 30
0.0
  0
VERTEX
  5
271
  8
LARGER_ENDPLATE
 10
11.28509598200918
 20
10.77316046667585
 30
0.0
  0
VERTEX
  5
272
  8
LARGER_ENDPLATE
 10
11.22102788727542
 20
10.52399068625736
 30
0.0
  0
VERTEX
  5
273
  8
LARGER_ENDPLATE
 10
11.18162863507731
 20
10.26583489643183
 30
0.0
  0
VERTEX
  5
274
  8
LARGER_ENDPLATE
 10
11.16820512817556
 20
9.999999999959982
 30
0.0
  0
VERTEX
  5
275
  8
LARGER_ENDPLATE
 10
11.18162863507731
 20
9.734165103488136
 30
0.0
  0
VERTEX
  5
276
  8
LARGER_ENDPLATE
 10
11.22102788727542
 20
9.476009313662608
 30
0.0
  0
VERTEX
  5
277
  8
LARGER_ENDPLATE
 10
11.28509598200918
 20
9.226839533244117
 30
0.0
  0
VERTEX
  5
278
  8
LARGER_ENDPLATE
 10
11.37252601651785
 20
8.987962664993383
 30
0.0
  0
VERTEX
  5
279
  8
LARGER_ENDPLATE
 10
11.48201108804074
 20
8.760685611671118
 30
0.0
  0
VERTEX
  5
27A
  8
LARGER_ENDPLATE
 10
11.61224429381712
 20
8.54631527603804
 30
0.0
  0
VERTEX
  5
27B
  8
LARGER_ENDPLATE
 10
11.76191873108628
 20
8.346158560854867
 30
0.0
  0
VERTEX
  5
27C
  8
LARGER_ENDPLATE
 10
11.92972749708749
 20
8.161522368882318
 30
0.0
  0
VERTEX
  5
27D
  8
LARGER_ENDPLATE
 10
12.11436368906003
 20
7.993713602881108
 30
0.0
  0
VERTEX
  5
27E
  8
LARGER_ENDPLATE
 10
12.31452040424321
 20
7.844039165611955
 30
0.0
  0
VERTEX
  5
27F
  8
LARGER_ENDPLATE
 10
12.52889073987629
 20
7.713805959835576
 30
0.0
  0
VERTEX
  5
280
  8
LARGER_ENDPLATE
 10
12.75616779319855
 20
7.604320888312689
 30
0.0
  0
VERTEX
  5
281
  8
LARGER_ENDPLATE
 10
12.9950446614493
 20
7.516890853804009
 30
0.0
  0
VERTEX
  5
282
  8
LARGER_ENDPLATE
 10
13.24421444186779
 20
7.452822759070254
 30
0.0
  0
VERTEX
  5
283
  8
LARGER_ENDPLATE
 10
13.50237023169332
 20
7.413423506872142
 30
0.0
  0
VERTEX
  5
284
  8
LARGER_ENDPLATE
 10
13.76820512816517
 20
7.39999999997039
 30
0.0
  0
VERTEX
  5
285
  8
LARGER_ENDPLATE
 10
14.03404002463701
 20
7.413423506872142
 30
0.0
  0
VERTEX
  5
286
  8
LARGER_ENDPLATE
 10
14.29219581446253
 20
7.452822759070256
 30
0.0
  0
VERTEX
  5
287
  8
LARGER_ENDPLATE
 10
14.54136559488103
 20
7.516890853804012
 30
0.0
  0
VERTEX
  5
288
  8
LARGER_ENDPLATE
 10
14.78024246313176
 20
7.604320888312692
 30
0.0
  0
VERTEX
  5
289
  8
LARGER_ENDPLATE
 10
15.00751951645402
 20
7.713805959835582
 30
0.0
  0
VERTEX
  5
28A
  8
LARGER_ENDPLATE
 10
15.2218898520871
 20
7.844039165611964
 30
0.0
  0
VERTEX
  5
28B
  8
LARGER_ENDPLATE
 10
15.42204656727028
 20
7.993713602881117
 30
0.0
  0
VERTEX
  5
28C
  8
LARGER_ENDPLATE
 10
15.60668275924283
 20
8.161522368882329
 30
0.0
  0
VERTEX
  5
28D
  8
LARGER_ENDPLATE
 10
15.77449152524404
 20
8.34615856085488
 30
0.0
  0
VERTEX
  5
28E
  8
LARGER_ENDPLATE
 10
15.9241659625132
 20
8.546315276038053
 30
0.0
  0
VERTEX
  5
28F
  8
LARGER_ENDPLATE
 10
16.05439916828958
 20
8.760685611671128
 30
0.0
  0
VERTEX
  5
290
  8
LARGER_ENDPLATE
 10
16.16388423981247
 20
8.987962664993393
 30
0.0
  0
VERTEX
  5
291
  8
LARGER_ENDPLATE
 10
16.25131427432115
 20
9.226839533244128
 30
0.0
  0
VERTEX
  5
292
  8
LARGER_ENDPLATE
 10
16.31538236905491
 20
9.476009313662617
 30
0.0
  0
VERTEX
  5
293
  8
LARGER_ENDPLATE
 10
16.35478162125303
 20
9.73416510348814
 30
0.0
  0
VERTEX
  5
294
  8
LARGER_ENDPLATE
 10
16.36820512815478
 20
9.999999999959982
 30
0.0
  0
VERTEX
  5
295
  8
LARGER_ENDPLATE
 10
16.35478162125303
 20
10.26583489643184
 30
0.0
  0
VERTEX
  5
296
  8
LARGER_ENDPLATE
 10
16.31538236905492
 20
10.52399068625737
 30
0.0
  0
VERTEX
  5
297
  8
LARGER_ENDPLATE
 10
16.25131427432117
 20
10.77316046667586
 30
0.0
  0
VERTEX
  5
298
  8
LARGER_ENDPLATE
 10
16.16388423981249
 20
11.0120373349266
 30
0.0
  0
VERTEX
  5
299
  8
LARGER_ENDPLATE
 10
16.0543991682896
 20
11.23931438824887
 30
0.0
  0
VERTEX
  5
29A
  8
LARGER_ENDPLATE
 10
15.92416596251322
 20
11.45368472388195
 30
0.0
  0
VERTEX
  5
29B
  8
LARGER_ENDPLATE
 10
15.77449152524407
 20
11.65384143906512
 30
0.0
  0
VERTEX
  5
29C
  8
LARGER_ENDPLATE
 10
15.60668275924286
 20
11.83847763103767
 30
0.0
  0
VERTEX
  5
29D
  8
LARGER_ENDPLATE
 10
15.42204656727031
 20
12.00628639703888
 30
0.0
  0
VERTEX
  5
29E
  8
LARGER_ENDPLATE
 10
15.22188985208714
 20
12.15596083430803
 30
0.0
  0
VERTEX
  5
29F
  8
LARGER_ENDPLATE
 10
15.00751951645406
 20
12.28619404008441
 30
0.0
  0
VERTEX
  5
2A0
  8
LARGER_ENDPLATE
 10
14.7802424631318
 20
12.39567911160729
 30
0.0
  0
VERTEX
  5
2A1
  8
LARGER_ENDPLATE
 10
14.54136559488105
 20
12.48310914611597
 30
0.0
  0
VERTEX
  5
2A2
  8
LARGER_ENDPLATE
 10
14.29219581446256
 20
12.54717724084972
 30
0.0
  0
VERTEX
  5
2A3
  8
LARGER_ENDPLATE
 10
14.03404002463703
 20
12.58657649304784
 30
0.0
  0
SEQEND
  5
ABD
  8
LARGER_ENDPLATE
  0
POLYLINE
  5
77
  8
LARGER_ENDPLATE
 66
     1
 10
0.0
 20
0.0
 30
0.0
 70
     1
  0
VERTEX
  5
2A4
  8
LARGER_ENDPLATE
 10
53.76820512792507
 20
12.59999999994959
 30
0.0
  0
VERTEX
  5
2A5
  8
LARGER_ENDPLATE
 10
53.50237023145323
 20
12.58657649304784
 30
0.0
  0
VERTEX
  5
2A6
  8
LARGER_ENDPLATE
 10
53.2442144416277
 20
12.54717724084972
 30
0.0
  0
VERTEX
  5
2A7
  8
LARGER_ENDPLATE
 10
52.99504466120921
 20
12.48310914611597
 30
0.0
  0
VERTEX
  5
2A8
  8
LARGER_ENDPLATE
 10
52.75616779295848
 20
12.39567911160729
 30
0.0
  0
VERTEX
  5
2A9
  8
LARGER_ENDPLATE
 10
52.52889073963622
 20
12.2861940400844
 30
0.0
  0
VERTEX
  5
2AA
  8
LARGER_ENDPLATE
 10
52.31452040400315
 20
12.15596083430802
 30
0.0
  0
VERTEX
  5
2AB
  8
LARGER_ENDPLATE
 10
52.11436368881999
 20
12.00628639703887
 30
0.0
  0
VERTEX
  5
2AC
  8
LARGER_ENDPLATE
 10
51.92972749684745
 20
11.83847763103766
 30
0.0
  0
VERTEX
  5
2AD
  8
LARGER_ENDPLATE
 10
51.76191873084625
 20
11.65384143906511
 30
0.0
  0
VERTEX
  5
2AE
  8
LARGER_ENDPLATE
 10
51.6122442935771
 20
11.45368472388193
 30
0.0
  0
VERTEX
  5
2AF
  8
LARGER_ENDPLATE
 10
51.48201108780073
 20
11.23931438824886
 30
0.0
  0
VERTEX
  5
2B0
  8
LARGER_ENDPLATE
 10
51.37252601627785
 20
11.01203733492659
 30
0.0
  0
VERTEX
  5
2B1
  8
LARGER_ENDPLATE
 10
51.28509598176917
 20
10.77316046667585
 30
0.0
  0
VERTEX
  5
2B2
  8
LARGER_ENDPLATE
 10
51.22102788703543
 20
10.52399068625736
 30
0.0
  0
VERTEX
  5
2B3
  8
LARGER_ENDPLATE
 10
51.18162863483731
 20
10.26583489643183
 30
0.0
  0
VERTEX
  5
2B4
  8
LARGER_ENDPLATE
 10
51.16820512793556
 20
9.999999999959982
 30
0.0
  0
VERTEX
  5
2B5
  8
LARGER_ENDPLATE
 10
51.18162863483731
 20
9.734165103488136
 30
0.0
  0
VERTEX
  5
2B6
  8
LARGER_ENDPLATE
 10
51.22102788703543
 20
9.476009313662608
 30
0.0
  0
VERTEX
  5
2B7
  8
LARGER_ENDPLATE
 10
51.28509598176917
 20
9.226839533244117
 30
0.0
  0
VERTEX
  5
2B8
  8
LARGER_ENDPLATE
 10
51.37252601627785
 20
8.987962664993383
 30
0.0
  0
VERTEX
  5
2B9
  8
LARGER_ENDPLATE
 10
51.48201108780073
 20
8.760685611671118
 30
0.0
  0
VERTEX
  5
2BA
  8
LARGER_ENDPLATE
 10
51.6122442935771
 20
8.54631527603804
 30
0.0
  0
VERTEX
  5
2BB
  8
LARGER_ENDPLATE
 10
51.76191873084625
 20
8.346158560854867
 30
0.0
  0
VERTEX
  5
2BC
  8
LARGER_ENDPLATE
 10
51.92972749684745
 20
8.161522368882318
 30
0.0
  0
VERTEX
  5
2BD
  8
LARGER_ENDPLATE
 10
52.11436368881999
 20
7.993713602881108
 30
0.0
  0
VERTEX
  5
2BE
  8
LARGER_ENDPLATE
 10
52.31452040400315
 20
7.844039165611955
 30
0.0
  0
VERTEX
  5
2BF
  8
LARGER_ENDPLATE
 10
52.52889073963622
 20
7.713805959835576
 30
0.0
  0
VERTEX
  5
2C0
  8
LARGER_ENDPLATE
 10
52.75616779295848
 20
7.604320888312689
 30
0.0
  0
VERTEX
  5
2C1
  8
LARGER_ENDPLATE
 10
52.99504466120921
 20
7.516890853804009
 30
0.0
  0
VERTEX
  5
2C2
  8
LARGER_ENDPLATE
 10
53.2442144416277
 20
7.452822759070254
 30
0.0
  0
VERTEX
  5
2C3
  8
LARGER_ENDPLATE
 10
53.50237023145323
 20
7.413423506872142
 30
0.0
  0
VERTEX
  5
2C4
  8
LARGER_ENDPLATE
 10
53.76820512792507
 20
7.39999999997039
 30
0.0
  0
VERTEX
  5
2C5
  8
LARGER_ENDPLATE
 10
54.03404002439693
 20
7.413423506872142
 30
0.0
  0
VERTEX
  5
2C6
  8
LARGER_ENDPLATE
 10
54.29219581422246
 20
7.452822759070252
 30
0.0
  0
VERTEX
  5
2C7
  8
LARGER_ENDPLATE
 10
54.54136559464095
 20
7.516890853804005
 30
0.0
  0
VERTEX
  5
2C8
  8
LARGER_ENDPLATE
 10
54.78024246289168
 20
7.604320888312682
 30
0.0
  0
VERTEX
  5
2C9
  8
LARGER_ENDPLATE
 10
55.00751951621393
 20
7.713805959835568
 30
0.0
  0
VERTEX
  5
2CA
  8
LARGER_ENDPLATE
 10
55.22188985184699
 20
7.844039165611944
 30
0.0
  0
VERTEX
  5
2CB
  8
LARGER_ENDPLATE
 10
55.42204656703014
 20
7.993713602881095
 30
0.0
  0
VERTEX
  5
2CC
  8
LARGER_ENDPLATE
 10
55.60668275900268
 20
8.161522368882302
 30
0.0
  0
VERTEX
  5
2CD
  8
LARGER_ENDPLATE
 10
55.77449152500387
 20
8.34615856085485
 30
0.0
  0
VERTEX
  5
2CE
  8
LARGER_ENDPLATE
 10
55.924165962273
 20
8.54631527603802
 30
0.0
  0
VERTEX
  5
2CF
  8
LARGER_ENDPLATE
 10
56.05439916804936
 20
8.760685611671098
 30
0.0
  0
VERTEX
  5
2D0
  8
LARGER_ENDPLATE
 10
56.16388423957223
 20
8.987962664993365
 30
0.0
  0
VERTEX
  5
2D1
  8
LARGER_ENDPLATE
 10
56.25131427408089
 20
9.226839533244103
 30
0.0
  0
VERTEX
  5
2D2
  8
LARGER_ENDPLATE
 10
56.31538236881464
 20
9.476009313662598
 30
0.0
  0
VERTEX
  5
2D3
  8
LARGER_ENDPLATE
 10
56.35478162101275
 20
9.73416510348813
 30
0.0
  0
VERTEX
  5
2D4
  8
LARGER_ENDPLATE
 10
56.36820512791449
 20
9.999999999959982
 30
0.0
  0
VERTEX
  5
2D5
  8
LARGER_ENDPLATE
 10
56.35478162101276
 20
10.26583489643184
 30
0.0
  0
VERTEX
  5
2D6
  8
LARGER_ENDPLATE
 10
56.31538236881465
 20
10.52399068625738
 30
0.0
  0
VERTEX
  5
2D7
  8
LARGER_ENDPLATE
 10
56.25131427408091
 20
10.77316046667588
 30
0.0
  0
VERTEX
  5
2D8
  8
LARGER_ENDPLATE
 10
56.16388423957225
 20
11.01203733492662
 30
0.0
  0
VERTEX
  5
2D9
  8
LARGER_ENDPLATE
 10
56.05439916804937
 20
11.23931438824888
 30
0.0
  0
VERTEX
  5
2DA
  8
LARGER_ENDPLATE
 10
55.92416596227301
 20
11.45368472388196
 30
0.0
  0
VERTEX
  5
2DB
  8
LARGER_ENDPLATE
 10
55.77449152500387
 20
11.65384143906513
 30
0.0
  0
VERTEX
  5
2DC
  8
LARGER_ENDPLATE
 10
55.60668275900268
 20
11.83847763103768
 30
0.0
  0
VERTEX
  5
2DD
  8
LARGER_ENDPLATE
 10
55.42204656703014
 20
12.00628639703889
 30
0.0
  0
VERTEX
  5
2DE
  8
LARGER_ENDPLATE
 10
55.22188985184698
 20
12.15596083430804
 30
0.0
  0
VERTEX
  5
2DF
  8
LARGER_ENDPLATE
 10
55.00751951621391
 20
12.28619404008441
 30
0.0
  0
VERTEX
  5
2E0
  8
LARGER_ENDPLATE
 10
54.78024246289166
 20
12.3956791116073
 30
0.0
  0
VERTEX
  5
2E1
  8
LARGER_ENDPLATE
 10
54.54136559464093
 20
12.48310914611598
 30
0.0
  0
VERTEX
  5
2E2
  8
LARGER_ENDPLATE
 10
54.29219581422244
 20
12.54717724084973
 30
0.0
  0
VERTEX
  5
2E3
  8
LARGER_ENDPLATE
 10
54.03404002439692
 20
12.58657649304784
 30
0.0
  0
SEQEND
  5
ABE
  8
LARGER_ENDPLATE
  0
POLYLINE
  5
78
  8
LARGER_ENDPLATE
 66
     1
 10
0.0
 20
0.0
 30
0.0
 70
     1
  0
VERTEX
  5
2E4
  8
LARGER_ENDPLATE
 10
35.34806623915611
 20
97.2807017538659
 30
0.0
  0
VERTEX
  5
2E5
  8
LARGER_ENDPLATE
 10
34.57321243798652
 20
97.2807017538659
 30
0.0
  0
VERTEX
  5
2E6
  8
LARGER_ENDPLATE
 10
34.62438202862979
 20
97.63432017491854
 30
0.0
  0
VERTEX
  5
2E7
  8
LARGER_ENDPLATE
 10
34.66093173623213
 20
97.9495614029887
 30
0.0
  0
VERTEX
  5
2E8
  8
LARGER_ENDPLATE
 10
34.68286156079353
 20
98.22642543807643
 30
0.0
  0
VERTEX
  5
2E9
  8
LARGER_ENDPLATE
 10
34.690171502314
 20
98.4649122801817
 30
0.0
  0
VERTEX
  5
2EA
  8
LARGER_ENDPLATE
 10
34.68250998401631
 20
98.60482912959691
 30
0.0
  0
VERTEX
  5
2EB
  8
LARGER_ENDPLATE
 10
34.65952542912321
 20
98.7321820170238
 30
0.0
  0
VERTEX
  5
2EC
  8
LARGER_ENDPLATE
 10
34.62121783763472
 20
98.84697094246239
 30
0.0
  0
VERTEX
  5
2ED
  8
LARGER_ENDPLATE
 10
34.56758720955084
 20
98.94919590591269
 30
0.0
  0
VERTEX
  5
2EE
  8
LARGER_ENDPLATE
 10
34.49863354487157
 20
99.03885690737468
 30
0.0
  0
VERTEX
  5
2EF
  8
LARGER_ENDPLATE
 10
34.41435684359691
 20
99.11595394684838
 30
0.0
  0
VERTEX
  5
2F0
  8
LARGER_ENDPLATE
 10
34.31475710572684
 20
99.18048702433376
 30
0.0
  0
VERTEX
  5
2F1
  8
LARGER_ENDPLATE
 10
34.19983433126137
 20
99.23245613983082
 30
0.0
  0
VERTEX
  5
2F2
  8
LARGER_ENDPLATE
 10
34.03482703559709
 20
99.27528782842731
 30
0.0
  0
VERTEX
  5
2F3
  8
LARGER_ENDPLATE
 10
33.78497373413053
 20
99.31240862521094
 30
0.0
  0
VERTEX
  5
2F4
  8
LARGER_ENDPLATE
 10
33.45027442686171
 20
99.3438185301817
 30
0.0
  0
VERTEX
  5
2F5
  8
LARGER_ENDPLATE
 10
33.03072911379061
 20
99.36951754333958
 30
0.0
  0
VERTEX
  5
2F6
  8
LARGER_ENDPLATE
 10
32.52633779491727
 20
99.38950566468462
 30
0.0
  0
VERTEX
  5
2F7
  8
LARGER_ENDPLATE
 10
31.93710047024164
 20
99.40378289421679
 30
0.0
  0
VERTEX
  5
2F8
  8
LARGER_ENDPLATE
 10
30.5040878034836
 20
99.41520467784251
 30
0.0
  0
VERTEX
  5
2F9
  8
LARGER_ENDPLATE
 10
28.36730052278184
 20
99.40058479480157
 30
0.0
  0
VERTEX
  5
2FA
  8
LARGER_ENDPLATE
 10
26.75934182395143
 20
92.95321637374894
 30
0.0
  0
VERTEX
  5
2FB
  8
LARGER_ENDPLATE
 10
29.78108889997482
 20
92.95321637374894
 30
0.0
  0
VERTEX
  5
2FC
  8
LARGER_ENDPLATE
 10
30.42754757596166
 20
92.96646564275478
 30
0.0
  0
VERTEX
  5
2FD
  8
LARGER_ENDPLATE
 10
30.69911118958557
 20
92.9830272290121
 30
0.0
  0
VERTEX
  5
2FE
  8
LARGER_ENDPLATE
 10
30.93623098696313
 20
93.00621344977233
 30
0.0
  0
VERTEX
  5
2FF
  8
LARGER_ENDPLATE
 10
31.13890696809434
 20
93.03602430503548
 30
0.0
  0
VERTEX
  5
300
  8
LARGER_ENDPLATE
 10
31.30713913297921
 20
93.07245979480156
 30
0.0
  0
VERTEX
  5
301
  8
LARGER_ENDPLATE
 10
31.44092748161773
 20
93.11551991907056
 30
0.0
  0
VERTEX
  5
302
  8
LARGER_ENDPLATE
 10
31.54027201400991
 20
93.16520467784251
 30
0.0
  0
VERTEX
  5
303
  8
LARGER_ENDPLATE
 10
31.61954276167987
 20
93.22813870562028
 30
0.0
  0
VERTEX
  5
304
  8
LARGER_ENDPLATE
 10
31.69310975615172
 20
93.31094663690683
 30
0.0
  0
VERTEX
  5
305
  8
LARGER_ENDPLATE
 10
31.76097299742548
 20
93.41362847170217
 30
0.0
  0
VERTEX
  5
306
  8
LARGER_ENDPLATE
 10
31.82313248550114
 20
93.53618421000624
 30
0.0
  0
VERTEX
  5
307
  8
LARGER_ENDPLATE
 10
31.8795882203787
 20
93.67861385181911
 30
0.0
  0
VERTEX
  5
308
  8
LARGER_ENDPLATE
 10
31.93034020205815
 20
93.84091739714074
 30
0.0
  0
VERTEX
  5
309
  8
LARGER_ENDPLATE
 10
31.97538843053952
 20
94.02309484597117
 30
0.0
  0
VERTEX
  5
30A
  8
LARGER_ENDPLATE
 10
32.01473290582278
 20
94.22514619831034
 30
0.0
  0
VERTEX
  5
30B
  8
LARGER_ENDPLATE
 10
32.84806623915611
 20
94.22514619831034
 30
0.0
  0
VERTEX
  5
30C
  8
LARGER_ENDPLATE
 10
32.62054430933154
 20
93.31871344977232
 30
0.0
  0
VERTEX
  5
30D
  8
LARGER_ENDPLATE
 10
32.40581477716781
 20
92.3684210521115
 30
0.0
  0
VERTEX
  5
30E
  8
LARGER_ENDPLATE
 10
32.20387764266488
 20
91.37426900532787
 30
0.0
  0
VERTEX
  5
30F
  8
LARGER_ENDPLATE
 10
32.01473290582278
 20
90.33625730942146
 30
0.0
  0
VERTEX
  5
310
  8
LARGER_ENDPLATE
 10
31.26911887073506
 20
90.33625730942146
 30
0.0
  0
VERTEX
  5
311
  8
LARGER_ENDPLATE
 10
31.32394343213856
 20
90.9466374263805
 30
0.0
  0
VERTEX
  5
312
  8
LARGER_ENDPLATE
 10
31.33764957248944
 20
91.19426169538636
 30
0.0
  0
VERTEX
  5
313
  8
LARGER_ENDPLATE
 10
31.34221828593973
 20
91.40350877140976
 30
0.0
  0
VERTEX
  5
314
  8
LARGER_ENDPLATE
 10
31.32942588827892
 20
91.4884868415852
 30
0.0
  0
VERTEX
  5
315
  8
LARGER_ENDPLATE
 10
31.29104869529646
 20
91.58260233866122
 30
0.0
  0
VERTEX
  5
316
  8
LARGER_ENDPLATE
 10
31.22708670699236
 20
91.68585526263783
 30
0.0
  0
VERTEX
  5
317
  8
LARGER_ENDPLATE
 10
31.13753992336664
 20
91.79824561351502
 30
0.0
  0
VERTEX
  5
318
  8
LARGER_ENDPLATE
 10
31.07530547983593
 20
91.85215643222847
 30
0.0
  0
VERTEX
  5
319
  8
LARGER_ENDPLATE
 10
30.99116976620289
 20
91.89692982404134
 30
0.0
  0
VERTEX
  5
31A
  8
LARGER_ENDPLATE
 10
30.88513278246751
 20
91.93256578895361
 30
0.0
  0
VERTEX
  5
31B
  8
LARGER_ENDPLATE
 10
30.75719452862979
 20
91.95906432696532
 30
0.0
  0
VERTEX
  5
31C
  8
LARGER_ENDPLATE
 10
30.53228533180962
 20
91.99104532111735
 30
0.0
  0
VERTEX
  5
31D
  8
LARGER_ENDPLATE
 10
30.25252301912687
 20
92.01388888836883
 30
0.0
  0
VERTEX
  5
31E
  8
LARGER_ENDPLATE
 10
29.91790759058154
 20
92.02759502871969
 30
0.0
  0
VERTEX
  5
31F
  8
LARGER_ENDPLATE
 10
29.52843904617365
 20
92.03216374216998
 30
0.0
  0
VERTEX
  5
320
  8
LARGER_ENDPLATE
 10
26.52976397307424
 20
92.03216374216998
 30
0.0
  0
VERTEX
  5
321
  8
LARGER_ENDPLATE
 10
26.20407895160129
 20
90.82455283665098
 30
0.0
  0
VERTEX
  5
322
  8
LARGER_ENDPLATE
 10
25.87521010794266
 20
89.68401635547409
 30
0.0
  0
VERTEX
  5
323
  8
LARGER_ENDPLATE
 10
25.54315744209836
 20
88.61055429863929
 30
0.0
  0
VERTEX
  5
324
  8
LARGER_ENDPLATE
 10
25.20792095406839
 20
87.6041666661466
 30
0.0
  0
VERTEX
  5
325
  8
LARGER_ENDPLATE
 10
24.86950064385275
 20
86.66485345799602
 30
0.0
  0
VERTEX
  5
326
  8
LARGER_ENDPLATE
 10
24.52789651145143
 20
85.79261467418755
 30
0.0
  0
VERTEX
  5
327
  8
LARGER_ENDPLATE
 10
24.18310855686444
 20
84.98745031472117
 30
0.0
  0
VERTEX
  5
328
  8
LARGER_ENDPLATE
 10
24.00952064625132
 20
84.61002104411627
 30
0.0
  0
VERTEX
  5
329
  8
LARGER_ENDPLATE
 10
23.83513678009178
 20
84.2493603795969
 30
0.0
  0
VERTEX
  5
32A
  8
LARGER_ENDPLATE
 10
24.17048034734324
 20
84.34990776857717
 30
0.0
  0
VERTEX
  5
32B
  8
LARGER_ENDPLATE
 10
24.49622961634909
 20
84.43704883902673
 30
0.0
  0
VERTEX
  5
32C
  8
LARGER_ENDPLATE
 10
24.81238458710932
 20
84.51078359094559
 30
0.0
  0
VERTEX
  5
32D
  8
LARGER_ENDPLATE
 10
25.11894525962395
 20
84.57111202433374
 30
0.0
  0
VERTEX
  5
32E
  8
LARGER_ENDPLATE
 10
25.41591163389295
 20
84.61803413919121
 30
0.0
  0
VERTEX
  5
32F
  8
LARGER_ENDPLATE
 10
25.70328370991634
 20
84.65154993551795
 30
0.0
  0
VERTEX
  5
330
  8
LARGER_ENDPLATE
 10
25.98106148769412
 20
84.671659413314
 30
0.0
  0
VERTEX
  5
331
  8
LARGER_ENDPLATE
 10
26.24924496722629
 20
84.67836257257935
 30
0.0
  0
VERTEX
  5
332
  8
LARGER_ENDPLATE
 10
26.70047323728294
 20
84.66968201702379
 30
0.0
  0
VERTEX
  5
333
  8
LARGER_ENDPLATE
 10
27.17639397581547
 20
84.64364035035712
 30
0.0
  0
VERTEX
  5
334
  8
LARGER_ENDPLATE
 10
27.67700718282387
 20
84.60023757257935
 30
0.0
  0
VERTEX
  5
335
  8
LARGER_ENDPLATE
 10
28.20231285830815
 20
84.53947368369046
 30
0.0
  0
VERTEX
  5
336
  8
LARGER_ENDPLATE
 10
28.75231100226832
 20
84.46134868369046
 30
0.0
  0
VERTEX
  5
337
  8
LARGER_ENDPLATE
 10
29.32700161470435
 20
84.36586257257935
 30
0.0
  0
VERTEX
  5
338
  8
LARGER_ENDPLATE
 10
29.92638469561627
 20
84.25301535035712
 30
0.0
  0
VERTEX
  5
339
  8
LARGER_ENDPLATE
 10
30.55046024500406
 20
84.12280701702379
 30
0.0
  0
VERTEX
  5
33A
  8
LARGER_ENDPLATE
 10
31.16949236305962
 20
83.98848684158519
 30
0.0
  0
VERTEX
  5
33B
  8
LARGER_ENDPLATE
 10
31.68064573477015
 20
83.89254385912906
 30
0.0
  0
VERTEX
  5
33C
  8
LARGER_ENDPLATE
 10
32.08392036013564
 20
83.83497806965538
 30
0.0
  0
VERTEX
  5
33D
  8
LARGER_ENDPLATE
 10
32.24510314293901
 20
83.82058662228695
 30
0.0
  0
VERTEX
  5
33E
  8
LARGER_ENDPLATE
 10
32.37931623915611
 20
83.81578947316414
 30
0.0
  0
VERTEX
  5
33F
  8
LARGER_ENDPLATE
 10
32.53636219470253
 20
83.82079364211516
 30
0.0
  0
VERTEX
  5
340
  8
LARGER_ENDPLATE
 10
32.68563419876868
 20
83.83580614896823
 30
0.0
  0
VERTEX
  5
341
  8
LARGER_ENDPLATE
 10
32.82713225135457
 20
83.86082699372336
 30
0.0
  0
VERTEX
  5
342
  8
LARGER_ENDPLATE
 10
32.96085635246021
 20
83.89585617638052
 30
0.0
  0
VERTEX
  5
343
  8
LARGER_ENDPLATE
 10
33.08680650208557
 20
83.94089369693974
 30
0.0
  0
VERTEX
  5
344
  8
LARGER_ENDPLATE
 10
33.20498270023067
 20
83.995939555401
 30
0.0
  0
VERTEX
  5
345
  8
LARGER_ENDPLATE
 10
33.31538494689551
 20
84.0609937517643
 30
0.0
  0
VERTEX
  5
346
  8
LARGER_ENDPLATE
 10
33.41801324208009
 20
84.13605628602964
 30
0.0
  0
VERTEX
  5
347
  8
LARGER_ENDPLATE
 10
33.51058322905925
 20
84.21748646466634
 30
0.0
  0
VERTEX
  5
348
  8
LARGER_ENDPLATE
 10
33.59081055110786
 20
84.30164359414368
 30
0.0
  0
VERTEX
  5
349
  8
LARGER_ENDPLATE
 10
33.65869520822591
 20
84.38852767446167
 30
0.0
  0
VERTEX
  5
34A
  8
LARGER_ENDPLATE
 10
33.71423720041341
 20
84.4781387056203
 30
0.0
  0
VERTEX
  5
34B
  8
LARGER_ENDPLATE
 10
33.75743652767036
 20
84.57047668761956
 30
0.0
  0
VERTEX
  5
34C
  8
LARGER_ENDPLATE
 10
33.78829318999675
 20
84.66554162045946
 30
0.0
  0
VERTEX
  5
34D
  8
LARGER_ENDPLATE
 10
33.80680718739259
 20
84.76333350414002
 30
0.0
  0
VERTEX
  5
34E
  8
LARGER_ENDPLATE
 10
33.81297851985786
 20
84.86385233866122
 30
0.0
  0
VERTEX
  5
34F
  8
LARGER_ENDPLATE
 10
33.80052877570582
 20
84.99852944483813
 30
0.0
  0
VERTEX
  5
350
  8
LARGER_ENDPLATE
 10
33.76317954324968
 20
85.16955637740391
 30
0.0
  0
VERTEX
  5
351
  8
LARGER_ENDPLATE
 10
33.70093082248945
 20
85.37693313635859
 30
0.0
  0
VERTEX
  5
352
  8
LARGER_ENDPLATE
 10
33.61378261342512
 20
85.62065972170215
 30
0.0
  0
VERTEX
  5
353
  8
LARGER_ENDPLATE
 10
33.56021444822044
 20
85.79996744739661
 30
0.0
  0
VERTEX
  5
354
  8
LARGER_ENDPLATE
 10
33.52195147307424
 20
85.97376416249162
 30
0.0
  0
VERTEX
  5
355
  8
LARGER_ENDPLATE
 10
33.49899368798652
 20
86.14204986698724
 30
0.0
  0
VERTEX
  5
356
  8
LARGER_ENDPLATE
 10
33.49134109295728
 20
86.30482456088345
 30
0.0
  0
VERTEX
  5
357
  8
LARGER_ENDPLATE
 10
33.4955671528988
 20
86.38740762580485
 30
0.0
  0
VERTEX
  5
358
  8
LARGER_ENDPLATE
 10
33.50824533272336
 20
86.4677134726159
 30
0.0
  0
VERTEX
  5
359
  8
LARGER_ENDPLATE
 10
33.52937563243096
 20
86.54574210131656
 30
0.0
  0
VERTEX
  5
35A
  8
LARGER_ENDPLATE
 10
33.55895805202161
 20
86.62149351190683
 30
0.0
  0
VERTEX
  5
35B
  8
LARGER_ENDPLATE
 10
33.59699259149529
 20
86.69496770438673
 30
0.0
  0
VERTEX
  5
35C
  8
LARGER_ENDPLATE
 10
33.64347925085202
 20
86.76616467875625
 30
0.0
  0
VERTEX
  5
35D
  8
LARGER_ENDPLATE
 10
33.69841803009178
 20
86.83508443501539
 30
0.0
  0
VERTEX
  5
35E
  8
LARGER_ENDPLATE
 10
33.76180892921459
 20
86.90172697316414
 30
0.0
  0
VERTEX
  5
35F
  8
LARGER_ENDPLATE
 10
33.83113915582278
 20
86.96313690668937
 30
0.0
  0
VERTEX
  5
360
  8
LARGER_ENDPLATE
 10
33.90389591751868
 20
87.01635884907787
 30
0.0
  0
VERTEX
  5
361
  8
LARGER_ENDPLATE
 10
33.98007921430231
 20
87.06139280032971
 30
0.0
  0
VERTEX
  5
362
  8
LARGER_ENDPLATE
 10
34.05968904617365
 20
87.09823876044484
 30
0.0
  0
VERTEX
  5
363
  8
LARGER_ENDPLATE
 10
34.14272541313272
 20
87.12689672942328
 30
0.0
  0
VERTEX
  5
364
  8
LARGER_ENDPLATE
 10
34.2291883151795
 20
87.14736670726501
 30
0.0
  0
VERTEX
  5
365
  8
LARGER_ENDPLATE
 10
34.31907775231401
 20
87.15964869397006
 30
0.0
  0
VERTEX
  5
366
  8
LARGER_ENDPLATE
 10
34.41239372453623
 20
87.16374268953841
 30
0.0
  0
VERTEX
  5
367
  8
LARGER_ENDPLATE
 10
34.52329924354207
 20
87.15826023339807
 30
0.0
  0
VERTEX
  5
368
  8
LARGER_ENDPLATE
 10
34.62940761342512
 20
87.14181286497701
 30
0.0
  0
VERTEX
  5
369
  8
LARGER_ENDPLATE
 10
34.73071883418534
 20
87.11440058427526
 30
0.0
  0
VERTEX
  5
36A
  8
LARGER_ENDPLATE
 10
34.82723290582278
 20
87.07602339129281
 30
0.0
  0
VERTEX
  5
36B
  8
LARGER_ENDPLATE
 10
34.9189498283374
 20
87.02668128602964
 30
0.0
  0
VERTEX
  5
36C
  8
LARGER_ENDPLATE
 10
35.00586960172921
 20
86.96637426848578
 30
0.0
  0
VERTEX
  5
36D
  8
LARGER_ENDPLATE
 10
35.08799222599821
 20
86.89510233866122
 30
0.0
  0
VERTEX
  5
36E
  8
LARGER_ENDPLATE
 10
35.16531770114441
 20
86.81286549655596
 30
0.0
  0
VERTEX
  5
36F
  8
LARGER_ENDPLATE
 10
35.23556167044266
 20
86.7214912275501
 30
0.0
  0
VERTEX
  5
370
  8
LARGER_ENDPLATE
 10
35.29643977716781
 20
86.62280701702379
 30
0.0
  0
VERTEX
  5
371
  8
LARGER_ENDPLATE
 10
35.34795202131986
 20
86.516812864977
 30
0.0
  0
VERTEX
  5
372
  8
LARGER_ENDPLATE
 10
35.3900984028988
 20
86.40350877140975
 30
0.0
  0
VERTEX
  5
373
  8
LARGER_ENDPLATE
 10
35.42287892190465
 20
86.28289473632202
 30
0.0
  0
VERTEX
  5
374
  8
LARGER_ENDPLATE
 10
35.4462935783374
 20
86.15497075971385
 30
0.0
  0
VERTEX
  5
375
  8
LARGER_ENDPLATE
 10
35.46034237219705
 20
86.0197368415852
 30
0.0
  0
VERTEX
  5
376
  8
LARGER_ENDPLATE
 10
35.46502530348359
 20
85.87719298193608
 30
0.0
  0
VERTEX
  5
377
  8
LARGER_ENDPLATE
 10
35.46076756593905
 20
85.72305601190683
 30
0.0
  0
VERTEX
  5
378
  8
LARGER_ENDPLATE
 10
35.44799435330541
 20
85.571317616439
 30
0.0
  0
VERTEX
  5
379
  8
LARGER_ENDPLATE
 10
35.42670566558269
 20
85.42197779553256
 30
0.0
  0
VERTEX
  5
37A
  8
LARGER_ENDPLATE
 10
35.39690150277087
 20
85.27503654918753
 30
0.0
  0
VERTEX
  5
37B
  8
LARGER_ENDPLATE
 10
35.35858186486996
 20
85.13049387740391
 30
0.0
  0
VERTEX
  5
37C
  8
LARGER_ENDPLATE
 10
35.31174675187997
 20
84.9883497801817
 30
0.0
  0
VERTEX
  5
37D
  8
LARGER_ENDPLATE
 10
35.25639616380089
 20
84.84860425752086
 30
0.0
  0
VERTEX
  5
37E
  8
LARGER_ENDPLATE
 10
35.19253010063272
 20
84.71125730942146
 30
0.0
  0
VERTEX
  5
37F
  8
LARGER_ENDPLATE
 10
35.12014856237545
 20
84.57630893588345
 30
0.0
  0
VERTEX
  5
380
  8
LARGER_ENDPLATE
 10
35.0392515490291
 20
84.44375913690683
 30
0.0
  0
VERTEX
  5
381
  8
LARGER_ENDPLATE
 10
34.94983906059365
 20
84.31360791249162
 30
0.0
  0
VERTEX
  5
382
  8
LARGER_ENDPLATE
 10
34.85191109706912
 20
84.18585526263782
 30
0.0
  0
VERTEX
  5
383
  8
LARGER_ENDPLATE
 10
34.7454676584555
 20
84.06050118734541
 30
0.0
  0
VERTEX
  5
384
  8
LARGER_ENDPLATE
 10
34.63050874475278
 20
83.93754568661443
 30
0.0
  0
VERTEX
  5
385
  8
LARGER_ENDPLATE
 10
34.50703435596098
 20
83.81698876044483
 30
0.0
  0
VERTEX
  5
386
  8
LARGER_ENDPLATE
 10
34.37504449208009
 20
83.69883040883666
 30
0.0
  0
VERTEX
  5
387
  8
LARGER_ENDPLATE
 10
34.23608198622642
 20
83.58552631526942
 30
0.0
  0
VERTEX
  5
388
  8
LARGER_ENDPLATE
 10
34.09168967151631
 20
83.47953216322263
 30
0.0
  0
VERTEX
  5
389
  8
LARGER_ENDPLATE
 10
33.94186754794974
 20
83.38084795269631
 30
0.0
  0
VERTEX
  5
38A
  8
LARGER_ENDPLATE
 10
33.78661561552673
 20
83.28947368369046
 30
0.0
  0
VERTEX
  5
38B
  8
LARGER_ENDPLATE
 10
33.62593387424726
 20
83.20540935620508
 30
0.0
  0
VERTEX
  5
38C
  8
LARGER_ENDPLATE
 10
33.45982232411134
 20
83.12865497024016
 30
0.0
  0
VERTEX
  5
38D
  8
LARGER_ENDPLATE
 10
33.28828096511897
 20
83.05921052579572
 30
0.0
  0
VERTEX
  5
38E
  8
LARGER_ENDPLATE
 10
33.11130979727015
 20
82.99707602287174
 30
0.0
  0
VERTEX
  5
38F
  8
LARGER_ENDPLATE
 10
32.92890882056487
 20
82.94225146146823
 30
0.0
  0
VERTEX
  5
390
  8
LARGER_ENDPLATE
 10
32.74107803500315
 20
82.89473684158519
 30
0.0
  0
VERTEX
  5
391
  8
LARGER_ENDPLATE
 10
32.54781744058498
 20
82.85453216322261
 30
0.0
  0
VERTEX
  5
392
  8
LARGER_ENDPLATE
 10
32.34912703731035
 20
82.8216374263805
 30
0.0
  0
VERTEX
  5
393
  8
LARGER_ENDPLATE
 10
32.14500682517927
 20
82.79605263105887
 30
0.0
  0
VERTEX
  5
394
  8
LARGER_ENDPLATE
 10
31.93545680419174
 20
82.77777777725771
 30
0.0
  0
VERTEX
  5
395
  8
LARGER_ENDPLATE
 10
31.50006733564734
 20
82.76315789421677
 30
0.0
  0
VERTEX
  5
396
  8
LARGER_ENDPLATE
 10
31.00079261890757
 20
82.77320906380741
 30
0.0
  0
VERTEX
  5
397
  8
LARGER_ENDPLATE
 10
30.4393262903257
 20
82.80336257257935
 30
0.0
  0
VERTEX
  5
398
  8
LARGER_ENDPLATE
 10
29.81566834990172
 20
82.85361842053257
 30
0.0
  0
VERTEX
  5
399
  8
LARGER_ENDPLATE
 10
29.12981879763564
 20
82.92397660766707
 30
0.0
  0
VERTEX
  5
39A
  8
LARGER_ENDPLATE
 10
27.65031233290611
 20
83.0774853795969
 30
0.0
  0
VERTEX
  5
39B
  8
LARGER_ENDPLATE
 10
26.35735214924383
 20
83.18713450240392
 30
0.0
  0
VERTEX
  5
39C
  8
LARGER_ENDPLATE
 10
25.78082691281291
 20
83.22551169538637
 30
0.0
  0
VERTEX
  5
39D
  8
LARGER_ENDPLATE
 10
25.2509382466488
 20
83.25292397608813
 30
0.0
  0
VERTEX
  5
39E
  8
LARGER_ENDPLATE
 10
24.7676861507515
 20
83.26937134450918
 30
0.0
  0
VERTEX
  5
39F
  8
LARGER_ENDPLATE
 10
24.33107062512102
 20
83.27485380064952
 30
0.0
  0
VERTEX
  5
3A0
  8
LARGER_ENDPLATE
 10
23.77825272832826
 20
83.26937134450918
 30
0.0
  0
VERTEX
  5
3A1
  8
LARGER_ENDPLATE
 10
23.20258412566927
 20
83.25292397608813
 30
0.0
  0
VERTEX
  5
3A2
  8
LARGER_ENDPLATE
 10
22.60406481714405
 20
83.22551169538637
 30
0.0
  0
VERTEX
  5
3A3
  8
LARGER_ENDPLATE
 10
21.9826948027526
 20
83.18713450240392
 30
0.0
  0
VERTEX
  5
3A4
  8
LARGER_ENDPLATE
 10
21.33847408249492
 20
83.13779239714076
 30
0.0
  0
VERTEX
  5
3A5
  8
LARGER_ENDPLATE
 10
20.67140265637102
 20
83.0774853795969
 30
0.0
  0
VERTEX
  5
3A6
  8
LARGER_ENDPLATE
 10
19.98148052438089
 20
83.00621344977233
 30
0.0
  0
VERTEX
  5
3A7
  8
LARGER_ENDPLATE
 10
19.26870768652453
 20
82.92397660766707
 30
0.0
  0
VERTEX
  5
3A8
  8
LARGER_ENDPLATE
 10
19.50011302278184
 20
83.74063413690683
 30
0.0
  0
VERTEX
  5
3A9
  8
LARGER_ENDPLATE
 10
20.27846474518681
 20
83.96384434341269
 30
0.0
  0
VERTEX
  5
3AA
  8
LARGER_ENDPLATE
 10
20.87855097965319
 20
84.15535910035712
 30
0.0
  0
VERTEX
  5
3AB
  8
LARGER_ENDPLATE
 10
21.1117445389094
 20
84.23923068524381
 30
0.0
  0
VERTEX
  5
3AC
  8
LARGER_ENDPLATE
 10
21.30037172618096
 20
84.31517840774016
 30
0.0
  0
VERTEX
  5
3AD
  8
LARGER_ENDPLATE
 10
21.44443254146788
 20
84.38320226784614
 30
0.0
  0
VERTEX
  5
3AE
  8
LARGER_ENDPLATE
 10
21.54392698477015
 20
84.4433022655618
 30
0.0
  0
VERTEX
  5
3AF
  8
LARGER_ENDPLATE
 10
21.69191046887102
 20
84.56869917254281
 30
0.0
  0
VERTEX
  5
3B0
  8
LARGER_ENDPLATE
 10
21.82701589193389
 20
84.72033762740392
 30
0.0
  0
VERTEX
  5
3B1
  8
LARGER_ENDPLATE
 10
21.94924325395874
 20
84.89821763014514
 30
0.0
  0
VERTEX
  5
3B2
  8
LARGER_ENDPLATE
 10
22.05859255494558
 20
85.10233918076648
 30
0.0
  0
VERTEX
  5
3B3
  8
LARGER_ENDPLATE
 10
22.24024353093699
 20
85.49280534658791
 30
0.0
  0
VERTEX
  5
3B4
  8
LARGER_ENDPLATE
 10
22.43489035511006
 20
85.97044470662539
 30
0.0
  0
VERTEX
  5
3B5
  8
LARGER_ENDPLATE
 10
22.64253302746478
 20
86.53525726087886
 30
0.0
  0
VERTEX
  5
3B6
  8
LARGER_ENDPLATE
 10
22.86317154800114
 20
87.18724300934835
 30
0.0
  0
VERTEX
  5
3B7
  8
LARGER_ENDPLATE
 10
23.09680591671916
 20
87.92640195203384
 30
0.0
  0
VERTEX
  5
3B8
  8
LARGER_ENDPLATE
 10
23.34343613361883
 20
88.75273408893534
 30
0.0
  0
VERTEX
  5
3B9
  8
LARGER_ENDPLATE
 10
23.60306219870015
 20
89.66623942005285
 30
0.0
  0
VERTEX
  5
3BA
  8
LARGER_ENDPLATE
 10
23.87568411196313
 20
90.66691794538636
 30
0.0
  0
VERTEX
  5
3BB
  8
LARGER_ENDPLATE
 10
24.43621528201064
 20
92.78465226327745
 30
0.0
  0
VERTEX
  5
3BC
  8
LARGER_ENDPLATE
 10
25.00132944273798
 20
94.9607947271846
 30
0.0
  0
VERTEX
  5
3BD
  8
LARGER_ENDPLATE
 10
25.57102659414514
 20
97.19534533710785
 30
0.0
  0
VERTEX
  5
3BE
  8
LARGER_ENDPLATE
 10
26.14530673623213
 20
99.48830409304719
 30
0.0
  0
VERTEX
  5
3BF
  8
LARGER_ENDPLATE
 10
25.70916949779098
 20
99.47530289090446
 30
0.0
  0
VERTEX
  5
3C0
  8
LARGER_ENDPLATE
 10
25.27897872544997
 20
99.43629928447628
 30
0.0
  0
VERTEX
  5
3C1
  8
LARGER_ENDPLATE
 10
24.85473441920911
 20
99.37129327376265
 30
0.0
  0
VERTEX
  5
3C2
  8
LARGER_ENDPLATE
 10
24.43643657906839
 20
99.28028485876357
 30
0.0
  0
VERTEX
  5
3C3
  8
LARGER_ENDPLATE
 10
24.02408520502782
 20
99.16327403947902
 30
0.0
  0
VERTEX
  5
3C4
  8
LARGER_ENDPLATE
 10
23.6176802970874
 20
99.02026081590903
 30
0.0
  0
VERTEX
  5
3C5
  8
LARGER_ENDPLATE
 10
23.21722185524712
 20
98.85124518805358
 30
0.0
  0
VERTEX
  5
3C6
  8
LARGER_ENDPLATE
 10
22.82270987950699
 20
98.65622715591269
 30
0.0
  0
VERTEX
  5
3C7
  8
LARGER_ENDPLATE
 10
22.44192010600096
 20
98.44033759884947
 30
0.0
  0
VERTEX
  5
3C8
  8
LARGER_ENDPLATE
 10
22.08262827086298
 20
98.20870739622703
 30
0.0
  0
VERTEX
  5
3C9
  8
LARGER_ENDPLATE
 10
21.74483437409306
 20
97.96133654804538
 30
0.0
  0
VERTEX
  5
3CA
  8
LARGER_ENDPLATE
 10
21.4285384156912
 20
97.6982250543045
 30
0.0
  0
VERTEX
  5
3CB
  8
LARGER_ENDPLATE
 10
21.13374039565739
 20
97.41937291500443
 30
0.0
  0
VERTEX
  5
3CC
  8
LARGER_ENDPLATE
 10
20.86044031399164
 20
97.12478013014515
 30
0.0
  0
VERTEX
  5
3CD
  8
LARGER_ENDPLATE
 10
20.60863817069394
 20
96.81444669972666
 30
0.0
  0
VERTEX
  5
3CE
  8
LARGER_ENDPLATE
 10
20.3783339657643
 20
96.48837262374894
 30
0.0
  0
VERTEX
  5
3CF
  8
LARGER_ENDPLATE
 10
20.17250093225279
 20
96.15226344006382
 30
0.0
  0
VERTEX
  5
3D0
  8
LARGER_ENDPLATE
 10
19.99411230320948
 20
95.81182468652307
 30
0.0
  0
VERTEX
  5
3D1
  8
LARGER_ENDPLATE
 10
19.84316807863437
 20
95.46705636312667
 30
0.0
  0
VERTEX
  5
3D2
  8
LARGER_ENDPLATE
 10
19.71966825852746
 20
95.11795846987468
 30
0.0
  0
VERTEX
  5
3D3
  8
LARGER_ENDPLATE
 10
19.62361284288875
 20
94.76453100676704
 30
0.0
  0
VERTEX
  5
3D4
  8
LARGER_ENDPLATE
 10
19.55500183171824
 20
94.40677397380378
 30
0.0
  0
VERTEX
  5
3D5
  8
LARGER_ENDPLATE
 10
19.51383522501594
 20
94.04468737098486
 30
0.0
  0
VERTEX
  5
3D6
  8
LARGER_ENDPLATE
 10
19.50011302278184
 20
93.67827119831034
 30
0.0
  0
VERTEX
  5
3D7
  8
LARGER_ENDPLATE
 10
19.50787983564733
 20
93.37443747663637
 30
0.0
  0
VERTEX
  5
3D8
  8
LARGER_ENDPLATE
 10
19.53118027424383
 20
93.09067753968462
 30
0.0
  0
VERTEX
  5
3D9
  8
LARGER_ENDPLATE
 10
19.57001433857131
 20
92.82699138745508
 30
0.0
  0
VERTEX
  5
3DA
  8
LARGER_ENDPLATE
 10
19.6243820286298
 20
92.58337901994777
 30
0.0
  0
VERTEX
  5
3DB
  8
LARGER_ENDPLATE
 10
19.70616199939003
 20
92.32607478931912
 30
0.0
  0
VERTEX
  5
3DC
  8
LARGER_ENDPLATE
 10
19.82723290582278
 20
92.02131304772556
 30
0.0
  0
VERTEX
  5
3DD
  8
LARGER_ENDPLATE
 10
19.98759474792804
 20
91.66909379516707
 30
0.0
  0
VERTEX
  5
3DE
  8
LARGER_ENDPLATE
 10
20.18724752570582
 20
91.26941703164367
 30
0.0
  0
VERTEX
  5
3DF
  8
LARGER_ENDPLATE
 10
20.30877530348359
 20
91.02587605028403
 30
0.0
  0
VERTEX
  5
3E0
  8
LARGER_ENDPLATE
 10
20.39558085903915
 20
90.80603526994777
 30
0.0
  0
VERTEX
  5
3E1
  8
LARGER_ENDPLATE
 10
20.44766419237249
 20
90.6098946906349
 30
0.0
  0
VERTEX
  5
3E2
  8
LARGER_ENDPLATE
 10
20.46068502570582
 20
90.52071197636224
 30
0.0
  0
VERTEX
  5
3E3
  8
LARGER_ENDPLATE
 10
20.4650253034836
 20
90.43745431234542
 30
0.0
  0
VERTEX
  5
3E4
  8
LARGER_ENDPLATE
 10
20.46082601334745
 20
90.35829956716542
 30
0.0
  0
VERTEX
  5
3E5
  8
LARGER_ENDPLATE
 10
20.44822814293901
 20
90.28142560940317
 30
0.0
  0
VERTEX
  5
3E6
  8
LARGER_ENDPLATE
 10
20.42723169225827
 20
90.20683243905869
 30
0.0
  0
VERTEX
  5
3E7
  8
LARGER_ENDPLATE
 10
20.39783666130523
 20
90.13452005613198
 30
0.0
  0
VERTEX
  5
3E8
  8
LARGER_ENDPLATE
 10
20.36004305007991
 20
90.06448846062301
 30
0.0
  0
VERTEX
  5
3E9
  8
LARGER_ENDPLATE
 10
20.31385085858228
 20
89.99673765253183
 30
0.0
  0
VERTEX
  5
3EA
  8
LARGER_ENDPLATE
 10
20.25926008681236
 20
89.93126763185839
 30
0.0
  0
VERTEX
  5
3EB
  8
LARGER_ENDPLATE
 10
20.19627073477015
 20
89.86807839860273
 30
0.0
  0
VERTEX
  5
3EC
  8
LARGER_ENDPLATE
 10
20.12715288195125
 20
89.80990761152762
 30
0.0
  0
VERTEX
  5
3ED
  8
LARGER_ENDPLATE
 10
20.05417660785128
 20
89.75949292939586
 30
0.0
  0
VERTEX
  5
3EE
  8
LARGER_ENDPLATE
 10
19.97734191247025
 20
89.71683435220744
 30
0.0
  0
VERTEX
  5
3EF
  8
LARGER_ENDPLATE
 10
19.89664879580816
 20
89.68193187996238
 30
0.0
  0
VERTEX
  5
3F0
  8
LARGER_ENDPLATE
 10
19.81209725786499
 20
89.65478551266065
 30
0.0
  0
VERTEX
  5
3F1
  8
LARGER_ENDPLATE
 10
19.72368729864076
 20
89.6353952503023
 30
0.0
  0
VERTEX
  5
3F2
  8
LARGER_ENDPLATE
 10
19.63141891813546
 20
89.62376109288726
 30
0.0
  0
VERTEX
  5
3F3
  8
LARGER_ENDPLATE
 10
19.53529211634909
 20
89.6198830404156
 30
0.0
  0
VERTEX
  5
3F4
  8
LARGER_ENDPLATE
 10
19.39723844538783
 20
89.62879203164367
 30
0.0
  0
VERTEX
  5
3F5
  8
LARGER_ENDPLATE
 10
19.26645188425845
 20
89.65551900532787
 30
0.0
  0
VERTEX
  5
3F6
  8
LARGER_ENDPLATE
 10
19.14293243296093
 20
89.70006396146823
 30
0.0
  0
VERTEX
  5
3F7
  8
LARGER_ENDPLATE
 10
19.02668009149529
 20
89.76242690006472
 30
0.0
  0
VERTEX
  5
3F8
  8
LARGER_ENDPLATE
 10
18.91769485986152
 20
89.84260782111735
 30
0.0
  0
VERTEX
  5
3F9
  8
LARGER_ENDPLATE
 10
18.81597673805962
 20
89.94060672462614
 30
0.0
  0
VERTEX
  5
3FA
  8
LARGER_ENDPLATE
 10
18.72152572608959
 20
90.05642361059105
 30
0.0
  0
VERTEX
  5
3FB
  8
LARGER_ENDPLATE
 10
18.63434182395143
 20
90.1900584790121
 30
0.0
  0
VERTEX
  5
3FC
  8
LARGER_ENDPLATE
 10
18.51858918551942
 20
90.40775767491853
 30
0.0
  0
VERTEX
  5
3FD
  8
LARGER_ENDPLATE
 10
18.41827023221166
 20
90.64418859597116
 30
0.0
  0
VERTEX
  5
3FE
  8
LARGER_ENDPLATE
 10
18.33338496402819
 20
90.89935124216998
 30
0.0
  0
VERTEX
  5
3FF
  8
LARGER_ENDPLATE
 10
18.26393338096898
 20
91.17324561351502
 30
0.0
  0
VERTEX
  5
400
  8
LARGER_ENDPLATE
 10
18.20991548303403
 20
91.46587171000625
 30
0.0
  0
VERTEX
  5
401
  8
LARGER_ENDPLATE
 10
18.17133127022336
 20
91.77722953164367
 30
0.0
  0
VERTEX
  5
402
  8
LARGER_ENDPLATE
 10
18.14818074253696
 20
92.1073190784273
 30
0.0
  0
VERTEX
  5
403
  8
LARGER_ENDPLATE
 10
18.14046389997483
 20
92.45614035035712
 30
0.0
  0
VERTEX
  5
404
  8
LARGER_ENDPLATE
 10
18.14954421795728
 20
92.83745659670214
 30
0.0
  0
VERTEX
  5
405
  8
LARGER_ENDPLATE
 10
18.17678517190465
 20
93.2138614760881
 30
0.0
  0
VERTEX
  5
406
  8
LARGER_ENDPLATE
 10
18.22218676181693
 20
93.585354988515
 30
0.0
  0
VERTEX
  5
407
  8
LARGER_ENDPLATE
 10
18.28574898769412
 20
93.95193713398284
 30
0.0
  0
VERTEX
  5
408
  8
LARGER_ENDPLATE
 10
18.36747184953622
 20
94.31360791249162
 30
0.0
  0
VERTEX
  5
409
  8
LARGER_ENDPLATE
 10
18.46735534734324
 20
94.67036732404132
 30
0.0
  0
VERTEX
  5
40A
  8
LARGER_ENDPLATE
 10
18.58539948111518
 20
95.02221536863198
 30
0.0
  0
VERTEX
  5
40B
  8
LARGER_ENDPLATE
 10
18.72160425085202
 20
95.36915204626355
 30
0.0
  0
VERTEX
  5
40C
  8
LARGER_ENDPLATE
 10
18.87596965655377
 20
95.71117735693606
 30
0.0
  0
VERTEX
  5
40D
  8
LARGER_ENDPLATE
 10
19.04849569822044
 20
96.04829130064951
 30
0.0
  0
VERTEX
  5
40E
  8
LARGER_ENDPLATE
 10
19.23918237585201
 20
96.38049387740391
 30
0.0
  0
VERTEX
  5
40F
  8
LARGER_ENDPLATE
 10
19.4480296894485
 20
96.70778508719923
 30
0.0
  0
VERTEX
  5
410
  8
LARGER_ENDPLATE
 10
19.67503763900991
 20
97.03016493003548
 30
0.0
  0
VERTEX
  5
411
  8
LARGER_ENDPLATE
 10
19.92020622453623
 20
97.34763340591267
 30
0.0
  0
VERTEX
  5
412
  8
LARGER_ENDPLATE
 10
20.18353544602746
 20
97.6601905148308
 30
0.0
  0
VERTEX
  5
413
  8
LARGER_ENDPLATE
 10
20.4650253034836
 20
97.96783625678988
 30
0.0
  0
VERTEX
  5
414
  8
LARGER_ENDPLATE
 10
20.76387627205085
 20
98.26348912594193
 30
0.0
  0
VERTEX
  5
415
  8
LARGER_ENDPLATE
 10
21.07928882687541
 20
98.540067616439
 30
0.0
  0
VERTEX
  5
416
  8
LARGER_ENDPLATE
 10
21.41126296795728
 20
98.7975717282811
 30
0.0
  0
VERTEX
  5
417
  8
LARGER_ENDPLATE
 10
21.75979869529646
 20
99.03600146146823
 30
0.0
  0
VERTEX
  5
418
  8
LARGER_ENDPLATE
 10
22.12489600889295
 20
99.25535681600039
 30
0.0
  0
VERTEX
  5
419
  8
LARGER_ENDPLATE
 10
22.50655490874675
 20
99.45563779187759
 30
0.0
  0
VERTEX
  5
41A
  8
LARGER_ENDPLATE
 10
22.90477539485787
 20
99.63684438909982
 30
0.0
  0
VERTEX
  5
41B
  8
LARGER_ENDPLATE
 10
23.31955746722629
 20
99.79897660766707
 30
0.0
  0
VERTEX
  5
41C
  8
LARGER_ENDPLATE
 10
23.75090112585202
 20
99.94203444757935
 30
0.0
  0
VERTEX
  5
41D
  8
LARGER_ENDPLATE
 10
24.19880637073506
 20
100.0660179088367
 30
0.0
  0
VERTEX
  5
41E
  8
LARGER_ENDPLATE
 10
24.66327320187541
 20
100.170926991439
 30
0.0
  0
VERTEX
  5
41F
  8
LARGER_ENDPLATE
 10
25.14430161927307
 20
100.2567616953864
 30
0.0
  0
VERTEX
  5
420
  8
LARGER_ENDPLATE
 10
25.64189162292804
 20
100.3235220206788
 30
0.0
  0
VERTEX
  5
421
  8
LARGER_ENDPLATE
 10
26.15604321284032
 20
100.3712079673162
 30
0.0
  0
VERTEX
  5
422
  8
LARGER_ENDPLATE
 10
26.68675638900991
 20
100.3998195352986
 30
0.0
  0
VERTEX
  5
423
  8
LARGER_ENDPLATE
 10
27.23403115143681
 20
100.4093567246261
 30
0.0
  0
VERTEX
  5
424
  8
LARGER_ENDPLATE
 10
32.24865103447775
 20
100.4093567246261
 30
0.0
  0
VERTEX
  5
425
  8
LARGER_ENDPLATE
 10
32.87799131225552
 20
100.414610745094
 30
0.0
  0
VERTEX
  5
426
  8
LARGER_ENDPLATE
 10
33.46484255494558
 20
100.4303728064975
 30
0.0
  0
VERTEX
  5
427
  8
LARGER_ENDPLATE
 10
34.00920476254792
 20
100.4566429088367
 30
0.0
  0
VERTEX
  5
428
  8
LARGER_ENDPLATE
 10
34.51107793506254
 20
100.4934210521115
 30
0.0
  0
VERTEX
  5
429
  8
LARGER_ENDPLATE
 10
34.97046207248945
 20
100.540707236322
 30
0.0
  0
VERTEX
  5
42A
  8
LARGER_ENDPLATE
 10
35.38735717482862
 20
100.5985014614682
 30
0.0
  0
VERTEX
  5
42B
  8
LARGER_ENDPLATE
 10
35.76176324208009
 20
100.6668037275501
 30
0.0
  0
VERTEX
  5
42C
  8
LARGER_ENDPLATE
 10
36.09368027424382
 20
100.7456140345677
 30
0.0
  0
VERTEX
  5
42D
  8
LARGER_ENDPLATE
 10
35.82778115143681
 20
99.61511444575186
 30
0.0
  0
VERTEX
  5
42E
  8
LARGER_ENDPLATE
 10
35.61487910465318
 20
98.66079586936297
 30
0.0
  0
VERTEX
  5
42F
  8
LARGER_ENDPLATE
 10
35.45497413389295
 20
97.88265830540098
 30
0.0
  0
SEQEND
  5
ABF
  8
LARGER_ENDPLATE
  0
POLYLINE
  5
79
  8
LARGER_ENDPLATE
 66
     1
 10
0.0
 20
0.0
 30
0.0
 70
     1
  0
VERTEX
  5
430
  8
LARGER_ENDPLATE
 10
49.39594635611518
 20
100.5265442246261
 30
0.0
  0
VERTEX
  5
431
  8
LARGER_ENDPLATE
 10
49.12708113887285
 20
99.90566320534616
 30
0.0
  0
VERTEX
  5
432
  8
LARGER_ENDPLATE
 10
48.85411121814003
 20
99.22677380247701
 30
0.0
  0
VERTEX
  5
433
  8
LARGER_ENDPLATE
 10
48.57703659391672
 20
98.48987601601867
 30
0.0
  0
VERTEX
  5
434
  8
LARGER_ENDPLATE
 10
48.29585726620289
 20
97.69496984597116
 30
0.0
  0
VERTEX
  5
435
  8
LARGER_ENDPLATE
 10
48.01057323499859
 20
96.84205529233446
 30
0.0
  0
VERTEX
  5
436
  8
LARGER_ENDPLATE
 10
47.72118450030378
 20
95.93113235510859
 30
0.0
  0
VERTEX
  5
437
  8
LARGER_ENDPLATE
 10
47.42769106211847
 20
94.96220103429353
 30
0.0
  0
VERTEX
  5
438
  8
LARGER_ENDPLATE
 10
47.13009292044266
 20
93.93526132988929
 30
0.0
  0
VERTEX
  5
439
  8
LARGER_ENDPLATE
 10
44.95195878301575
 20
86.32104349363198
 30
0.0
  0
VERTEX
  5
43A
  8
LARGER_ENDPLATE
 10
44.81921445678677
 20
85.87148833641113
 30
0.0
  0
VERTEX
  5
43B
  8
LARGER_ENDPLATE
 10
44.68008463964953
 20
85.4372508618246
 30
0.0
  0
VERTEX
  5
43C
  8
LARGER_ENDPLATE
 10
44.53456933160403
 20
85.01833106987239
 30
0.0
  0
VERTEX
  5
43D
  8
LARGER_ENDPLATE
 10
44.38266853265026
 20
84.61472896055449
 30
0.0
  0
VERTEX
  5
43E
  8
LARGER_ENDPLATE
 10
44.22438224278823
 20
84.22644453387093
 30
0.0
  0
VERTEX
  5
43F
  8
LARGER_ENDPLATE
 10
44.05971046201795
 20
83.85347778982168
 30
0.0
  0
VERTEX
  5
440
  8
LARGER_ENDPLATE
 10
43.8886531903394
 20
83.49582872840675
 30
0.0
  0
VERTEX
  5
441
  8
LARGER_ENDPLATE
 10
43.7112104277526
 20
83.15349734962614
 30
0.0
  0
VERTEX
  5
442
  8
LARGER_ENDPLATE
 10
43.52738217425753
 20
82.82648365347985
 30
0.0
  0
VERTEX
  5
443
  8
LARGER_ENDPLATE
 10
43.33716842985421
 20
82.51478763996786
 30
0.0
  0
VERTEX
  5
444
  8
LARGER_ENDPLATE
 10
43.14056919454262
 20
82.21840930909022
 30
0.0
  0
VERTEX
  5
445
  8
LARGER_ENDPLATE
 10
42.93758446832278
 20
81.93734866084688
 30
0.0
  0
VERTEX
  5
446
  8
LARGER_ENDPLATE
 10
42.72821425119467
 20
81.67160569523787
 30
0.0
  0
VERTEX
  5
447
  8
LARGER_ENDPLATE
 10
42.5124585431583
 20
81.42118041226318
 30
0.0
  0
VERTEX
  5
448
  8
LARGER_ENDPLATE
 10
42.29031734421368
 20
81.18607281192283
 30
0.0
  0
VERTEX
  5
449
  8
LARGER_ENDPLATE
 10
42.06179065436078
 20
80.96628289421677
 30
0.0
  0
VERTEX
  5
44A
  8
LARGER_ENDPLATE
 10
41.82693201321038
 20
80.75898287537083
 30
0.0
  0
VERTEX
  5
44B
  8
LARGER_ENDPLATE
 10
41.58944993113345
 20
80.56505705128914
 30
0.0
  0
VERTEX
  5
44C
  8
LARGER_ENDPLATE
 10
41.34934440812998
 20
80.38450542197172
 30
0.0
  0
VERTEX
  5
44D
  8
LARGER_ENDPLATE
 10
41.10661544419997
 20
80.21732798741853
 30
0.0
  0
VERTEX
  5
44E
  8
LARGER_ENDPLATE
 10
40.86126303934343
 20
80.0635247476296
 30
0.0
  0
VERTEX
  5
44F
  8
LARGER_ENDPLATE
 10
40.61328719356035
 20
79.92309570260494
 30
0.0
  0
VERTEX
  5
450
  8
LARGER_ENDPLATE
 10
40.36268790685073
 20
79.79604085234453
 30
0.0
  0
VERTEX
  5
451
  8
LARGER_ENDPLATE
 10
40.10946517921459
 20
79.68236019684835
 30
0.0
  0
VERTEX
  5
452
  8
LARGER_ENDPLATE
 10
39.8536190106519
 20
79.58205373611645
 30
0.0
  0
VERTEX
  5
453
  8
LARGER_ENDPLATE
 10
39.59514940116269
 20
79.4951214701488
 30
0.0
  0
VERTEX
  5
454
  8
LARGER_ENDPLATE
 10
39.33405635074693
 20
79.42156339894541
 30
0.0
  0
VERTEX
  5
455
  8
LARGER_ENDPLATE
 10
39.07033985940465
 20
79.36137952250625
 30
0.0
  0
VERTEX
  5
456
  8
LARGER_ENDPLATE
 10
38.80399992713583
 20
79.31456984083137
 30
0.0
  0
VERTEX
  5
457
  8
LARGER_ENDPLATE
 10
38.53503655394047
 20
79.28113435392073
 30
0.0
  0
VERTEX
  5
458
  8
LARGER_ENDPLATE
 10
38.26344973981858
 20
79.26107306177435
 30
0.0
  0
VERTEX
  5
459
  8
LARGER_ENDPLATE
 10
37.98923948477015
 20
79.25438596439221
 30
0.0
  0
VERTEX
  5
45A
  8
LARGER_ENDPLATE
 10
37.63320821192657
 20
79.26466556965538
 30
0.0
  0
VERTEX
  5
45B
  8
LARGER_ENDPLATE
 10
37.29496636708008
 20
79.29550438544484
 30
0.0
  0
VERTEX
  5
45C
  8
LARGER_ENDPLATE
 10
36.97451395023067
 20
79.34690241176064
 30
0.0
  0
VERTEX
  5
45D
  8
LARGER_ENDPLATE
 10
36.67185096137833
 20
79.41885964860273
 30
0.0
  0
VERTEX
  5
45E
  8
LARGER_ENDPLATE
 10
36.38697740052307
 20
79.51137609597117
 30
0.0
  0
VERTEX
  5
45F
  8
LARGER_ENDPLATE
 10
36.11989326766488
 20
79.62445175386591
 30
0.0
  0
VERTEX
  5
460
  8
LARGER_ENDPLATE
 10
35.87059856280377
 20
79.75808662228697
 30
0.0
  0
VERTEX
  5
461
  8
LARGER_ENDPLATE
 10
35.63909328593974
 20
79.91228070123432
 30
0.0
  0
VERTEX
  5
462
  8
LARGER_ENDPLATE
 10
35.43039588325333
 20
80.07881030649747
 30
0.0
  0
VERTEX
  5
463
  8
LARGER_ENDPLATE
 10
35.24952480092512
 20
80.2494517538659
 30
0.0
  0
VERTEX
  5
464
  8
LARGER_ENDPLATE
 10
35.09648003895509
 20
80.42420504333958
 30
0.0
  0
VERTEX
  5
465
  8
LARGER_ENDPLATE
 10
34.97126159734324
 20
80.60307017491853
 30
0.0
  0
VERTEX
  5
466
  8
LARGER_ENDPLATE
 10
34.87386947608959
 20
80.78604714860273
 30
0.0
  0
VERTEX
  5
467
  8
LARGER_ENDPLATE
 10
34.80430367519412
 20
80.97313596439221
 30
0.0
  0
VERTEX
  5
468
  8
LARGER_ENDPLATE
 10
34.76256419465684
 20
81.16433662228695
 30
0.0
  0
VERTEX
  5
469
  8
LARGER_ENDPLATE
 10
34.74865103447775
 20
81.35964912228695
 30
0.0
  0
VERTEX
  5
46A
  8
LARGER_ENDPLATE
 10
34.75276287658301
 20
81.44965277725771
 30
0.0
  0
VERTEX
  5
46B
  8
LARGER_ENDPLATE
 10
34.7650984028988
 20
81.53691520415829
 30
0.0
  0
VERTEX
  5
46C
  8
LARGER_ENDPLATE
 10
34.78565761342512
 20
81.6214364029887
 30
0.0
  0
VERTEX
  5
46D
  8
LARGER_ENDPLATE
 10
34.81444050816196
 20
81.70321637374894
 30
0.0
  0
VERTEX
  5
46E
  8
LARGER_ENDPLATE
 10
34.85144708710933
 20
81.78225511643902
 30
0.0
  0
VERTEX
  5
46F
  8
LARGER_ENDPLATE
 10
34.89667735026723
 20
81.85855263105888
 30
0.0
  0
VERTEX
  5
470
  8
LARGER_ENDPLATE
 10
34.95013129763564
 20
81.9321089176086
 30
0.0
  0
VERTEX
  5
471
  8
LARGER_ENDPLATE
 10
35.01180892921459
 20
82.00292397608813
 30
0.0
  0
VERTEX
  5
472
  8
LARGER_ENDPLATE
 10
35.07874058126137
 20
82.06802814275478
 30
0.0
  0
VERTEX
  5
473
  8
LARGER_ENDPLATE
 10
35.1479565900333
 20
82.12445175386591
 30
0.0
  0
VERTEX
  5
474
  8
LARGER_ENDPLATE
 10
35.21945695553038
 20
82.17219480942146
 30
0.0
  0
VERTEX
  5
475
  8
LARGER_ENDPLATE
 10
35.2932416777526
 20
82.21125730942146
 30
0.0
  0
VERTEX
  5
476
  8
LARGER_ENDPLATE
 10
35.36931075669997
 20
82.2416392538659
 30
0.0
  0
VERTEX
  5
477
  8
LARGER_ENDPLATE
 10
35.44766419237249
 20
82.2633406427548
 30
0.0
  0
VERTEX
  5
478
  8
LARGER_ENDPLATE
 10
35.52830198477015
 20
82.27636147608813
 30
0.0
  0
VERTEX
  5
479
  8
LARGER_ENDPLATE
 10
35.61122413389295
 20
82.2807017538659
 30
0.0
  0
VERTEX
  5
47A
  8
LARGER_ENDPLATE
 10
35.73663531810348
 20
82.27133589129281
 30
0.0
  0
VERTEX
  5
47B
  8
LARGER_ENDPLATE
 10
35.86433085903915
 20
82.2432383035735
 30
0.0
  0
VERTEX
  5
47C
  8
LARGER_ENDPLATE
 10
35.99431075669997
 20
82.19640899070801
 30
0.0
  0
VERTEX
  5
47D
  8
LARGER_ENDPLATE
 10
36.12657501108593
 20
82.13084795269631
 30
0.0
  0
VERTEX
  5
47E
  8
LARGER_ENDPLATE
 10
36.26112362219704
 20
82.04655518953841
 30
0.0
  0
VERTEX
  5
47F
  8
LARGER_ENDPLATE
 10
36.3979565900333
 20
81.94353070123432
 30
0.0
  0
VERTEX
  5
480
  8
LARGER_ENDPLATE
 10
36.5370739145947
 20
81.82177448778403
 30
0.0
  0
VERTEX
  5
481
  8
LARGER_ENDPLATE
 10
36.67847559588125
 20
81.68128654918753
 30
0.0
  0
VERTEX
  5
482
  8
LARGER_ENDPLATE
 10
37.0448864145947
 20
81.31578947316413
 30
0.0
  0
VERTEX
  5
483
  8
LARGER_ENDPLATE
 10
37.36926506956546
 20
81.02339181234544
 30
0.0
  0
VERTEX
  5
484
  8
LARGER_ENDPLATE
 10
37.51569233564733
 20
80.90460526263783
 30
0.0
  0
VERTEX
  5
485
  8
LARGER_ENDPLATE
 10
37.65161156079354
 20
80.80409356673138
 30
0.0
  0
VERTEX
  5
486
  8
LARGER_ENDPLATE
 10
37.77702274500406
 20
80.72185672462612
 30
0.0
  0
VERTEX
  5
487
  8
LARGER_ENDPLATE
 10
37.89192588827892
 20
80.65789473632204
 30
0.0
  0
VERTEX
  5
488
  8
LARGER_ENDPLATE
 10
38.1916334906181
 20
80.52357456088343
 30
0.0
  0
VERTEX
  5
489
  8
LARGER_ENDPLATE
 10
38.33600483564734
 20
80.47080592053257
 30
0.0
  0
VERTEX
  5
48A
  8
LARGER_ENDPLATE
 10
38.47672120991634
 20
80.42763157842731
 30
0.0
  0
VERTEX
  5
48B
  8
LARGER_ENDPLATE
 10
38.61378261342512
 20
80.39405153456767
 30
0.0
  0
VERTEX
  5
48C
  8
LARGER_ENDPLATE
 10
38.74718904617365
 20
80.37006578895362
 30
0.0
  0
VERTEX
  5
48D
  8
LARGER_ENDPLATE
 10
38.87694050816196
 20
80.3556743415852
 30
0.0
  0
VERTEX
  5
48E
  8
LARGER_ENDPLATE
 10
39.00303699939003
 20
80.35087719246239
 30
0.0
  0
VERTEX
  5
48F
  8
LARGER_ENDPLATE
 10
39.1323315900333
 20
80.35453573253001
 30
0.0
  0
VERTEX
  5
490
  8
LARGER_ENDPLATE
 10
39.25705746722629
 20
80.36551135273287
 30
0.0
  0
VERTEX
  5
491
  8
LARGER_ENDPLATE
 10
39.37721463096898
 20
80.38380405307095
 30
0.0
  0
VERTEX
  5
492
  8
LARGER_ENDPLATE
 10
39.49280308126137
 20
80.40941383354426
 30
0.0
  0
VERTEX
  5
493
  8
LARGER_ENDPLATE
 10
39.60382281810348
 20
80.44234069415282
 30
0.0
  0
VERTEX
  5
494
  8
LARGER_ENDPLATE
 10
39.71027384149529
 20
80.48258463489661
 30
0.0
  0
VERTEX
  5
495
  8
LARGER_ENDPLATE
 10
39.81215615143681
 20
80.53014565577563
 30
0.0
  0
VERTEX
  5
496
  8
LARGER_ENDPLATE
 10
39.90946974792804
 20
80.58502375678988
 30
0.0
  0
VERTEX
  5
497
  8
LARGER_ENDPLATE
 10
40.06412069822044
 20
80.68690963603879
 30
0.0
  0
VERTEX
  5
498
  8
LARGER_ENDPLATE
 10
40.21374606371752
 20
80.8022803585808
 30
0.0
  0
VERTEX
  5
499
  8
LARGER_ENDPLATE
 10
40.35834584441926
 20
80.93113592441597
 30
0.0
  0
VERTEX
  5
49A
  8
LARGER_ENDPLATE
 10
40.4979200403257
 20
81.07347633354425
 30
0.0
  0
VERTEX
  5
49B
  8
LARGER_ENDPLATE
 10
40.63246865143681
 20
81.22930158596569
 30
0.0
  0
VERTEX
  5
49C
  8
LARGER_ENDPLATE
 10
40.7619916777526
 20
81.39861168168022
 30
0.0
  0
VERTEX
  5
49D
  8
LARGER_ENDPLATE
 10
40.88648911927307
 20
81.58140662068791
 30
0.0
  0
VERTEX
  5
49E
  8
LARGER_ENDPLATE
 10
41.00596097599821
 20
81.7776864029887
 30
0.0
  0
VERTEX
  5
49F
  8
LARGER_ENDPLATE
 10
41.13845366605668
 20
82.03981633719923
 30
0.0
  0
VERTEX
  5
4A0
  8
LARGER_ENDPLATE
 10
41.30201360757715
 20
82.42016173193608
 30
0.0
  0
VERTEX
  5
4A1
  8
LARGER_ENDPLATE
 10
41.4966408005596
 20
82.91872258719923
 30
0.0
  0
VERTEX
  5
4A2
  8
LARGER_ENDPLATE
 10
41.72233524500406
 20
83.5354989029887
 30
0.0
  0
VERTEX
  5
4A3
  8
LARGER_ENDPLATE
 10
41.97909694091048
 20
84.27049067930449
 30
0.0
  0
VERTEX
  5
4A4
  8
LARGER_ENDPLATE
 10
42.26692588827891
 20
85.1236979161466
 30
0.0
  0
VERTEX
  5
4A5
  8
LARGER_ENDPLATE
 10
42.93578553740172
 20
87.18475877140976
 30
0.0
  0
VERTEX
  5
4A6
  8
LARGER_ENDPLATE
 10
43.54525191167073
 20
89.11950897700186
 30
0.0
  0
VERTEX
  5
4A7
  8
LARGER_ENDPLATE
 10
44.14558085903916
 20
91.09083744465536
 30
0.0
  0
VERTEX
  5
4A8
  8
LARGER_ENDPLATE
 10
44.73677237950699
 20
93.0987441743703
 30
0.0
  0
VERTEX
  5
4A9
  8
LARGER_ENDPLATE
 10
45.31882647307424
 20
95.1432291661466
 30
0.0
  0
VERTEX
  5
4AA
  8
LARGER_ENDPLATE
 10
46.59075629763564
 20
99.59064327433373
 30
0.0
  0
VERTEX
  5
4AB
  8
LARGER_ENDPLATE
 10
45.88900191167073
 20
99.6198830404156
 30
0.0
  0
VERTEX
  5
4AC
  8
LARGER_ENDPLATE
 10
45.6015727267292
 20
99.61551420817877
 30
0.0
  0
VERTEX
  5
4AD
  8
LARGER_ENDPLATE
 10
45.32042552278183
 20
99.60240771146823
 30
0.0
  0
VERTEX
  5
4AE
  8
LARGER_ENDPLATE
 10
45.04556029982862
 20
99.58056355028403
 30
0.0
  0
VERTEX
  5
4AF
  8
LARGER_ENDPLATE
 10
44.77697705786956
 20
99.54998172462612
 30
0.0
  0
VERTEX
  5
4B0
  8
LARGER_ENDPLATE
 10
44.51467579690465
 20
99.51066223449455
 30
0.0
  0
VERTEX
  5
4B1
  8
LARGER_ENDPLATE
 10
44.25865651693389
 20
99.46260507988927
 30
0.0
  0
VERTEX
  5
4B2
  8
LARGER_ENDPLATE
 10
44.00891921795728
 20
99.40581026081033
 30
0.0
  0
VERTEX
  5
4B3
  8
LARGER_ENDPLATE
 10
43.76546389997483
 20
99.3402777772577
 30
0.0
  0
VERTEX
  5
4B4
  8
LARGER_ENDPLATE
 10
43.52829056298651
 20
99.2660076292314
 30
0.0
  0
VERTEX
  5
4B5
  8
LARGER_ENDPLATE
 10
43.29739920699236
 20
99.18299981673138
 30
0.0
  0
VERTEX
  5
4B6
  8
LARGER_ENDPLATE
 10
43.07278983199236
 20
99.0912543397577
 30
0.0
  0
VERTEX
  5
4B7
  8
LARGER_ENDPLATE
 10
42.85446243798651
 20
98.99077119831033
 30
0.0
  0
VERTEX
  5
4B8
  8
LARGER_ENDPLATE
 10
42.64241702497482
 20
98.88155039238929
 30
0.0
  0
VERTEX
  5
4B9
  8
LARGER_ENDPLATE
 10
42.43665359295727
 20
98.76359192199455
 30
0.0
  0
VERTEX
  5
4BA
  8
LARGER_ENDPLATE
 10
42.23717214193388
 20
98.63689578712614
 30
0.0
  0
VERTEX
  5
4BB
  8
LARGER_ENDPLATE
 10
42.04397267190465
 20
98.50146198778403
 30
0.0
  0
VERTEX
  5
4BC
  8
LARGER_ENDPLATE
 10
41.85985351985786
 20
98.361173930401
 30
0.0
  0
VERTEX
  5
4BD
  8
LARGER_ENDPLATE
 10
41.68761302278184
 20
98.21991502140976
 30
0.0
  0
VERTEX
  5
4BE
  8
LARGER_ENDPLATE
 10
41.52725118067657
 20
98.07768526081034
 30
0.0
  0
VERTEX
  5
4BF
  8
LARGER_ENDPLATE
 10
41.37876799354207
 20
97.93448464860275
 30
0.0
  0
VERTEX
  5
4C0
  8
LARGER_ENDPLATE
 10
41.24216346137833
 20
97.79031318478695
 30
0.0
  0
VERTEX
  5
4C1
  8
LARGER_ENDPLATE
 10
41.11743758418534
 20
97.64517086936299
 30
0.0
  0
VERTEX
  5
4C2
  8
LARGER_ENDPLATE
 10
41.00459036196312
 20
97.49905770233083
 30
0.0
  0
VERTEX
  5
4C3
  8
LARGER_ENDPLATE
 10
40.90362179471166
 20
97.35197368369047
 30
0.0
  0
VERTEX
  5
4C4
  8
LARGER_ENDPLATE
 10
40.81453188243096
 20
97.20391881344193
 30
0.0
  0
VERTEX
  5
4C5
  8
LARGER_ENDPLATE
 10
40.73732062512101
 20
97.05489309158521
 30
0.0
  0
VERTEX
  5
4C6
  8
LARGER_ENDPLATE
 10
40.67198802278183
 20
96.9048965181203
 30
0.0
  0
VERTEX
  5
4C7
  8
LARGER_ENDPLATE
 10
40.61853407541342
 20
96.7539290930472
 30
0.0
  0
VERTEX
  5
4C8
  8
LARGER_ENDPLATE
 10
40.57695878301575
 20
96.60199081636593
 30
0.0
  0
VERTEX
  5
4C9
  8
LARGER_ENDPLATE
 10
40.54726214558886
 20
96.44908168807645
 30
0.0
  0
VERTEX
  5
4CA
  8
LARGER_ENDPLATE
 10
40.52944416313272
 20
96.29520170817877
 30
0.0
  0
VERTEX
  5
4CB
  8
LARGER_ENDPLATE
 10
40.52350483564734
 20
96.14035087667291
 30
0.0
  0
VERTEX
  5
4CC
  8
LARGER_ENDPLATE
 10
40.52944416313272
 20
96.02864583281327
 30
0.0
  0
VERTEX
  5
4CD
  8
LARGER_ENDPLATE
 10
40.54726214558886
 20
95.91282894684835
 30
0.0
  0
VERTEX
  5
4CE
  8
LARGER_ENDPLATE
 10
40.57695878301575
 20
95.79290021877819
 30
0.0
  0
VERTEX
  5
4CF
  8
LARGER_ENDPLATE
 10
40.61853407541342
 20
95.66885964860273
 30
0.0
  0
VERTEX
  5
4D0
  8
LARGER_ENDPLATE
 10
40.67198802278183
 20
95.54070723632205
 30
0.0
  0
VERTEX
  5
4D1
  8
LARGER_ENDPLATE
 10
40.73732062512101
 20
95.40844298193608
 30
0.0
  0
VERTEX
  5
4D2
  8
LARGER_ENDPLATE
 10
40.81453188243096
 20
95.27206688544484
 30
0.0
  0
VERTEX
  5
4D3
  8
LARGER_ENDPLATE
 10
40.90362179471167
 20
95.13157894684835
 30
0.0
  0
VERTEX
  5
4D4
  8
LARGER_ENDPLATE
 10
41.05713056664149
 20
94.88212719246238
 30
0.0
  0
VERTEX
  5
4D5
  8
LARGER_ENDPLATE
 10
41.1667796894485
 20
94.66008771877817
 30
0.0
  0
VERTEX
  5
4D6
  8
LARGER_ENDPLATE
 10
41.20515688243096
 20
94.55934758719923
 30
0.0
  0
VERTEX
  5
4D7
  8
LARGER_ENDPLATE
 10
41.23256916313272
 20
94.46546052579572
 30
0.0
  0
VERTEX
  5
4D8
  8
LARGER_ENDPLATE
 10
41.24901653155376
 20
94.37842653456767
 30
0.0
  0
VERTEX
  5
4D9
  8
LARGER_ENDPLATE
 10
41.25449898769412
 20
94.29824561351502
 30
0.0
  0
VERTEX
  5
4DA
  8
LARGER_ENDPLATE
 10
41.25004449208009
 20
94.20470120562028
 30
0.0
  0
VERTEX
  5
4DB
  8
LARGER_ENDPLATE
 10
41.23668100523798
 20
94.11412646146825
 30
0.0
  0
VERTEX
  5
4DC
  8
LARGER_ENDPLATE
 10
41.21440852716781
 20
94.02652138105887
 30
0.0
  0
VERTEX
  5
4DD
  8
LARGER_ENDPLATE
 10
41.18322705786956
 20
93.94188596439221
 30
0.0
  0
VERTEX
  5
4DE
  8
LARGER_ENDPLATE
 10
41.14313659734324
 20
93.86022021146823
 30
0.0
  0
VERTEX
  5
4DF
  8
LARGER_ENDPLATE
 10
41.09413714558885
 20
93.78152412228695
 30
0.0
  0
VERTEX
  5
4E0
  8
LARGER_ENDPLATE
 10
41.03622870260639
 20
93.70579769684835
 30
0.0
  0
VERTEX
  5
4E1
  8
LARGER_ENDPLATE
 10
40.96941126839587
 20
93.63304093515245
 30
0.0
  0
VERTEX
  5
4E2
  8
LARGER_ENDPLATE
 10
40.89642607102746
 20
93.56622350094193
 30
0.0
  0
VERTEX
  5
4E3
  8
LARGER_ENDPLATE
 10
40.82001433857131
 20
93.50831505795946
 30
0.0
  0
VERTEX
  5
4E4
  8
LARGER_ENDPLATE
 10
40.74017607102745
 20
93.45931560620508
 30
0.0
  0
VERTEX
  5
4E5
  8
LARGER_ENDPLATE
 10
40.65691126839587
 20
93.41922514567875
 30
0.0
  0
VERTEX
  5
4E6
  8
LARGER_ENDPLATE
 10
40.57021993067657
 20
93.38804367638052
 30
0.0
  0
VERTEX
  5
4E7
  8
LARGER_ENDPLATE
 10
40.48010205786956
 20
93.36577119831034
 30
0.0
  0
VERTEX
  5
4E8
  8
LARGER_ENDPLATE
 10
40.38655764997483
 20
93.35240771146825
 30
0.0
  0
VERTEX
  5
4E9
  8
LARGER_ENDPLATE
 10
40.28958670699237
 20
93.3479532158542
 30
0.0
  0
VERTEX
  5
4EA
  8
LARGER_ENDPLATE
 10
40.16451817629061
 20
93.35502044447263
 30
0.0
  0
VERTEX
  5
4EB
  8
LARGER_ENDPLATE
 10
40.04516053740172
 20
93.37622213032789
 30
0.0
  0
VERTEX
  5
4EC
  8
LARGER_ENDPLATE
 10
39.9315137903257
 20
93.41155827341998
 30
0.0
  0
VERTEX
  5
4ED
  8
LARGER_ENDPLATE
 10
39.82357793506254
 20
93.46102887374893
 30
0.0
  0
VERTEX
  5
4EE
  8
LARGER_ENDPLATE
 10
39.72135297161225
 20
93.52463393131472
 30
0.0
  0
VERTEX
  5
4EF
  8
LARGER_ENDPLATE
 10
39.62483889997482
 20
93.60237344611735
 30
0.0
  0
VERTEX
  5
4F0
  8
LARGER_ENDPLATE
 10
39.53403572015026
 20
93.69424741815683
 30
0.0
  0
VERTEX
  5
4F1
  8
LARGER_ENDPLATE
 10
39.44894343213856
 20
93.80025584743315
 30
0.0
  0
VERTEX
  5
4F2
  8
LARGER_ENDPLATE
 10
39.37184639266489
 20
93.91994186260128
 30
0.0
  0
VERTEX
  5
4F3
  8
LARGER_ENDPLATE
 10
39.30502895845436
 20
94.0528485923162
 30
0.0
  0
VERTEX
  5
4F4
  8
LARGER_ENDPLATE
 10
39.24849112950699
 20
94.19897603657789
 30
0.0
  0
VERTEX
  5
4F5
  8
LARGER_ENDPLATE
 10
39.20223290582278
 20
94.35832419538636
 30
0.0
  0
VERTEX
  5
4F6
  8
LARGER_ENDPLATE
 10
39.16625428740173
 20
94.53089306874162
 30
0.0
  0
VERTEX
  5
4F7
  8
LARGER_ENDPLATE
 10
39.14055527424384
 20
94.71668265664367
 30
0.0
  0
VERTEX
  5
4F8
  8
LARGER_ENDPLATE
 10
39.1251358663491
 20
94.9156929590925
 30
0.0
  0
VERTEX
  5
4F9
  8
LARGER_ENDPLATE
 10
39.11999606371752
 20
95.12792397608811
 30
0.0
  0
VERTEX
  5
4FA
  8
LARGER_ENDPLATE
 10
39.12452908409398
 20
95.3311473997392
 30
0.0
  0
VERTEX
  5
4FB
  8
LARGER_ENDPLATE
 10
39.13812814522336
 20
95.53226047040008
 30
0.0
  0
VERTEX
  5
4FC
  8
LARGER_ENDPLATE
 10
39.16079324710567
 20
95.7312631880707
 30
0.0
  0
VERTEX
  5
4FD
  8
LARGER_ENDPLATE
 10
39.1925243897409
 20
95.92815555275112
 30
0.0
  0
VERTEX
  5
4FE
  8
LARGER_ENDPLATE
 10
39.23332157312906
 20
96.12293756444132
 30
0.0
  0
VERTEX
  5
4FF
  8
LARGER_ENDPLATE
 10
39.28318479727014
 20
96.31560922314131
 30
0.0
  0
VERTEX
  5
500
  8
LARGER_ENDPLATE
 10
39.34211406216416
 20
96.50617052885104
 30
0.0
  0
VERTEX
  5
501
  8
LARGER_ENDPLATE
 10
39.41010936781108
 20
96.69462148157058
 30
0.0
  0
VERTEX
  5
502
  8
LARGER_ENDPLATE
 10
39.48717071421093
 20
96.88096208129987
 30
0.0
  0
VERTEX
  5
503
  8
LARGER_ENDPLATE
 10
39.5732981013637
 20
97.06519232803896
 30
0.0
  0
VERTEX
  5
504
  8
LARGER_ENDPLATE
 10
39.66849152926941
 20
97.24731222178781
 30
0.0
  0
VERTEX
  5
505
  8
LARGER_ENDPLATE
 10
39.77275099792804
 20
97.42732176254646
 30
0.0
  0
VERTEX
  5
506
  8
LARGER_ENDPLATE
 10
39.8860765073396
 20
97.60522095031487
 30
0.0
  0
VERTEX
  5
507
  8
LARGER_ENDPLATE
 10
40.00846805750406
 20
97.78100978509306
 30
0.0
  0
VERTEX
  5
508
  8
LARGER_ENDPLATE
 10
40.13992564842147
 20
97.95468826688102
 30
0.0
  0
VERTEX
  5
509
  8
LARGER_ENDPLATE
 10
40.28044928009178
 20
98.12625639567877
 30
0.0
  0
VERTEX
  5
50A
  8
LARGER_ENDPLATE
 10
40.42867012313364
 20
98.29389204006725
 30
0.0
  0
VERTEX
  5
50B
  8
LARGER_ENDPLATE
 10
40.58321934816561
 20
98.45577306862742
 30
0.0
  0
VERTEX
  5
50C
  8
LARGER_ENDPLATE
 10
40.74409695518772
 20
98.61189948135927
 30
0.0
  0
VERTEX
  5
50D
  8
LARGER_ENDPLATE
 10
40.91130294419997
 20
98.76227127826283
 30
0.0
  0
VERTEX
  5
50E
  8
LARGER_ENDPLATE
 10
41.08483731520234
 20
98.90688845933808
 30
0.0
  0
VERTEX
  5
50F
  8
LARGER_ENDPLATE
 10
41.26470006819485
 20
99.04575102458503
 30
0.0
  0
VERTEX
  5
510
  8
LARGER_ENDPLATE
 10
41.45089120317749
 20
99.17885897400365
 30
0.0
  0
VERTEX
  5
511
  8
LARGER_ENDPLATE
 10
41.64341072015026
 20
99.30621230759397
 30
0.0
  0
VERTEX
  5
512
  8
LARGER_ENDPLATE
 10
41.84225861911315
 20
99.42781102535598
 30
0.0
  0
VERTEX
  5
513
  8
LARGER_ENDPLATE
 10
42.04743490006619
 20
99.5436551272897
 30
0.0
  0
VERTEX
  5
514
  8
LARGER_ENDPLATE
 10
42.25893956300935
 20
99.65374461339509
 30
0.0
  0
VERTEX
  5
515
  8
LARGER_ENDPLATE
 10
42.47677260794265
 20
99.75807948367219
 30
0.0
  0
VERTEX
  5
516
  8
LARGER_ENDPLATE
 10
42.70093403486608
 20
99.85665973812097
 30
0.0
  0
VERTEX
  5
517
  8
LARGER_ENDPLATE
 10
42.93142384377964
 20
99.94948537674145
 30
0.0
  0
VERTEX
  5
518
  8
LARGER_ENDPLATE
 10
43.16824203468333
 20
100.0365563995336
 30
0.0
  0
VERTEX
  5
519
  8
LARGER_ENDPLATE
 10
43.41138860757716
 20
100.1178728064975
 30
0.0
  0
VERTEX
  5
51A
  8
LARGER_ENDPLATE
 10
43.76103082020509
 20
100.2170281655984
 30
0.0
  0
VERTEX
  5
51B
  8
LARGER_ENDPLATE
 10
44.15309068177307
 20
100.3029628101525
 30
0.0
  0
VERTEX
  5
51C
  8
LARGER_ENDPLATE
 10
44.5875681922811
 20
100.3756767401598
 30
0.0
  0
VERTEX
  5
51D
  8
LARGER_ENDPLATE
 10
45.0644633517292
 20
100.4351699556203
 30
0.0
  0
VERTEX
  5
51E
  8
LARGER_ENDPLATE
 10
45.58377616011736
 20
100.481442456534
 30
0.0
  0
VERTEX
  5
51F
  8
LARGER_ENDPLATE
 10
46.14550661744558
 20
100.514494242901
 30
0.0
  0
VERTEX
  5
520
  8
LARGER_ENDPLATE
 10
46.74965472371385
 20
100.5343253147212
 30
0.0
  0
VERTEX
  5
521
  8
LARGER_ENDPLATE
 10
47.39622047892219
 20
100.5409356719946
 30
0.0
  0
SEQEND
  5
AC0
  8
LARGER_ENDPLATE
  0
POLYLINE
  5
7A
  8
LARGER_ENDPLATE
 66
     1
 10
0.0
 20
0.0
 30
0.0
 70
     1
  0
VERTEX
  5
522
  8
LARGER_ENDPLATE
 10
124.9220915622363
 20
162.9999999993479
 30
0.0
  0
VERTEX
  5
523
  8
LARGER_ENDPLATE
 10
121.0817948719833
 20
162.9999999993479
 30
0.0
  0
VERTEX
  5
524
  8
LARGER_ENDPLATE
 10
120.743970908455
 20
162.9943142595779
 30
0.0
  0
VERTEX
  5
525
  8
LARGER_ENDPLATE
 10
120.4080270075014
 20
162.9773483978359
 30
0.0
  0
VERTEX
  5
526
  8
LARGER_ENDPLATE
 10
120.0741974866692
 20
162.9492394504743
 30
0.0
  0
VERTEX
  5
527
  8
LARGER_ENDPLATE
 10
119.7427166635051
 20
162.9101244538452
 30
0.0
  0
VERTEX
  5
528
  8
LARGER_ENDPLATE
 10
119.4138188555559
 20
162.8601404443011
 30
0.0
  0
VERTEX
  5
529
  8
LARGER_ENDPLATE
 10
119.0877383803681
 20
162.799424458194
 30
0.0
  0
VERTEX
  5
52A
  8
LARGER_ENDPLATE
 10
118.7647095554885
 20
162.7281135318763
 30
0.0
  0
VERTEX
  5
52B
  8
LARGER_ENDPLATE
 10
118.4449666984638
 20
162.6463447017002
 30
0.0
  0
VERTEX
  5
52C
  8
LARGER_ENDPLATE
 10
118.1287441268406
 20
162.554255004018
 30
0.0
  0
VERTEX
  5
52D
  8
LARGER_ENDPLATE
 10
117.8162761581658
 20
162.451981475182
 30
0.0
  0
VERTEX
  5
52E
  8
LARGER_ENDPLATE
 10
117.5077971099859
 20
162.3396611515445
 30
0.0
  0
VERTEX
  5
52F
  8
LARGER_ENDPLATE
 10
117.2035412998476
 20
162.2174310694576
 30
0.0
  0
VERTEX
  5
530
  8
LARGER_ENDPLATE
 10
116.9037430452978
 20
162.0854282652736
 30
0.0
  0
VERTEX
  5
531
  8
LARGER_ENDPLATE
 10
116.6086366638829
 20
161.9437897753449
 30
0.0
  0
VERTEX
  5
532
  8
LARGER_ENDPLATE
 10
116.3184564731499
 20
161.7926526360236
 30
0.0
  0
VERTEX
  5
533
  8
LARGER_ENDPLATE
 10
116.0334367906453
 20
161.6321538836621
 30
0.0
  0
VERTEX
  5
534
  8
LARGER_ENDPLATE
 10
115.7538119339158
 20
161.4624305546125
 30
0.0
  0
VERTEX
  5
535
  8
LARGER_ENDPLATE
 10
115.4798162205081
 20
161.2836196852272
 30
0.0
  0
VERTEX
  5
536
  8
LARGER_ENDPLATE
 10
115.211683967969
 20
161.0958583118584
 30
0.0
  0
VERTEX
  5
537
  8
LARGER_ENDPLATE
 10
114.9496494938451
 20
160.8992834708584
 30
0.0
  0
VERTEX
  5
538
  8
LARGER_ENDPLATE
 10
114.6939471156831
 20
160.6940321985794
 30
0.0
  0
VERTEX
  5
539
  8
LARGER_ENDPLATE
 10
114.4448111510297
 20
160.4802415313737
 30
0.0
  0
VERTEX
  5
53A
  8
LARGER_ENDPLATE
 10
114.2024759174317
 20
160.2580485055936
 30
0.0
  0
VERTEX
  5
53B
  8
LARGER_ENDPLATE
 10
113.9671757324356
 20
160.0275901575912
 30
0.0
  0
VERTEX
  5
53C
  8
LARGER_ENDPLATE
 10
113.7391449135882
 20
159.789003523719
 30
0.0
  0
VERTEX
  5
53D
  8
LARGER_ENDPLATE
 10
113.5186177784363
 20
159.5424256403291
 30
0.0
  0
VERTEX
  5
53E
  8
LARGER_ENDPLATE
 10
113.3058286445264
 20
159.2879935437738
 30
0.0
  0
VERTEX
  5
53F
  8
LARGER_ENDPLATE
 10
113.1010118294053
 20
159.0258442704053
 30
0.0
  0
VERTEX
  5
540
  8
LARGER_ENDPLATE
 10
112.9044016506197
 20
158.756114856576
 30
0.0
  0
VERTEX
  5
541
  8
LARGER_ENDPLATE
 10
112.7162324257162
 20
158.478942338638
 30
0.0
  0
VERTEX
  5
542
  8
LARGER_ENDPLATE
 10
112.5367384722417
 20
158.1944637529437
 30
0.0
  0
VERTEX
  5
543
  8
LARGER_ENDPLATE
 10
112.3661541077426
 20
157.9028161358453
 30
0.0
  0
VERTEX
  5
544
  8
LARGER_ENDPLATE
 10
89.51615410783465
 20
117.2828161360079
 30
0.0
  0
VERTEX
  5
545
  8
LARGER_ENDPLATE
 10
89.36296737862543
 20
116.9999477782431
 30
0.0
  0
VERTEX
  5
546
  8
LARGER_ENDPLATE
 10
89.21921121027643
 20
116.7128262505737
 30
0.0
  0
VERTEX
  5
547
  8
LARGER_ENDPLATE
 10
89.08494803337406
 20
116.4216898708147
 30
0.0
  0
VERTEX
  5
548
  8
LARGER_ENDPLATE
 10
88.9602402785048
 20
116.1267769567808
 30
0.0
  0
VERTEX
  5
549
  8
LARGER_ENDPLATE
 10
88.84515037625505
 20
115.828325826287
 30
0.0
  0
VERTEX
  5
54A
  8
LARGER_ENDPLATE
 10
88.73974075721125
 20
115.5265747971481
 30
0.0
  0
VERTEX
  5
54B
  8
LARGER_ENDPLATE
 10
88.64407385195983
 20
115.221762187179
 30
0.0
  0
VERTEX
  5
54C
  8
LARGER_ENDPLATE
 10
88.5582120910872
 20
114.9141263141945
 30
0.0
  0
VERTEX
  5
54D
  8
LARGER_ENDPLATE
 10
88.48221790517982
 20
114.6039054960095
 30
0.0
  0
VERTEX
  5
54E
  8
LARGER_ENDPLATE
 10
88.41615372482411
 20
114.291338050439
 30
0.0
  0
VERTEX
  5
54F
  8
LARGER_ENDPLATE
 10
88.36008198060651
 20
113.9766622952977
 30
0.0
  0
VERTEX
  5
550
  8
LARGER_ENDPLATE
 10
88.31406510311345
 20
113.6601165484005
 30
0.0
  0
VERTEX
  5
551
  8
LARGER_ENDPLATE
 10
88.27816552293135
 20
113.3419391275623
 30
0.0
  0
VERTEX
  5
552
  8
LARGER_ENDPLATE
 10
88.25244567064664
 20
113.022368350598
 30
0.0
  0
VERTEX
  5
553
  8
LARGER_ENDPLATE
 10
88.23696797684576
 20
112.7016425353224
 30
0.0
  0
VERTEX
  5
554
  8
LARGER_ENDPLATE
 10
88.23179487211515
 20
112.3799999995504
 30
0.0
  0
VERTEX
  5
555
  8
LARGER_ENDPLATE
 10
88.23179487211526
 20
9.999999999959982
 30
0.0
  0
VERTEX
  5
556
  8
LARGER_ENDPLATE
 10
88.24480681006253
 20
9.485401326328567
 30
0.0
  0
VERTEX
  5
557
  8
LARGER_ENDPLATE
 10
88.28342374481431
 20
8.977558090452884
 30
0.0
  0
VERTEX
  5
558
  8
LARGER_ENDPLATE
 10
88.3470173577357
 20
8.477098610967893
 30
0.0
  0
VERTEX
  5
559
  8
LARGER_ENDPLATE
 10
88.43495933019166
 20
7.984651206508554
 30
0.0
  0
VERTEX
  5
55A
  8
LARGER_ENDPLATE
 10
88.54662134354729
 20
7.500844195709826
 30
0.0
  0
VERTEX
  5
55B
  8
LARGER_ENDPLATE
 10
88.68137507916764
 20
7.02630589720667
 30
0.0
  0
VERTEX
  5
55C
  8
LARGER_ENDPLATE
 10
88.83859221841772
 20
6.561664629634047
 30
0.0
  0
VERTEX
  5
55D
  8
LARGER_ENDPLATE
 10
89.01764444266254
 20
6.107548711626915
 30
0.0
  0
VERTEX
  5
55E
  8
LARGER_ENDPLATE
 10
89.2179034332672
 20
5.664586461820237
 30
0.0
  0
VERTEX
  5
55F
  8
LARGER_ENDPLATE
 10
89.4387408715967
 20
5.233406198848972
 30
0.0
  0
VERTEX
  5
560
  8
LARGER_ENDPLATE
 10
89.67952843901611
 20
4.814636241348079
 30
0.0
  0
VERTEX
  5
561
  8
LARGER_ENDPLATE
 10
89.93963781689047
 20
4.408904907952521
 30
0.0
  0
VERTEX
  5
562
  8
LARGER_ENDPLATE
 10
90.21844068658478
 20
4.016840517297256
 30
0.0
  0
VERTEX
  5
563
  8
LARGER_ENDPLATE
 10
90.51530872946412
 20
3.639071388017245
 30
0.0
  0
VERTEX
  5
564
  8
LARGER_ENDPLATE
 10
90.82961362689349
 20
3.276225838747446
 30
0.0
  0
VERTEX
  5
565
  8
LARGER_ENDPLATE
 10
91.16072706023797
 20
2.928932188122822
 30
0.0
  0
VERTEX
  5
566
  8
LARGER_ENDPLATE
 10
91.50802071086258
 20
2.597818754778332
 30
0.0
  0
VERTEX
  5
567
  8
LARGER_ENDPLATE
 10
91.87086626013237
 20
2.283513857348936
 30
0.0
  0
VERTEX
  5
568
  8
LARGER_ENDPLATE
 10
92.24863538941237
 20
1.986645814469595
 30
0.0
  0
VERTEX
  5
569
  8
LARGER_ENDPLATE
 10
92.64069978006764
 20
1.707842944775269
 30
0.0
  0
VERTEX
  5
56A
  8
LARGER_ENDPLATE
 10
93.04643111346319
 20
1.447733566900917
 30
0.0
  0
VERTEX
  5
56B
  8
LARGER_ENDPLATE
 10
93.46520107096407
 20
1.2069459994815
 30
0.0
  0
VERTEX
  5
56C
  8
LARGER_ENDPLATE
 10
93.89638133393531
 20
0.9861085611519789
 30
0.0
  0
VERTEX
  5
56D
  8
LARGER_ENDPLATE
 10
94.33934358374196
 20
0.7858495705473127
 30
0.0
  0
VERTEX
  5
56E
  8
LARGER_ENDPLATE
 10
94.79345950174908
 20
0.6067973463024623
 30
0.0
  0
VERTEX
  5
56F
  8
LARGER_ENDPLATE
 10
95.25810076932169
 20
0.4495802070523876
 30
0.0
  0
VERTEX
  5
570
  8
LARGER_ENDPLATE
 10
95.73263906782483
 20
0.3148264714320488
 30
0.0
  0
VERTEX
  5
571
  8
LARGER_ENDPLATE
 10
96.21644607862355
 20
0.2031644580764061
 30
0.0
  0
VERTEX
  5
572
  8
LARGER_ENDPLATE
 10
96.70889348308287
 20
0.1152224856204197
 30
0.0
  0
VERTEX
  5
573
  8
LARGER_ENDPLATE
 10
97.20935296256786
 20
0.0516288726990498
 30
0.0
  0
VERTEX
  5
574
  8
LARGER_ENDPLATE
 10
97.71719619844353
 20
0.0130119379472565
 30
0.0
  0
VERTEX
  5
575
  8
LARGER_ENDPLATE
 10
98.23179487207493
 20
0.0
 30
0.0
  0
VERTEX
  5
576
  8
LARGER_ENDPLATE
 10
124.9793331164449
 20
0.0
 30
0.0
  0
VERTEX
  5
577
  8
LARGER_ENDPLATE
 10
138.2317948718348
 20
0.0
 30
0.0
  0
VERTEX
  5
578
  8
LARGER_ENDPLATE
 10
138.7463935454662
 20
0.013011937947255
 30
0.0
  0
VERTEX
  5
579
  8
LARGER_ENDPLATE
 10
139.2542367813419
 20
0.0516288726990466
 30
0.0
  0
VERTEX
  5
57A
  8
LARGER_ENDPLATE
 10
139.7546962608269
 20
0.1152224856204147
 30
0.0
  0
VERTEX
  5
57B
  8
LARGER_ENDPLATE
 10
140.2471436652862
 20
0.2031644580763991
 30
0.0
  0
VERTEX
  5
57C
  8
LARGER_ENDPLATE
 10
140.7309506760849
 20
0.3148264714320397
 30
0.0
  0
VERTEX
  5
57D
  8
LARGER_ENDPLATE
 10
141.2054889745881
 20
0.4495802070523762
 30
0.0
  0
VERTEX
  5
57E
  8
LARGER_ENDPLATE
 10
141.6701302421607
 20
0.6067973463024486
 30
0.0
  0
VERTEX
  5
57F
  8
LARGER_ENDPLATE
 10
142.1242461601679
 20
0.7858495705472968
 30
0.0
  0
VERTEX
  5
580
  8
LARGER_ENDPLATE
 10
142.5672084099746
 20
0.9861085611519605
 30
0.0
  0
VERTEX
  5
581
  8
LARGER_ENDPLATE
 10
142.9983886729458
 20
1.20694599948148
 30
0.0
  0
VERTEX
  5
582
  8
LARGER_ENDPLATE
 10
143.4171586304467
 20
1.447733566900894
 30
0.0
  0
VERTEX
  5
583
  8
LARGER_ENDPLATE
 10
143.8228899638423
 20
1.707842944775243
 30
0.0
  0
VERTEX
  5
584
  8
LARGER_ENDPLATE
 10
144.2149543544976
 20
1.986645814469568
 30
0.0
  0
VERTEX
  5
585
  8
LARGER_ENDPLATE
 10
144.5927234837776
 20
2.283513857348908
 30
0.0
  0
VERTEX
  5
586
  8
LARGER_ENDPLATE
 10
144.9555690330474
 20
2.597818754778301
 30
0.0
  0
VERTEX
  5
587
  8
LARGER_ENDPLATE
 10
145.302862683672
 20
2.92893218812279
 30
0.0
  0
VERTEX
  5
588
  8
LARGER_ENDPLATE
 10
145.6339761170165
 20
3.276225838747413
 30
0.0
  0
VERTEX
  5
589
  8
LARGER_ENDPLATE
 10
145.9482810144459
 20
3.63907138801721
 30
0.0
  0
VERTEX
  5
58A
  8
LARGER_ENDPLATE
 10
146.2451490573252
 20
4.016840517297221
 30
0.0
  0
VERTEX
  5
58B
  8
LARGER_ENDPLATE
 10
146.5239519270195
 20
4.408904907952486
 30
0.0
  0
VERTEX
  5
58C
  8
LARGER_ENDPLATE
 10
146.7840613048939
 20
4.814636241348046
 30
0.0
  0
VERTEX
  5
58D
  8
LARGER_ENDPLATE
 10
147.0248488723133
 20
5.233406198848938
 30
0.0
  0
VERTEX
  5
58E
  8
LARGER_ENDPLATE
 10
147.2456863106428
 20
5.664586461820203
 30
0.0
  0
VERTEX
  5
58F
  8
LARGER_ENDPLATE
 10
147.4459453012475
 20
6.107548711626883
 30
0.0
  0
VERTEX
  5
590
  8
LARGER_ENDPLATE
 10
147.6249975254923
 20
6.561664629634016
 30
0.0
  0
VERTEX
  5
591
  8
LARGER_ENDPLATE
 10
147.7822146647424
 20
7.026305897206642
 30
0.0
  0
VERTEX
  5
592
  8
LARGER_ENDPLATE
 10
147.9169684003628
 20
7.500844195709801
 30
0.0
  0
VERTEX
  5
593
  8
LARGER_ENDPLATE
 10
148.0286304137184
 20
7.984651206508532
 30
0.0
  0
VERTEX
  5
594
  8
LARGER_ENDPLATE
 10
148.1165723861744
 20
8.477098610967875
 30
0.0
  0
VERTEX
  5
595
  8
LARGER_ENDPLATE
 10
148.1801659990957
 20
8.977558090452872
 30
0.0
  0
VERTEX
  5
596
  8
LARGER_ENDPLATE
 10
148.2187829338475
 20
9.48540132632856
 30
0.0
  0
VERTEX
  5
597
  8
LARGER_ENDPLATE
 10
148.2317948717948
 20
9.999999999959982
 30
0.0
  0
VERTEX
  5
598
  8
LARGER_ENDPLATE
 10
148.2317948717948
 20
152.9999999993879
 30
0.0
  0
VERTEX
  5
599
  8
LARGER_ENDPLATE
 10
148.2187829338476
 20
153.5145986730193
 30
0.0
  0
VERTEX
  5
59A
  8
LARGER_ENDPLATE
 10
148.1801659990958
 20
154.022441908895
 30
0.0
  0
VERTEX
  5
59B
  8
LARGER_ENDPLATE
 10
148.1165723861744
 20
154.5229013883801
 30
0.0
  0
VERTEX
  5
59C
  8
LARGER_ENDPLATE
 10
148.0286304137184
 20
155.0153487928394
 30
0.0
  0
VERTEX
  5
59D
  8
LARGER_ENDPLATE
 10
147.9169684003628
 20
155.4991558036381
 30
0.0
  0
VERTEX
  5
59E
  8
LARGER_ENDPLATE
 10
147.7822146647424
 20
155.9736941021413
 30
0.0
  0
VERTEX
  5
59F
  8
LARGER_ENDPLATE
 10
147.6249975254923
 20
156.4383353697139
 30
0.0
  0
VERTEX
  5
5A0
  8
LARGER_ENDPLATE
 10
147.4459453012475
 20
156.892451287721
 30
0.0
  0
VERTEX
  5
5A1
  8
LARGER_ENDPLATE
 10
147.2456863106429
 20
157.3354135375277
 30
0.0
  0
VERTEX
  5
5A2
  8
LARGER_ENDPLATE
 10
147.0248488723133
 20
157.766593800499
 30
0.0
  0
VERTEX
  5
5A3
  8
LARGER_ENDPLATE
 10
146.7840613048939
 20
158.1853637579999
 30
0.0
  0
VERTEX
  5
5A4
  8
LARGER_ENDPLATE
 10
146.5239519270195
 20
158.5910950913955
 30
0.0
  0
VERTEX
  5
5A5
  8
LARGER_ENDPLATE
 10
146.2451490573252
 20
158.9831594820507
 30
0.0
  0
VERTEX
  5
5A6
  8
LARGER_ENDPLATE
 10
145.9482810144459
 20
159.3609286113307
 30
0.0
  0
VERTEX
  5
5A7
  8
LARGER_ENDPLATE
 10
145.6339761170165
 20
159.7237741606005
 30
0.0
  0
VERTEX
  5
5A8
  8
LARGER_ENDPLATE
 10
145.302862683672
 20
160.0710678112251
 30
0.0
  0
VERTEX
  5
5A9
  8
LARGER_ENDPLATE
 10
144.9555690330474
 20
160.4021812445696
 30
0.0
  0
VERTEX
  5
5AA
  8
LARGER_ENDPLATE
 10
144.5927234837776
 20
160.716486141999
 30
0.0
  0
VERTEX
  5
5AB
  8
LARGER_ENDPLATE
 10
144.2149543544976
 20
161.0133541848783
 30
0.0
  0
VERTEX
  5
5AC
  8
LARGER_ENDPLATE
 10
143.8228899638423
 20
161.2921570545727
 30
0.0
  0
VERTEX
  5
5AD
  8
LARGER_ENDPLATE
 10
143.4171586304467
 20
161.552266432447
 30
0.0
  0
VERTEX
  5
5AE
  8
LARGER_ENDPLATE
 10
142.9983886729458
 20
161.7930539998665
 30
0.0
  0
VERTEX
  5
5AF
  8
LARGER_ENDPLATE
 10
142.5672084099746
 20
162.013891438196
 30
0.0
  0
VERTEX
  5
5B0
  8
LARGER_ENDPLATE
 10
142.1242461601679
 20
162.2141504288007
 30
0.0
  0
VERTEX
  5
5B1
  8
LARGER_ENDPLATE
 10
141.6701302421607
 20
162.3932026530455
 30
0.0
  0
VERTEX
  5
5B2
  8
LARGER_ENDPLATE
 10
141.2054889745881
 20
162.5504197922955
 30
0.0
  0
VERTEX
  5
5B3
  8
LARGER_ENDPLATE
 10
140.7309506760849
 20
162.6851735279159
 30
0.0
  0
VERTEX
  5
5B4
  8
LARGER_ENDPLATE
 10
140.2471436652862
 20
162.7968355412715
 30
0.0
  0
VERTEX
  5
5B5
  8
LARGER_ENDPLATE
 10
139.7546962608269
 20
162.8847775137275
 30
0.0
  0
VERTEX
  5
5B6
  8
LARGER_ENDPLATE
 10
139.2542367813419
 20
162.9483711266489
 30
0.0
  0
VERTEX
  5
5B7
  8
LARGER_ENDPLATE
 10
138.7463935454662
 20
162.9869880614007
 30
0.0
  0
VERTEX
  5
5B8
  8
LARGER_ENDPLATE
 10
138.2317948718348
 20
162.9999999993479
 30
0.0
  0
SEQEND
  5
AC1
  8
LARGER_ENDPLATE
  0
POLYLINE
  5
7B
  8
LARGER_ENDPLATE
 66
     1
 10
0.0
 20
0.0
 30
0.0
 70
     1
  0
VERTEX
  5
5B9
  8
LARGER_ENDPLATE
 10
131.7317948718607
 20
160.0999999993595
 30
0.0
  0
VERTEX
  5
5BA
  8
LARGER_ENDPLATE
 10
131.9976297683326
 20
160.0865764924578
 30
0.0
  0
VERTEX
  5
5BB
  8
LARGER_ENDPLATE
 10
132.2557855581581
 20
160.0471772402597
 30
0.0
  0
VERTEX
  5
5BC
  8
LARGER_ENDPLATE
 10
132.5049553385766
 20
159.983109145526
 30
0.0
  0
VERTEX
  5
5BD
  8
LARGER_ENDPLATE
 10
132.7438322068273
 20
159.8956791110173
 30
0.0
  0
VERTEX
  5
5BE
  8
LARGER_ENDPLATE
 10
132.9711092601496
 20
159.7861940394944
 30
0.0
  0
VERTEX
  5
5BF
  8
LARGER_ENDPLATE
 10
133.1854795957827
 20
159.655960833718
 30
0.0
  0
VERTEX
  5
5C0
  8
LARGER_ENDPLATE
 10
133.3856363109659
 20
159.5062863964488
 30
0.0
  0
VERTEX
  5
5C1
  8
LARGER_ENDPLATE
 10
133.5702725029384
 20
159.3384776304476
 30
0.0
  0
VERTEX
  5
5C2
  8
LARGER_ENDPLATE
 10
133.7380812689396
 20
159.1538414384751
 30
0.0
  0
VERTEX
  5
5C3
  8
LARGER_ENDPLATE
 10
133.8877557062088
 20
158.9536847232919
 30
0.0
  0
VERTEX
  5
5C4
  8
LARGER_ENDPLATE
 10
134.0179889119851
 20
158.7393143876589
 30
0.0
  0
VERTEX
  5
5C5
  8
LARGER_ENDPLATE
 10
134.127473983508
 20
158.5120373343366
 30
0.0
  0
VERTEX
  5
5C6
  8
LARGER_ENDPLATE
 10
134.2149040180167
 20
158.2731604660858
 30
0.0
  0
VERTEX
  5
5C7
  8
LARGER_ENDPLATE
 10
134.2789721127505
 20
158.0239906856673
 30
0.0
  0
VERTEX
  5
5C8
  8
LARGER_ENDPLATE
 10
134.3183713649486
 20
157.7658348958418
 30
0.0
  0
VERTEX
  5
5C9
  8
LARGER_ENDPLATE
 10
134.3317948718503
 20
157.4999999993699
 30
0.0
  0
VERTEX
  5
5CA
  8
LARGER_ENDPLATE
 10
134.3183713649486
 20
157.2341651028981
 30
0.0
  0
VERTEX
  5
5CB
  8
LARGER_ENDPLATE
 10
134.2789721127505
 20
156.9760093130726
 30
0.0
  0
VERTEX
  5
5CC
  8
LARGER_ENDPLATE
 10
134.2149040180167
 20
156.7268395326541
 30
0.0
  0
VERTEX
  5
5CD
  8
LARGER_ENDPLATE
 10
134.127473983508
 20
156.4879626644034
 30
0.0
  0
VERTEX
  5
5CE
  8
LARGER_ENDPLATE
 10
134.0179889119851
 20
156.2606856110811
 30
0.0
  0
VERTEX
  5
5CF
  8
LARGER_ENDPLATE
 10
133.8877557062087
 20
156.046315275448
 30
0.0
  0
VERTEX
  5
5D0
  8
LARGER_ENDPLATE
 10
133.7380812689396
 20
155.8461585602649
 30
0.0
  0
VERTEX
  5
5D1
  8
LARGER_ENDPLATE
 10
133.5702725029384
 20
155.6615223682923
 30
0.0
  0
VERTEX
  5
5D2
  8
LARGER_ENDPLATE
 10
133.3856363109658
 20
155.4937136022911
 30
0.0
  0
VERTEX
  5
5D3
  8
LARGER_ENDPLATE
 10
133.1854795957827
 20
155.3440391650219
 30
0.0
  0
VERTEX
  5
5D4
  8
LARGER_ENDPLATE
 10
132.9711092601496
 20
155.2138059592455
 30
0.0
  0
VERTEX
  5
5D5
  8
LARGER_ENDPLATE
 10
132.7438322068273
 20
155.1043208877226
 30
0.0
  0
VERTEX
  5
5D6
  8
LARGER_ENDPLATE
 10
132.5049553385766
 20
155.0168908532139
 30
0.0
  0
VERTEX
  5
5D7
  8
LARGER_ENDPLATE
 10
132.2557855581581
 20
154.9528227584802
 30
0.0
  0
VERTEX
  5
5D8
  8
LARGER_ENDPLATE
 10
131.9976297683326
 20
154.9134235062821
 30
0.0
  0
VERTEX
  5
5D9
  8
LARGER_ENDPLATE
 10
131.7317948718607
 20
154.8999999993804
 30
0.0
  0
VERTEX
  5
5DA
  8
LARGER_ENDPLATE
 10
131.4659599753889
 20
154.9134235062821
 30
0.0
  0
VERTEX
  5
5DB
  8
LARGER_ENDPLATE
 10
131.2078041855634
 20
154.9528227584802
 30
0.0
  0
VERTEX
  5
5DC
  8
LARGER_ENDPLATE
 10
130.9586344051449
 20
155.016890853214
 30
0.0
  0
VERTEX
  5
5DD
  8
LARGER_ENDPLATE
 10
130.7197575368941
 20
155.1043208877227
 30
0.0
  0
VERTEX
  5
5DE
  8
LARGER_ENDPLATE
 10
130.4924804835719
 20
155.2138059592455
 30
0.0
  0
VERTEX
  5
5DF
  8
LARGER_ENDPLATE
 10
130.2781101479388
 20
155.3440391650219
 30
0.0
  0
VERTEX
  5
5E0
  8
LARGER_ENDPLATE
 10
130.0779534327557
 20
155.4937136022911
 30
0.0
  0
VERTEX
  5
5E1
  8
LARGER_ENDPLATE
 10
129.8933172407831
 20
155.6615223682923
 30
0.0
  0
VERTEX
  5
5E2
  8
LARGER_ENDPLATE
 10
129.7255084747819
 20
155.8461585602648
 30
0.0
  0
VERTEX
  5
5E3
  8
LARGER_ENDPLATE
 10
129.5758340375127
 20
156.046315275448
 30
0.0
  0
VERTEX
  5
5E4
  8
LARGER_ENDPLATE
 10
129.4456008317364
 20
156.2606856110811
 30
0.0
  0
VERTEX
  5
5E5
  8
LARGER_ENDPLATE
 10
129.3361157602135
 20
156.4879626644033
 30
0.0
  0
VERTEX
  5
5E6
  8
LARGER_ENDPLATE
 10
129.2486857257048
 20
156.7268395326541
 30
0.0
  0
VERTEX
  5
5E7
  8
LARGER_ENDPLATE
 10
129.184617630971
 20
156.9760093130726
 30
0.0
  0
VERTEX
  5
5E8
  8
LARGER_ENDPLATE
 10
129.1452183787729
 20
157.2341651028981
 30
0.0
  0
VERTEX
  5
5E9
  8
LARGER_ENDPLATE
 10
129.1317948718712
 20
157.4999999993699
 30
0.0
  0
VERTEX
  5
5EA
  8
LARGER_ENDPLATE
 10
129.1452183787729
 20
157.7658348958418
 30
0.0
  0
VERTEX
  5
5EB
  8
LARGER_ENDPLATE
 10
129.184617630971
 20
158.0239906856673
 30
0.0
  0
VERTEX
  5
5EC
  8
LARGER_ENDPLATE
 10
129.2486857257048
 20
158.2731604660858
 30
0.0
  0
VERTEX
  5
5ED
  8
LARGER_ENDPLATE
 10
129.3361157602135
 20
158.5120373343366
 30
0.0
  0
VERTEX
  5
5EE
  8
LARGER_ENDPLATE
 10
129.4456008317364
 20
158.7393143876588
 30
0.0
  0
VERTEX
  5
5EF
  8
LARGER_ENDPLATE
 10
129.5758340375127
 20
158.9536847232919
 30
0.0
  0
VERTEX
  5
5F0
  8
LARGER_ENDPLATE
 10
129.7255084747819
 20
159.1538414384751
 30
0.0
  0
VERTEX
  5
5F1
  8
LARGER_ENDPLATE
 10
129.8933172407831
 20
159.3384776304476
 30
0.0
  0
VERTEX
  5
5F2
  8
LARGER_ENDPLATE
 10
130.0779534327557
 20
159.5062863964488
 30
0.0
  0
VERTEX
  5
5F3
  8
LARGER_ENDPLATE
 10
130.2781101479388
 20
159.655960833718
 30
0.0
  0
VERTEX
  5
5F4
  8
LARGER_ENDPLATE
 10
130.4924804835719
 20
159.7861940394944
 30
0.0
  0
VERTEX
  5
5F5
  8
LARGER_ENDPLATE
 10
130.7197575368941
 20
159.8956791110172
 30
0.0
  0
VERTEX
  5
5F6
  8
LARGER_ENDPLATE
 10
130.9586344051449
 20
159.9831091455259
 30
0.0
  0
VERTEX
  5
5F7
  8
LARGER_ENDPLATE
 10
131.2078041855634
 20
160.0471772402597
 30
0.0
  0
VERTEX
  5
5F8
  8
LARGER_ENDPLATE
 10
131.4659599753889
 20
160.0865764924578
 30
0.0
  0
SEQEND
  5
AC2
  8
LARGER_ENDPLATE
  0
POLYLINE
  5
7C
  8
LARGER_ENDPLATE
 66
     1
 10
0.0
 20
0.0
 30
0.0
 70
     1
  0
VERTEX
  5
5F9
  8
LARGER_ENDPLATE
 10
131.7317948718607
 20
142.5999999994295
 30
0.0
  0
VERTEX
  5
5FA
  8
LARGER_ENDPLATE
 10
131.9976297683326
 20
142.5865764925278
 30
0.0
  0
VERTEX
  5
5FB
  8
LARGER_ENDPLATE
 10
132.2557855581581
 20
142.5471772403297
 30
0.0
  0
VERTEX
  5
5FC
  8
LARGER_ENDPLATE
 10
132.5049553385766
 20
142.483109145596
 30
0.0
  0
VERTEX
  5
5FD
  8
LARGER_ENDPLATE
 10
132.7438322068273
 20
142.3956791110872
 30
0.0
  0
VERTEX
  5
5FE
  8
LARGER_ENDPLATE
 10
132.9711092601496
 20
142.2861940395644
 30
0.0
  0
VERTEX
  5
5FF
  8
LARGER_ENDPLATE
 10
133.1854795957827
 20
142.155960833788
 30
0.0
  0
VERTEX
  5
600
  8
LARGER_ENDPLATE
 10
133.3856363109659
 20
142.0062863965188
 30
0.0
  0
VERTEX
  5
601
  8
LARGER_ENDPLATE
 10
133.5702725029384
 20
141.8384776305176
 30
0.0
  0
VERTEX
  5
602
  8
LARGER_ENDPLATE
 10
133.7380812689396
 20
141.6538414385451
 30
0.0
  0
VERTEX
  5
603
  8
LARGER_ENDPLATE
 10
133.8877557062088
 20
141.4536847233619
 30
0.0
  0
VERTEX
  5
604
  8
LARGER_ENDPLATE
 10
134.0179889119851
 20
141.2393143877288
 30
0.0
  0
VERTEX
  5
605
  8
LARGER_ENDPLATE
 10
134.127473983508
 20
141.0120373344066
 30
0.0
  0
VERTEX
  5
606
  8
LARGER_ENDPLATE
 10
134.2149040180167
 20
140.7731604661558
 30
0.0
  0
VERTEX
  5
607
  8
LARGER_ENDPLATE
 10
134.2789721127505
 20
140.5239906857373
 30
0.0
  0
VERTEX
  5
608
  8
LARGER_ENDPLATE
 10
134.3183713649486
 20
140.2658348959118
 30
0.0
  0
VERTEX
  5
609
  8
LARGER_ENDPLATE
 10
134.3317948718503
 20
139.9999999994399
 30
0.0
  0
VERTEX
  5
60A
  8
LARGER_ENDPLATE
 10
134.3183713649486
 20
139.7341651029681
 30
0.0
  0
VERTEX
  5
60B
  8
LARGER_ENDPLATE
 10
134.2789721127505
 20
139.4760093131426
 30
0.0
  0
VERTEX
  5
60C
  8
LARGER_ENDPLATE
 10
134.2149040180167
 20
139.2268395327241
 30
0.0
  0
VERTEX
  5
60D
  8
LARGER_ENDPLATE
 10
134.127473983508
 20
138.9879626644733
 30
0.0
  0
VERTEX
  5
60E
  8
LARGER_ENDPLATE
 10
134.0179889119851
 20
138.7606856111511
 30
0.0
  0
VERTEX
  5
60F
  8
LARGER_ENDPLATE
 10
133.8877557062087
 20
138.546315275518
 30
0.0
  0
VERTEX
  5
610
  8
LARGER_ENDPLATE
 10
133.7380812689396
 20
138.3461585603348
 30
0.0
  0
VERTEX
  5
611
  8
LARGER_ENDPLATE
 10
133.5702725029384
 20
138.1615223683623
 30
0.0
  0
VERTEX
  5
612
  8
LARGER_ENDPLATE
 10
133.3856363109658
 20
137.9937136023611
 30
0.0
  0
VERTEX
  5
613
  8
LARGER_ENDPLATE
 10
133.1854795957827
 20
137.8440391650919
 30
0.0
  0
VERTEX
  5
614
  8
LARGER_ENDPLATE
 10
132.9711092601496
 20
137.7138059593155
 30
0.0
  0
VERTEX
  5
615
  8
LARGER_ENDPLATE
 10
132.7438322068273
 20
137.6043208877926
 30
0.0
  0
VERTEX
  5
616
  8
LARGER_ENDPLATE
 10
132.5049553385766
 20
137.5168908532839
 30
0.0
  0
VERTEX
  5
617
  8
LARGER_ENDPLATE
 10
132.2557855581581
 20
137.4528227585502
 30
0.0
  0
VERTEX
  5
618
  8
LARGER_ENDPLATE
 10
131.9976297683326
 20
137.413423506352
 30
0.0
  0
VERTEX
  5
619
  8
LARGER_ENDPLATE
 10
131.7317948718607
 20
137.3999999994503
 30
0.0
  0
VERTEX
  5
61A
  8
LARGER_ENDPLATE
 10
131.4659599753889
 20
137.4134235063521
 30
0.0
  0
VERTEX
  5
61B
  8
LARGER_ENDPLATE
 10
131.2078041855634
 20
137.4528227585502
 30
0.0
  0
VERTEX
  5
61C
  8
LARGER_ENDPLATE
 10
130.9586344051449
 20
137.5168908532839
 30
0.0
  0
VERTEX
  5
61D
  8
LARGER_ENDPLATE
 10
130.7197575368941
 20
137.6043208877926
 30
0.0
  0
VERTEX
  5
61E
  8
LARGER_ENDPLATE
 10
130.4924804835719
 20
137.7138059593155
 30
0.0
  0
VERTEX
  5
61F
  8
LARGER_ENDPLATE
 10
130.2781101479388
 20
137.8440391650919
 30
0.0
  0
VERTEX
  5
620
  8
LARGER_ENDPLATE
 10
130.0779534327557
 20
137.993713602361
 30
0.0
  0
VERTEX
  5
621
  8
LARGER_ENDPLATE
 10
129.8933172407831
 20
138.1615223683622
 30
0.0
  0
VERTEX
  5
622
  8
LARGER_ENDPLATE
 10
129.7255084747819
 20
138.3461585603348
 30
0.0
  0
VERTEX
  5
623
  8
LARGER_ENDPLATE
 10
129.5758340375127
 20
138.546315275518
 30
0.0
  0
VERTEX
  5
624
  8
LARGER_ENDPLATE
 10
129.4456008317364
 20
138.760685611151
 30
0.0
  0
VERTEX
  5
625
  8
LARGER_ENDPLATE
 10
129.3361157602135
 20
138.9879626644733
 30
0.0
  0
VERTEX
  5
626
  8
LARGER_ENDPLATE
 10
129.2486857257048
 20
139.226839532724
 30
0.0
  0
VERTEX
  5
627
  8
LARGER_ENDPLATE
 10
129.184617630971
 20
139.4760093131425
 30
0.0
  0
VERTEX
  5
628
  8
LARGER_ENDPLATE
 10
129.1452183787729
 20
139.7341651029681
 30
0.0
  0
VERTEX
  5
629
  8
LARGER_ENDPLATE
 10
129.1317948718712
 20
139.9999999994399
 30
0.0
  0
VERTEX
  5
62A
  8
LARGER_ENDPLATE
 10
129.1452183787729
 20
140.2658348959118
 30
0.0
  0
VERTEX
  5
62B
  8
LARGER_ENDPLATE
 10
129.184617630971
 20
140.5239906857373
 30
0.0
  0
VERTEX
  5
62C
  8
LARGER_ENDPLATE
 10
129.2486857257048
 20
140.7731604661558
 30
0.0
  0
VERTEX
  5
62D
  8
LARGER_ENDPLATE
 10
129.3361157602135
 20
141.0120373344065
 30
0.0
  0
VERTEX
  5
62E
  8
LARGER_ENDPLATE
 10
129.4456008317364
 20
141.2393143877288
 30
0.0
  0
VERTEX
  5
62F
  8
LARGER_ENDPLATE
 10
129.5758340375127
 20
141.4536847233619
 30
0.0
  0
VERTEX
  5
630
  8
LARGER_ENDPLATE
 10
129.7255084747819
 20
141.653841438545
 30
0.0
  0
VERTEX
  5
631
  8
LARGER_ENDPLATE
 10
129.8933172407831
 20
141.8384776305176
 30
0.0
  0
VERTEX
  5
632
  8
LARGER_ENDPLATE
 10
130.0779534327557
 20
142.0062863965188
 30
0.0
  0
VERTEX
  5
633
  8
LARGER_ENDPLATE
 10
130.2781101479388
 20
142.155960833788
 30
0.0
  0
VERTEX
  5
634
  8
LARGER_ENDPLATE
 10
130.4924804835719
 20
142.2861940395644
 30
0.0
  0
VERTEX
  5
635
  8
LARGER_ENDPLATE
 10
130.7197575368941
 20
142.3956791110872
 30
0.0
  0
VERTEX
  5
636
  8
LARGER_ENDPLATE
 10
130.9586344051449
 20
142.483109145596
 30
0.0
  0
VERTEX
  5
637
  8
LARGER_ENDPLATE
 10
131.2078041855634
 20
142.5471772403297
 30
0.0
  0
VERTEX
  5
638
  8
LARGER_ENDPLATE
 10
131.4659599753889
 20
142.5865764925278
 30
0.0
  0
SEQEND
  5
AC3
  8
LARGER_ENDPLATE
  0
POLYLINE
  5
7D
  8
LARGER_ENDPLATE
 66
     1
 10
0.0
 20
0.0
 30
0.0
 70
     1
  0
VERTEX
  5
639
  8
LARGER_ENDPLATE
 10
131.7317948718607
 20
42.59999999950955
 30
0.0
  0
VERTEX
  5
63A
  8
LARGER_ENDPLATE
 10
131.9976297683326
 20
42.5865764926078
 30
0.0
  0
VERTEX
  5
63B
  8
LARGER_ENDPLATE
 10
132.2557855581581
 20
42.54717724040968
 30
0.0
  0
VERTEX
  5
63C
  8
LARGER_ENDPLATE
 10
132.5049553385766
 20
42.48310914567593
 30
0.0
  0
VERTEX
  5
63D
  8
LARGER_ENDPLATE
 10
132.7438322068273
 20
42.39567911116725
 30
0.0
  0
VERTEX
  5
63E
  8
LARGER_ENDPLATE
 10
132.9711092601496
 20
42.28619403964436
 30
0.0
  0
VERTEX
  5
63F
  8
LARGER_ENDPLATE
 10
133.1854795957827
 20
42.15596083386797
 30
0.0
  0
VERTEX
  5
640
  8
LARGER_ENDPLATE
 10
133.3856363109658
 20
42.00628639659882
 30
0.0
  0
VERTEX
  5
641
  8
LARGER_ENDPLATE
 10
133.5702725029384
 20
41.83847763059761
 30
0.0
  0
VERTEX
  5
642
  8
LARGER_ENDPLATE
 10
133.7380812689396
 20
41.65384143862505
 30
0.0
  0
VERTEX
  5
643
  8
LARGER_ENDPLATE
 10
133.8877557062087
 20
41.45368472344188
 30
0.0
  0
VERTEX
  5
644
  8
LARGER_ENDPLATE
 10
134.0179889119851
 20
41.2393143878088
 30
0.0
  0
VERTEX
  5
645
  8
LARGER_ENDPLATE
 10
134.127473983508
 20
41.01203733448654
 30
0.0
  0
VERTEX
  5
646
  8
LARGER_ENDPLATE
 10
134.2149040180167
 20
40.7731604662358
 30
0.0
  0
VERTEX
  5
647
  8
LARGER_ENDPLATE
 10
134.2789721127505
 20
40.52399068581731
 30
0.0
  0
VERTEX
  5
648
  8
LARGER_ENDPLATE
 10
134.3183713649486
 20
40.26583489599179
 30
0.0
  0
VERTEX
  5
649
  8
LARGER_ENDPLATE
 10
134.3317948718503
 20
39.99999999951996
 30
0.0
  0
VERTEX
  5
64A
  8
LARGER_ENDPLATE
 10
134.3183713649486
 20
39.73416510304812
 30
0.0
  0
VERTEX
  5
64B
  8
LARGER_ENDPLATE
 10
134.2789721127505
 20
39.4760093132226
 30
0.0
  0
VERTEX
  5
64C
  8
LARGER_ENDPLATE
 10
134.2149040180167
 20
39.22683953280411
 30
0.0
  0
VERTEX
  5
64D
  8
LARGER_ENDPLATE
 10
134.127473983508
 20
38.98796266455338
 30
0.0
  0
VERTEX
  5
64E
  8
LARGER_ENDPLATE
 10
134.0179889119851
 20
38.76068561123111
 30
0.0
  0
VERTEX
  5
64F
  8
LARGER_ENDPLATE
 10
133.8877557062087
 20
38.54631527559803
 30
0.0
  0
VERTEX
  5
650
  8
LARGER_ENDPLATE
 10
133.7380812689396
 20
38.34615856041486
 30
0.0
  0
VERTEX
  5
651
  8
LARGER_ENDPLATE
 10
133.5702725029384
 20
38.16152236844231
 30
0.0
  0
VERTEX
  5
652
  8
LARGER_ENDPLATE
 10
133.3856363109658
 20
37.99371360244109
 30
0.0
  0
VERTEX
  5
653
  8
LARGER_ENDPLATE
 10
133.1854795957826
 20
37.84403916517193
 30
0.0
  0
VERTEX
  5
654
  8
LARGER_ENDPLATE
 10
132.9711092601495
 20
37.71380595939554
 30
0.0
  0
VERTEX
  5
655
  8
LARGER_ENDPLATE
 10
132.7438322068273
 20
37.60432088787265
 30
0.0
  0
VERTEX
  5
656
  8
LARGER_ENDPLATE
 10
132.5049553385765
 20
37.51689085336396
 30
0.0
  0
VERTEX
  5
657
  8
LARGER_ENDPLATE
 10
132.255785558158
 20
37.45282275863021
 30
0.0
  0
VERTEX
  5
658
  8
LARGER_ENDPLATE
 10
131.9976297683325
 20
37.41342350643209
 30
0.0
  0
VERTEX
  5
659
  8
LARGER_ENDPLATE
 10
131.7317948718607
 20
37.39999999953034
 30
0.0
  0
VERTEX
  5
65A
  8
LARGER_ENDPLATE
 10
131.4659599753889
 20
37.41342350643209
 30
0.0
  0
VERTEX
  5
65B
  8
LARGER_ENDPLATE
 10
131.2078041855634
 20
37.45282275863021
 30
0.0
  0
VERTEX
  5
65C
  8
LARGER_ENDPLATE
 10
130.9586344051449
 20
37.51689085336396
 30
0.0
  0
VERTEX
  5
65D
  8
LARGER_ENDPLATE
 10
130.7197575368941
 20
37.60432088787264
 30
0.0
  0
VERTEX
  5
65E
  8
LARGER_ENDPLATE
 10
130.4924804835719
 20
37.71380595939553
 30
0.0
  0
VERTEX
  5
65F
  8
LARGER_ENDPLATE
 10
130.2781101479388
 20
37.84403916517191
 30
0.0
  0
VERTEX
  5
660
  8
LARGER_ENDPLATE
 10
130.0779534327557
 20
37.99371360244106
 30
0.0
  0
VERTEX
  5
661
  8
LARGER_ENDPLATE
 10
129.8933172407831
 20
38.16152236844228
 30
0.0
  0
VERTEX
  5
662
  8
LARGER_ENDPLATE
 10
129.7255084747819
 20
38.34615856041482
 30
0.0
  0
VERTEX
  5
663
  8
LARGER_ENDPLATE
 10
129.5758340375127
 20
38.546315275598
 30
0.0
  0
VERTEX
  5
664
  8
LARGER_ENDPLATE
 10
129.4456008317364
 20
38.76068561123108
 30
0.0
  0
VERTEX
  5
665
  8
LARGER_ENDPLATE
 10
129.3361157602135
 20
38.98796266455335
 30
0.0
  0
VERTEX
  5
666
  8
LARGER_ENDPLATE
 10
129.2486857257048
 20
39.22683953280409
 30
0.0
  0
VERTEX
  5
667
  8
LARGER_ENDPLATE
 10
129.184617630971
 20
39.47600931322258
 30
0.0
  0
VERTEX
  5
668
  8
LARGER_ENDPLATE
 10
129.1452183787729
 20
39.73416510304811
 30
0.0
  0
VERTEX
  5
669
  8
LARGER_ENDPLATE
 10
129.1317948718712
 20
39.99999999951996
 30
0.0
  0
VERTEX
  5
66A
  8
LARGER_ENDPLATE
 10
129.1452183787729
 20
40.2658348959918
 30
0.0
  0
VERTEX
  5
66B
  8
LARGER_ENDPLATE
 10
129.184617630971
 20
40.52399068581732
 30
0.0
  0
VERTEX
  5
66C
  8
LARGER_ENDPLATE
 10
129.2486857257048
 20
40.77316046623582
 30
0.0
  0
VERTEX
  5
66D
  8
LARGER_ENDPLATE
 10
129.3361157602135
 20
41.01203733448655
 30
0.0
  0
VERTEX
  5
66E
  8
LARGER_ENDPLATE
 10
129.4456008317364
 20
41.23931438780882
 30
0.0
  0
VERTEX
  5
66F
  8
LARGER_ENDPLATE
 10
129.5758340375127
 20
41.4536847234419
 30
0.0
  0
VERTEX
  5
670
  8
LARGER_ENDPLATE
 10
129.7255084747819
 20
41.65384143862507
 30
0.0
  0
VERTEX
  5
671
  8
LARGER_ENDPLATE
 10
129.8933172407831
 20
41.83847763059762
 30
0.0
  0
VERTEX
  5
672
  8
LARGER_ENDPLATE
 10
130.0779534327557
 20
42.00628639659882
 30
0.0
  0
VERTEX
  5
673
  8
LARGER_ENDPLATE
 10
130.2781101479388
 20
42.15596083386798
 30
0.0
  0
VERTEX
  5
674
  8
LARGER_ENDPLATE
 10
130.4924804835719
 20
42.28619403964436
 30
0.0
  0
VERTEX
  5
675
  8
LARGER_ENDPLATE
 10
130.7197575368941
 20
42.39567911116725
 30
0.0
  0
VERTEX
  5
676
  8
LARGER_ENDPLATE
 10
130.9586344051449
 20
42.48310914567593
 30
0.0
  0
VERTEX
  5
677
  8
LARGER_ENDPLATE
 10
131.2078041855634
 20
42.54717724040968
 30
0.0
  0
VERTEX
  5
678
  8
LARGER_ENDPLATE
 10
131.4659599753889
 20
42.5865764926078
 30
0.0
  0
SEQEND
  5
AC4
  8
LARGER_ENDPLATE
  0
POLYLINE
  5
7E
  8
LARGER_ENDPLATE
 66
     1
 10
0.0
 20
0.0
 30
0.0
 70
     1
  0
VERTEX
  5
679
  8
LARGER_ENDPLATE
 10
138.2317948718348
 20
12.59999999994959
 30
0.0
  0
VERTEX
  5
67A
  8
LARGER_ENDPLATE
 10
138.4976297683066
 20
12.58657649304784
 30
0.0
  0
VERTEX
  5
67B
  8
LARGER_ENDPLATE
 10
138.7557855581321
 20
12.54717724084972
 30
0.0
  0
VERTEX
  5
67C
  8
LARGER_ENDPLATE
 10
139.0049553385506
 20
12.48310914611597
 30
0.0
  0
VERTEX
  5
67D
  8
LARGER_ENDPLATE
 10
139.2438322068014
 20
12.39567911160729
 30
0.0
  0
VERTEX
  5
67E
  8
LARGER_ENDPLATE
 10
139.4711092601236
 20
12.2861940400844
 30
0.0
  0
VERTEX
  5
67F
  8
LARGER_ENDPLATE
 10
139.6854795957567
 20
12.15596083430802
 30
0.0
  0
VERTEX
  5
680
  8
LARGER_ENDPLATE
 10
139.8856363109399
 20
12.00628639703887
 30
0.0
  0
VERTEX
  5
681
  8
LARGER_ENDPLATE
 10
140.0702725029124
 20
11.83847763103766
 30
0.0
  0
VERTEX
  5
682
  8
LARGER_ENDPLATE
 10
140.2380812689136
 20
11.65384143906511
 30
0.0
  0
VERTEX
  5
683
  8
LARGER_ENDPLATE
 10
140.3877557061828
 20
11.45368472388193
 30
0.0
  0
VERTEX
  5
684
  8
LARGER_ENDPLATE
 10
140.5179889119592
 20
11.23931438824886
 30
0.0
  0
VERTEX
  5
685
  8
LARGER_ENDPLATE
 10
140.6274739834821
 20
11.01203733492659
 30
0.0
  0
VERTEX
  5
686
  8
LARGER_ENDPLATE
 10
140.7149040179908
 20
10.77316046667585
 30
0.0
  0
VERTEX
  5
687
  8
LARGER_ENDPLATE
 10
140.7789721127245
 20
10.52399068625736
 30
0.0
  0
VERTEX
  5
688
  8
LARGER_ENDPLATE
 10
140.8183713649226
 20
10.26583489643183
 30
0.0
  0
VERTEX
  5
689
  8
LARGER_ENDPLATE
 10
140.8317948718244
 20
9.999999999959982
 30
0.0
  0
VERTEX
  5
68A
  8
LARGER_ENDPLATE
 10
140.8183713649226
 20
9.734165103488136
 30
0.0
  0
VERTEX
  5
68B
  8
LARGER_ENDPLATE
 10
140.7789721127245
 20
9.476009313662608
 30
0.0
  0
VERTEX
  5
68C
  8
LARGER_ENDPLATE
 10
140.7149040179908
 20
9.226839533244117
 30
0.0
  0
VERTEX
  5
68D
  8
LARGER_ENDPLATE
 10
140.6274739834821
 20
8.987962664993383
 30
0.0
  0
VERTEX
  5
68E
  8
LARGER_ENDPLATE
 10
140.5179889119592
 20
8.760685611671118
 30
0.0
  0
VERTEX
  5
68F
  8
LARGER_ENDPLATE
 10
140.3877557061828
 20
8.54631527603804
 30
0.0
  0
VERTEX
  5
690
  8
LARGER_ENDPLATE
 10
140.2380812689136
 20
8.346158560854867
 30
0.0
  0
VERTEX
  5
691
  8
LARGER_ENDPLATE
 10
140.0702725029124
 20
8.161522368882318
 30
0.0
  0
VERTEX
  5
692
  8
LARGER_ENDPLATE
 10
139.8856363109399
 20
7.993713602881108
 30
0.0
  0
VERTEX
  5
693
  8
LARGER_ENDPLATE
 10
139.6854795957567
 20
7.844039165611955
 30
0.0
  0
VERTEX
  5
694
  8
LARGER_ENDPLATE
 10
139.4711092601236
 20
7.713805959835576
 30
0.0
  0
VERTEX
  5
695
  8
LARGER_ENDPLATE
 10
139.2438322068014
 20
7.604320888312689
 30
0.0
  0
VERTEX
  5
696
  8
LARGER_ENDPLATE
 10
139.0049553385506
 20
7.516890853804009
 30
0.0
  0
VERTEX
  5
697
  8
LARGER_ENDPLATE
 10
138.7557855581321
 20
7.452822759070254
 30
0.0
  0
VERTEX
  5
698
  8
LARGER_ENDPLATE
 10
138.4976297683066
 20
7.413423506872142
 30
0.0
  0
VERTEX
  5
699
  8
LARGER_ENDPLATE
 10
138.2317948718348
 20
7.39999999997039
 30
0.0
  0
VERTEX
  5
69A
  8
LARGER_ENDPLATE
 10
137.9659599753629
 20
7.413423506872142
 30
0.0
  0
VERTEX
  5
69B
  8
LARGER_ENDPLATE
 10
137.7078041855374
 20
7.452822759070256
 30
0.0
  0
VERTEX
  5
69C
  8
LARGER_ENDPLATE
 10
137.4586344051189
 20
7.516890853804012
 30
0.0
  0
VERTEX
  5
69D
  8
LARGER_ENDPLATE
 10
137.2197575368682
 20
7.604320888312692
 30
0.0
  0
VERTEX
  5
69E
  8
LARGER_ENDPLATE
 10
136.9924804835459
 20
7.713805959835582
 30
0.0
  0
VERTEX
  5
69F
  8
LARGER_ENDPLATE
 10
136.7781101479128
 20
7.844039165611964
 30
0.0
  0
VERTEX
  5
6A0
  8
LARGER_ENDPLATE
 10
136.5779534327297
 20
7.993713602881117
 30
0.0
  0
VERTEX
  5
6A1
  8
LARGER_ENDPLATE
 10
136.3933172407571
 20
8.161522368882329
 30
0.0
  0
VERTEX
  5
6A2
  8
LARGER_ENDPLATE
 10
136.2255084747559
 20
8.34615856085488
 30
0.0
  0
VERTEX
  5
6A3
  8
LARGER_ENDPLATE
 10
136.0758340374867
 20
8.546315276038053
 30
0.0
  0
VERTEX
  5
6A4
  8
LARGER_ENDPLATE
 10
135.9456008317104
 20
8.760685611671128
 30
0.0
  0
VERTEX
  5
6A5
  8
LARGER_ENDPLATE
 10
135.8361157601875
 20
8.987962664993393
 30
0.0
  0
VERTEX
  5
6A6
  8
LARGER_ENDPLATE
 10
135.7486857256787
 20
9.226839533244128
 30
0.0
  0
VERTEX
  5
6A7
  8
LARGER_ENDPLATE
 10
135.684617630945
 20
9.476009313662617
 30
0.0
  0
VERTEX
  5
6A8
  8
LARGER_ENDPLATE
 10
135.6452183787469
 20
9.73416510348814
 30
0.0
  0
VERTEX
  5
6A9
  8
LARGER_ENDPLATE
 10
135.6317948718451
 20
9.999999999959982
 30
0.0
  0
VERTEX
  5
6AA
  8
LARGER_ENDPLATE
 10
135.6452183787469
 20
10.26583489643184
 30
0.0
  0
VERTEX
  5
6AB
  8
LARGER_ENDPLATE
 10
135.684617630945
 20
10.52399068625737
 30
0.0
  0
VERTEX
  5
6AC
  8
LARGER_ENDPLATE
 10
135.7486857256787
 20
10.77316046667586
 30
0.0
  0
VERTEX
  5
6AD
  8
LARGER_ENDPLATE
 10
135.8361157601874
 20
11.0120373349266
 30
0.0
  0
VERTEX
  5
6AE
  8
LARGER_ENDPLATE
 10
135.9456008317103
 20
11.23931438824887
 30
0.0
  0
VERTEX
  5
6AF
  8
LARGER_ENDPLATE
 10
136.0758340374867
 20
11.45368472388195
 30
0.0
  0
VERTEX
  5
6B0
  8
LARGER_ENDPLATE
 10
136.2255084747559
 20
11.65384143906512
 30
0.0
  0
VERTEX
  5
6B1
  8
LARGER_ENDPLATE
 10
136.3933172407571
 20
11.83847763103767
 30
0.0
  0
VERTEX
  5
6B2
  8
LARGER_ENDPLATE
 10
136.5779534327296
 20
12.00628639703888
 30
0.0
  0
VERTEX
  5
6B3
  8
LARGER_ENDPLATE
 10
136.7781101479128
 20
12.15596083430803
 30
0.0
  0
VERTEX
  5
6B4
  8
LARGER_ENDPLATE
 10
136.9924804835458
 20
12.28619404008441
 30
0.0
  0
VERTEX
  5
6B5
  8
LARGER_ENDPLATE
 10
137.2197575368681
 20
12.39567911160729
 30
0.0
  0
VERTEX
  5
6B6
  8
LARGER_ENDPLATE
 10
137.4586344051189
 20
12.48310914611597
 30
0.0
  0
VERTEX
  5
6B7
  8
LARGER_ENDPLATE
 10
137.7078041855374
 20
12.54717724084972
 30
0.0
  0
VERTEX
  5
6B8
  8
LARGER_ENDPLATE
 10
137.9659599753629
 20
12.58657649304784
 30
0.0
  0
SEQEND
  5
AC5
  8
LARGER_ENDPLATE
  0
POLYLINE
  5
7F
  8
LARGER_ENDPLATE
 66
     1
 10
0.0
 20
0.0
 30
0.0
 70
     1
  0
VERTEX
  5
6B9
  8
LARGER_ENDPLATE
 10
98.23179487207493
 20
12.59999999994959
 30
0.0
  0
VERTEX
  5
6BA
  8
LARGER_ENDPLATE
 10
98.49762976854677
 20
12.58657649304784
 30
0.0
  0
VERTEX
  5
6BB
  8
LARGER_ENDPLATE
 10
98.7557855583723
 20
12.54717724084972
 30
0.0
  0
VERTEX
  5
6BC
  8
LARGER_ENDPLATE
 10
99.00495533879078
 20
12.48310914611597
 30
0.0
  0
VERTEX
  5
6BD
  8
LARGER_ENDPLATE
 10
99.24383220704152
 20
12.39567911160729
 30
0.0
  0
VERTEX
  5
6BE
  8
LARGER_ENDPLATE
 10
99.47110926036379
 20
12.2861940400844
 30
0.0
  0
VERTEX
  5
6BF
  8
LARGER_ENDPLATE
 10
99.68547959599684
 20
12.15596083430802
 30
0.0
  0
VERTEX
  5
6C0
  8
LARGER_ENDPLATE
 10
99.88563631118001
 20
12.00628639703887
 30
0.0
  0
VERTEX
  5
6C1
  8
LARGER_ENDPLATE
 10
100.0702725031526
 20
11.83847763103766
 30
0.0
  0
VERTEX
  5
6C2
  8
LARGER_ENDPLATE
 10
100.2380812691538
 20
11.65384143906511
 30
0.0
  0
VERTEX
  5
6C3
  8
LARGER_ENDPLATE
 10
100.3877557064229
 20
11.45368472388193
 30
0.0
  0
VERTEX
  5
6C4
  8
LARGER_ENDPLATE
 10
100.5179889121993
 20
11.23931438824886
 30
0.0
  0
VERTEX
  5
6C5
  8
LARGER_ENDPLATE
 10
100.6274739837222
 20
11.01203733492659
 30
0.0
  0
VERTEX
  5
6C6
  8
LARGER_ENDPLATE
 10
100.7149040182308
 20
10.77316046667585
 30
0.0
  0
VERTEX
  5
6C7
  8
LARGER_ENDPLATE
 10
100.7789721129646
 20
10.52399068625736
 30
0.0
  0
VERTEX
  5
6C8
  8
LARGER_ENDPLATE
 10
100.8183713651627
 20
10.26583489643183
 30
0.0
  0
VERTEX
  5
6C9
  8
LARGER_ENDPLATE
 10
100.8317948720644
 20
9.999999999959982
 30
0.0
  0
VERTEX
  5
6CA
  8
LARGER_ENDPLATE
 10
100.8183713651627
 20
9.734165103488136
 30
0.0
  0
VERTEX
  5
6CB
  8
LARGER_ENDPLATE
 10
100.7789721129646
 20
9.476009313662608
 30
0.0
  0
VERTEX
  5
6CC
  8
LARGER_ENDPLATE
 10
100.7149040182308
 20
9.226839533244117
 30
0.0
  0
VERTEX
  5
6CD
  8
LARGER_ENDPLATE
 10
100.6274739837222
 20
8.987962664993383
 30
0.0
  0
VERTEX
  5
6CE
  8
LARGER_ENDPLATE
 10
100.5179889121993
 20
8.760685611671118
 30
0.0
  0
VERTEX
  5
6CF
  8
LARGER_ENDPLATE
 10
100.3877557064229
 20
8.54631527603804
 30
0.0
  0
VERTEX
  5
6D0
  8
LARGER_ENDPLATE
 10
100.2380812691538
 20
8.346158560854867
 30
0.0
  0
VERTEX
  5
6D1
  8
LARGER_ENDPLATE
 10
100.0702725031526
 20
8.161522368882318
 30
0.0
  0
VERTEX
  5
6D2
  8
LARGER_ENDPLATE
 10
99.88563631118001
 20
7.993713602881108
 30
0.0
  0
VERTEX
  5
6D3
  8
LARGER_ENDPLATE
 10
99.68547959599684
 20
7.844039165611955
 30
0.0
  0
VERTEX
  5
6D4
  8
LARGER_ENDPLATE
 10
99.47110926036379
 20
7.713805959835576
 30
0.0
  0
VERTEX
  5
6D5
  8
LARGER_ENDPLATE
 10
99.24383220704152
 20
7.604320888312689
 30
0.0
  0
VERTEX
  5
6D6
  8
LARGER_ENDPLATE
 10
99.00495533879078
 20
7.516890853804009
 30
0.0
  0
VERTEX
  5
6D7
  8
LARGER_ENDPLATE
 10
98.7557855583723
 20
7.452822759070254
 30
0.0
  0
VERTEX
  5
6D8
  8
LARGER_ENDPLATE
 10
98.49762976854677
 20
7.413423506872142
 30
0.0
  0
VERTEX
  5
6D9
  8
LARGER_ENDPLATE
 10
98.23179487207493
 20
7.39999999997039
 30
0.0
  0
VERTEX
  5
6DA
  8
LARGER_ENDPLATE
 10
97.96595997560307
 20
7.413423506872142
 30
0.0
  0
VERTEX
  5
6DB
  8
LARGER_ENDPLATE
 10
97.70780418577753
 20
7.452822759070252
 30
0.0
  0
VERTEX
  5
6DC
  8
LARGER_ENDPLATE
 10
97.45863440535905
 20
7.516890853804005
 30
0.0
  0
VERTEX
  5
6DD
  8
LARGER_ENDPLATE
 10
97.21975753710832
 20
7.604320888312682
 30
0.0
  0
VERTEX
  5
6DE
  8
LARGER_ENDPLATE
 10
96.99248048378607
 20
7.713805959835568
 30
0.0
  0
VERTEX
  5
6DF
  8
LARGER_ENDPLATE
 10
96.77811014815302
 20
7.844039165611944
 30
0.0
  0
VERTEX
  5
6E0
  8
LARGER_ENDPLATE
 10
96.57795343296985
 20
7.993713602881095
 30
0.0
  0
VERTEX
  5
6E1
  8
LARGER_ENDPLATE
 10
96.39331724099732
 20
8.161522368882302
 30
0.0
  0
VERTEX
  5
6E2
  8
LARGER_ENDPLATE
 10
96.22550847499613
 20
8.34615856085485
 30
0.0
  0
VERTEX
  5
6E3
  8
LARGER_ENDPLATE
 10
96.07583403772699
 20
8.54631527603802
 30
0.0
  0
VERTEX
  5
6E4
  8
LARGER_ENDPLATE
 10
95.94560083195063
 20
8.760685611671098
 30
0.0
  0
VERTEX
  5
6E5
  8
LARGER_ENDPLATE
 10
95.83611576042776
 20
8.987962664993365
 30
0.0
  0
VERTEX
  5
6E6
  8
LARGER_ENDPLATE
 10
95.7486857259191
 20
9.226839533244103
 30
0.0
  0
VERTEX
  5
6E7
  8
LARGER_ENDPLATE
 10
95.68461763118538
 20
9.476009313662598
 30
0.0
  0
VERTEX
  5
6E8
  8
LARGER_ENDPLATE
 10
95.64521837898725
 20
9.73416510348813
 30
0.0
  0
VERTEX
  5
6E9
  8
LARGER_ENDPLATE
 10
95.63179487208551
 20
9.999999999959982
 30
0.0
  0
VERTEX
  5
6EA
  8
LARGER_ENDPLATE
 10
95.64521837898724
 20
10.26583489643184
 30
0.0
  0
VERTEX
  5
6EB
  8
LARGER_ENDPLATE
 10
95.68461763118535
 20
10.52399068625738
 30
0.0
  0
VERTEX
  5
6EC
  8
LARGER_ENDPLATE
 10
95.74868572591907
 20
10.77316046667588
 30
0.0
  0
VERTEX
  5
6ED
  8
LARGER_ENDPLATE
 10
95.83611576042775
 20
11.01203733492662
 30
0.0
  0
VERTEX
  5
6EE
  8
LARGER_ENDPLATE
 10
95.94560083195063
 20
11.23931438824888
 30
0.0
  0
VERTEX
  5
6EF
  8
LARGER_ENDPLATE
 10
96.07583403772699
 20
11.45368472388196
 30
0.0
  0
VERTEX
  5
6F0
  8
LARGER_ENDPLATE
 10
96.22550847499613
 20
11.65384143906513
 30
0.0
  0
VERTEX
  5
6F1
  8
LARGER_ENDPLATE
 10
96.39331724099733
 20
11.83847763103768
 30
0.0
  0
VERTEX
  5
6F2
  8
LARGER_ENDPLATE
 10
96.57795343296986
 20
12.00628639703889
 30
0.0
  0
VERTEX
  5
6F3
  8
LARGER_ENDPLATE
 10
96.77811014815303
 20
12.15596083430804
 30
0.0
  0
VERTEX
  5
6F4
  8
LARGER_ENDPLATE
 10
96.9924804837861
 20
12.28619404008441
 30
0.0
  0
VERTEX
  5
6F5
  8
LARGER_ENDPLATE
 10
97.21975753710835
 20
12.3956791116073
 30
0.0
  0
VERTEX
  5
6F6
  8
LARGER_ENDPLATE
 10
97.45863440535908
 20
12.48310914611598
 30
0.0
  0
VERTEX
  5
6F7
  8
LARGER_ENDPLATE
 10
97.70780418577756
 20
12.54717724084973
 30
0.0
  0
VERTEX
  5
6F8
  8
LARGER_ENDPLATE
 10
97.96595997560308
 20
12.58657649304784
 30
0.0
  0
SEQEND
  5
AC6
  8
LARGER_ENDPLATE
  0
POLYLINE
  5
80
  8
LARGER_ENDPLATE
 66
     1
 10
0.0
 20
0.0
 30
0.0
 70
     1
  0
VERTEX
  5
6F9
  8
LARGER_ENDPLATE
 10
119.8116559830661
 20
97.2807017538659
 30
0.0
  0
VERTEX
  5
6FA
  8
LARGER_ENDPLATE
 10
119.0368021818965
 20
97.2807017538659
 30
0.0
  0
VERTEX
  5
6FB
  8
LARGER_ENDPLATE
 10
119.0879717725398
 20
97.63432017491854
 30
0.0
  0
VERTEX
  5
6FC
  8
LARGER_ENDPLATE
 10
119.1245214801421
 20
97.9495614029887
 30
0.0
  0
VERTEX
  5
6FD
  8
LARGER_ENDPLATE
 10
119.1464513047035
 20
98.22642543807643
 30
0.0
  0
VERTEX
  5
6FE
  8
LARGER_ENDPLATE
 10
119.153761246224
 20
98.4649122801817
 30
0.0
  0
VERTEX
  5
6FF
  8
LARGER_ENDPLATE
 10
119.1460997279263
 20
98.60482912959691
 30
0.0
  0
VERTEX
  5
700
  8
LARGER_ENDPLATE
 10
119.1231151730332
 20
98.7321820170238
 30
0.0
  0
VERTEX
  5
701
  8
LARGER_ENDPLATE
 10
119.0848075815447
 20
98.84697094246239
 30
0.0
  0
VERTEX
  5
702
  8
LARGER_ENDPLATE
 10
119.0311769534609
 20
98.94919590591269
 30
0.0
  0
VERTEX
  5
703
  8
LARGER_ENDPLATE
 10
118.9622232887816
 20
99.03885690737468
 30
0.0
  0
VERTEX
  5
704
  8
LARGER_ENDPLATE
 10
118.8779465875069
 20
99.11595394684838
 30
0.0
  0
VERTEX
  5
705
  8
LARGER_ENDPLATE
 10
118.7783468496368
 20
99.18048702433376
 30
0.0
  0
VERTEX
  5
706
  8
LARGER_ENDPLATE
 10
118.6634240751714
 20
99.23245613983082
 30
0.0
  0
VERTEX
  5
707
  8
LARGER_ENDPLATE
 10
118.4984167795071
 20
99.27528782842731
 30
0.0
  0
VERTEX
  5
708
  8
LARGER_ENDPLATE
 10
118.2485634780406
 20
99.31240862521094
 30
0.0
  0
VERTEX
  5
709
  8
LARGER_ENDPLATE
 10
117.9138641707717
 20
99.3438185301817
 30
0.0
  0
VERTEX
  5
70A
  8
LARGER_ENDPLATE
 10
117.4943188577006
 20
99.36951754333958
 30
0.0
  0
VERTEX
  5
70B
  8
LARGER_ENDPLATE
 10
116.9899275388273
 20
99.38950566468462
 30
0.0
  0
VERTEX
  5
70C
  8
LARGER_ENDPLATE
 10
116.4006902141517
 20
99.40378289421679
 30
0.0
  0
VERTEX
  5
70D
  8
LARGER_ENDPLATE
 10
114.9676775473936
 20
99.41520467784251
 30
0.0
  0
VERTEX
  5
70E
  8
LARGER_ENDPLATE
 10
112.8308902666919
 20
99.40058479480157
 30
0.0
  0
VERTEX
  5
70F
  8
LARGER_ENDPLATE
 10
111.2229315678615
 20
92.95321637374894
 30
0.0
  0
VERTEX
  5
710
  8
LARGER_ENDPLATE
 10
114.2446786438848
 20
92.95321637374894
 30
0.0
  0
VERTEX
  5
711
  8
LARGER_ENDPLATE
 10
114.8911373198717
 20
92.96646564275478
 30
0.0
  0
VERTEX
  5
712
  8
LARGER_ENDPLATE
 10
115.1627009334956
 20
92.9830272290121
 30
0.0
  0
VERTEX
  5
713
  8
LARGER_ENDPLATE
 10
115.3998207308731
 20
93.00621344977233
 30
0.0
  0
VERTEX
  5
714
  8
LARGER_ENDPLATE
 10
115.6024967120044
 20
93.03602430503548
 30
0.0
  0
VERTEX
  5
715
  8
LARGER_ENDPLATE
 10
115.7707288768892
 20
93.07245979480156
 30
0.0
  0
VERTEX
  5
716
  8
LARGER_ENDPLATE
 10
115.9045172255277
 20
93.11551991907056
 30
0.0
  0
VERTEX
  5
717
  8
LARGER_ENDPLATE
 10
116.0038617579199
 20
93.16520467784251
 30
0.0
  0
VERTEX
  5
718
  8
LARGER_ENDPLATE
 10
116.0831325055899
 20
93.22813870562028
 30
0.0
  0
VERTEX
  5
719
  8
LARGER_ENDPLATE
 10
116.1566995000617
 20
93.31094663690683
 30
0.0
  0
VERTEX
  5
71A
  8
LARGER_ENDPLATE
 10
116.2245627413355
 20
93.41362847170217
 30
0.0
  0
VERTEX
  5
71B
  8
LARGER_ENDPLATE
 10
116.2867222294112
 20
93.53618421000624
 30
0.0
  0
VERTEX
  5
71C
  8
LARGER_ENDPLATE
 10
116.3431779642887
 20
93.67861385181911
 30
0.0
  0
VERTEX
  5
71D
  8
LARGER_ENDPLATE
 10
116.3939299459682
 20
93.84091739714074
 30
0.0
  0
VERTEX
  5
71E
  8
LARGER_ENDPLATE
 10
116.4389781744495
 20
94.02309484597117
 30
0.0
  0
VERTEX
  5
71F
  8
LARGER_ENDPLATE
 10
116.4783226497328
 20
94.22514619831034
 30
0.0
  0
VERTEX
  5
720
  8
LARGER_ENDPLATE
 10
117.3116559830661
 20
94.22514619831034
 30
0.0
  0
VERTEX
  5
721
  8
LARGER_ENDPLATE
 10
117.0841340532416
 20
93.31871344977232
 30
0.0
  0
VERTEX
  5
722
  8
LARGER_ENDPLATE
 10
116.8694045210778
 20
92.3684210521115
 30
0.0
  0
VERTEX
  5
723
  8
LARGER_ENDPLATE
 10
116.6674673865749
 20
91.37426900532787
 30
0.0
  0
VERTEX
  5
724
  8
LARGER_ENDPLATE
 10
116.4783226497328
 20
90.33625730942146
 30
0.0
  0
VERTEX
  5
725
  8
LARGER_ENDPLATE
 10
115.7327086146451
 20
90.33625730942146
 30
0.0
  0
VERTEX
  5
726
  8
LARGER_ENDPLATE
 10
115.7875331760486
 20
90.9466374263805
 30
0.0
  0
VERTEX
  5
727
  8
LARGER_ENDPLATE
 10
115.8012393163995
 20
91.19426169538636
 30
0.0
  0
VERTEX
  5
728
  8
LARGER_ENDPLATE
 10
115.8058080298498
 20
91.40350877140976
 30
0.0
  0
VERTEX
  5
729
  8
LARGER_ENDPLATE
 10
115.7930156321889
 20
91.4884868415852
 30
0.0
  0
VERTEX
  5
72A
  8
LARGER_ENDPLATE
 10
115.7546384392065
 20
91.58260233866122
 30
0.0
  0
VERTEX
  5
72B
  8
LARGER_ENDPLATE
 10
115.6906764509024
 20
91.68585526263783
 30
0.0
  0
VERTEX
  5
72C
  8
LARGER_ENDPLATE
 10
115.6011296672767
 20
91.79824561351502
 30
0.0
  0
VERTEX
  5
72D
  8
LARGER_ENDPLATE
 10
115.538895223746
 20
91.85215643222847
 30
0.0
  0
VERTEX
  5
72E
  8
LARGER_ENDPLATE
 10
115.4547595101129
 20
91.89692982404134
 30
0.0
  0
VERTEX
  5
72F
  8
LARGER_ENDPLATE
 10
115.3487225263775
 20
91.93256578895361
 30
0.0
  0
VERTEX
  5
730
  8
LARGER_ENDPLATE
 10
115.2207842725398
 20
91.95906432696532
 30
0.0
  0
VERTEX
  5
731
  8
LARGER_ENDPLATE
 10
114.9958750757196
 20
91.99104532111735
 30
0.0
  0
VERTEX
  5
732
  8
LARGER_ENDPLATE
 10
114.7161127630369
 20
92.01388888836883
 30
0.0
  0
VERTEX
  5
733
  8
LARGER_ENDPLATE
 10
114.3814973344916
 20
92.02759502871969
 30
0.0
  0
VERTEX
  5
734
  8
LARGER_ENDPLATE
 10
113.9920287900837
 20
92.03216374216998
 30
0.0
  0
VERTEX
  5
735
  8
LARGER_ENDPLATE
 10
110.9933537169843
 20
92.03216374216998
 30
0.0
  0
VERTEX
  5
736
  8
LARGER_ENDPLATE
 10
110.6676686955113
 20
90.82455283665098
 30
0.0
  0
VERTEX
  5
737
  8
LARGER_ENDPLATE
 10
110.3387998518527
 20
89.68401635547409
 30
0.0
  0
VERTEX
  5
738
  8
LARGER_ENDPLATE
 10
110.0067471860084
 20
88.61055429863929
 30
0.0
  0
VERTEX
  5
739
  8
LARGER_ENDPLATE
 10
109.6715106979784
 20
87.6041666661466
 30
0.0
  0
VERTEX
  5
73A
  8
LARGER_ENDPLATE
 10
109.3330903877628
 20
86.66485345799602
 30
0.0
  0
VERTEX
  5
73B
  8
LARGER_ENDPLATE
 10
108.9914862553615
 20
85.79261467418755
 30
0.0
  0
VERTEX
  5
73C
  8
LARGER_ENDPLATE
 10
108.6466983007745
 20
84.98745031472117
 30
0.0
  0
VERTEX
  5
73D
  8
LARGER_ENDPLATE
 10
108.4731103901613
 20
84.61002104411627
 30
0.0
  0
VERTEX
  5
73E
  8
LARGER_ENDPLATE
 10
108.2987265240018
 20
84.2493603795969
 30
0.0
  0
VERTEX
  5
73F
  8
LARGER_ENDPLATE
 10
108.6340700912533
 20
84.34990776857717
 30
0.0
  0
VERTEX
  5
740
  8
LARGER_ENDPLATE
 10
108.9598193602591
 20
84.43704883902673
 30
0.0
  0
VERTEX
  5
741
  8
LARGER_ENDPLATE
 10
109.2759743310193
 20
84.51078359094559
 30
0.0
  0
VERTEX
  5
742
  8
LARGER_ENDPLATE
 10
109.582535003534
 20
84.57111202433374
 30
0.0
  0
VERTEX
  5
743
  8
LARGER_ENDPLATE
 10
109.879501377803
 20
84.61803413919121
 30
0.0
  0
VERTEX
  5
744
  8
LARGER_ENDPLATE
 10
110.1668734538264
 20
84.65154993551795
 30
0.0
  0
VERTEX
  5
745
  8
LARGER_ENDPLATE
 10
110.4446512316041
 20
84.671659413314
 30
0.0
  0
VERTEX
  5
746
  8
LARGER_ENDPLATE
 10
110.7128347111363
 20
84.67836257257935
 30
0.0
  0
VERTEX
  5
747
  8
LARGER_ENDPLATE
 10
111.1640629811929
 20
84.66968201702379
 30
0.0
  0
VERTEX
  5
748
  8
LARGER_ENDPLATE
 10
111.6399837197255
 20
84.64364035035712
 30
0.0
  0
VERTEX
  5
749
  8
LARGER_ENDPLATE
 10
112.1405969267339
 20
84.60023757257935
 30
0.0
  0
VERTEX
  5
74A
  8
LARGER_ENDPLATE
 10
112.6659026022182
 20
84.53947368369046
 30
0.0
  0
VERTEX
  5
74B
  8
LARGER_ENDPLATE
 10
113.2159007461783
 20
84.46134868369046
 30
0.0
  0
VERTEX
  5
74C
  8
LARGER_ENDPLATE
 10
113.7905913586144
 20
84.36586257257935
 30
0.0
  0
VERTEX
  5
74D
  8
LARGER_ENDPLATE
 10
114.3899744395263
 20
84.25301535035712
 30
0.0
  0
VERTEX
  5
74E
  8
LARGER_ENDPLATE
 10
115.0140499889141
 20
84.12280701702379
 30
0.0
  0
VERTEX
  5
74F
  8
LARGER_ENDPLATE
 10
115.6330821069696
 20
83.98848684158519
 30
0.0
  0
VERTEX
  5
750
  8
LARGER_ENDPLATE
 10
116.1442354786802
 20
83.89254385912906
 30
0.0
  0
VERTEX
  5
751
  8
LARGER_ENDPLATE
 10
116.5475101040457
 20
83.83497806965538
 30
0.0
  0
VERTEX
  5
752
  8
LARGER_ENDPLATE
 10
116.708692886849
 20
83.82058662228695
 30
0.0
  0
VERTEX
  5
753
  8
LARGER_ENDPLATE
 10
116.8429059830661
 20
83.81578947316414
 30
0.0
  0
VERTEX
  5
754
  8
LARGER_ENDPLATE
 10
116.9999519386126
 20
83.82079364211516
 30
0.0
  0
VERTEX
  5
755
  8
LARGER_ENDPLATE
 10
117.1492239426787
 20
83.83580614896823
 30
0.0
  0
VERTEX
  5
756
  8
LARGER_ENDPLATE
 10
117.2907219952646
 20
83.86082699372336
 30
0.0
  0
VERTEX
  5
757
  8
LARGER_ENDPLATE
 10
117.4244460963702
 20
83.89585617638052
 30
0.0
  0
VERTEX
  5
758
  8
LARGER_ENDPLATE
 10
117.5503962459956
 20
83.94089369693974
 30
0.0
  0
VERTEX
  5
759
  8
LARGER_ENDPLATE
 10
117.6685724441407
 20
83.995939555401
 30
0.0
  0
VERTEX
  5
75A
  8
LARGER_ENDPLATE
 10
117.7789746908055
 20
84.0609937517643
 30
0.0
  0
VERTEX
  5
75B
  8
LARGER_ENDPLATE
 10
117.8816029859901
 20
84.13605628602964
 30
0.0
  0
VERTEX
  5
75C
  8
LARGER_ENDPLATE
 10
117.9741729729693
 20
84.21748646466634
 30
0.0
  0
VERTEX
  5
75D
  8
LARGER_ENDPLATE
 10
118.0544002950179
 20
84.30164359414368
 30
0.0
  0
VERTEX
  5
75E
  8
LARGER_ENDPLATE
 10
118.1222849521359
 20
84.38852767446167
 30
0.0
  0
VERTEX
  5
75F
  8
LARGER_ENDPLATE
 10
118.1778269443234
 20
84.4781387056203
 30
0.0
  0
VERTEX
  5
760
  8
LARGER_ENDPLATE
 10
118.2210262715804
 20
84.57047668761956
 30
0.0
  0
VERTEX
  5
761
  8
LARGER_ENDPLATE
 10
118.2518829339068
 20
84.66554162045946
 30
0.0
  0
VERTEX
  5
762
  8
LARGER_ENDPLATE
 10
118.2703969313026
 20
84.76333350414002
 30
0.0
  0
VERTEX
  5
763
  8
LARGER_ENDPLATE
 10
118.2765682637679
 20
84.86385233866122
 30
0.0
  0
VERTEX
  5
764
  8
LARGER_ENDPLATE
 10
118.2641185196158
 20
84.99852944483813
 30
0.0
  0
VERTEX
  5
765
  8
LARGER_ENDPLATE
 10
118.2267692871597
 20
85.16955637740391
 30
0.0
  0
VERTEX
  5
766
  8
LARGER_ENDPLATE
 10
118.1645205663995
 20
85.37693313635859
 30
0.0
  0
VERTEX
  5
767
  8
LARGER_ENDPLATE
 10
118.0773723573351
 20
85.62065972170215
 30
0.0
  0
VERTEX
  5
768
  8
LARGER_ENDPLATE
 10
118.0238041921305
 20
85.79996744739661
 30
0.0
  0
VERTEX
  5
769
  8
LARGER_ENDPLATE
 10
117.9855412169843
 20
85.97376416249162
 30
0.0
  0
VERTEX
  5
76A
  8
LARGER_ENDPLATE
 10
117.9625834318965
 20
86.14204986698724
 30
0.0
  0
VERTEX
  5
76B
  8
LARGER_ENDPLATE
 10
117.9549308368673
 20
86.30482456088345
 30
0.0
  0
VERTEX
  5
76C
  8
LARGER_ENDPLATE
 10
117.9591568968088
 20
86.38740762580485
 30
0.0
  0
VERTEX
  5
76D
  8
LARGER_ENDPLATE
 10
117.9718350766334
 20
86.4677134726159
 30
0.0
  0
VERTEX
  5
76E
  8
LARGER_ENDPLATE
 10
117.992965376341
 20
86.54574210131656
 30
0.0
  0
VERTEX
  5
76F
  8
LARGER_ENDPLATE
 10
118.0225477959316
 20
86.62149351190683
 30
0.0
  0
VERTEX
  5
770
  8
LARGER_ENDPLATE
 10
118.0605823354053
 20
86.69496770438673
 30
0.0
  0
VERTEX
  5
771
  8
LARGER_ENDPLATE
 10
118.107068994762
 20
86.76616467875625
 30
0.0
  0
VERTEX
  5
772
  8
LARGER_ENDPLATE
 10
118.1620077740018
 20
86.83508443501539
 30
0.0
  0
VERTEX
  5
773
  8
LARGER_ENDPLATE
 10
118.2253986731246
 20
86.90172697316414
 30
0.0
  0
VERTEX
  5
774
  8
LARGER_ENDPLATE
 10
118.2947288997328
 20
86.96313690668937
 30
0.0
  0
VERTEX
  5
775
  8
LARGER_ENDPLATE
 10
118.3674856614287
 20
87.01635884907787
 30
0.0
  0
VERTEX
  5
776
  8
LARGER_ENDPLATE
 10
118.4436689582123
 20
87.06139280032971
 30
0.0
  0
VERTEX
  5
777
  8
LARGER_ENDPLATE
 10
118.5232787900837
 20
87.09823876044484
 30
0.0
  0
VERTEX
  5
778
  8
LARGER_ENDPLATE
 10
118.6063151570427
 20
87.12689672942328
 30
0.0
  0
VERTEX
  5
779
  8
LARGER_ENDPLATE
 10
118.6927780590895
 20
87.14736670726501
 30
0.0
  0
VERTEX
  5
77A
  8
LARGER_ENDPLATE
 10
118.782667496224
 20
87.15964869397006
 30
0.0
  0
VERTEX
  5
77B
  8
LARGER_ENDPLATE
 10
118.8759834684462
 20
87.16374268953841
 30
0.0
  0
VERTEX
  5
77C
  8
LARGER_ENDPLATE
 10
118.9868889874521
 20
87.15826023339807
 30
0.0
  0
VERTEX
  5
77D
  8
LARGER_ENDPLATE
 10
119.0929973573351
 20
87.14181286497701
 30
0.0
  0
VERTEX
  5
77E
  8
LARGER_ENDPLATE
 10
119.1943085780954
 20
87.11440058427526
 30
0.0
  0
VERTEX
  5
77F
  8
LARGER_ENDPLATE
 10
119.2908226497328
 20
87.07602339129281
 30
0.0
  0
VERTEX
  5
780
  8
LARGER_ENDPLATE
 10
119.3825395722474
 20
87.02668128602964
 30
0.0
  0
VERTEX
  5
781
  8
LARGER_ENDPLATE
 10
119.4694593456392
 20
86.96637426848578
 30
0.0
  0
VERTEX
  5
782
  8
LARGER_ENDPLATE
 10
119.5515819699082
 20
86.89510233866122
 30
0.0
  0
VERTEX
  5
783
  8
LARGER_ENDPLATE
 10
119.6289074450544
 20
86.81286549655596
 30
0.0
  0
VERTEX
  5
784
  8
LARGER_ENDPLATE
 10
119.6991514143527
 20
86.7214912275501
 30
0.0
  0
VERTEX
  5
785
  8
LARGER_ENDPLATE
 10
119.7600295210778
 20
86.62280701702379
 30
0.0
  0
VERTEX
  5
786
  8
LARGER_ENDPLATE
 10
119.8115417652299
 20
86.516812864977
 30
0.0
  0
VERTEX
  5
787
  8
LARGER_ENDPLATE
 10
119.8536881468088
 20
86.40350877140975
 30
0.0
  0
VERTEX
  5
788
  8
LARGER_ENDPLATE
 10
119.8864686658146
 20
86.28289473632202
 30
0.0
  0
VERTEX
  5
789
  8
LARGER_ENDPLATE
 10
119.9098833222474
 20
86.15497075971385
 30
0.0
  0
VERTEX
  5
78A
  8
LARGER_ENDPLATE
 10
119.9239321161071
 20
86.0197368415852
 30
0.0
  0
VERTEX
  5
78B
  8
LARGER_ENDPLATE
 10
119.9286150473936
 20
85.87719298193608
 30
0.0
  0
VERTEX
  5
78C
  8
LARGER_ENDPLATE
 10
119.9243573098491
 20
85.72305601190683
 30
0.0
  0
VERTEX
  5
78D
  8
LARGER_ENDPLATE
 10
119.9115840972154
 20
85.571317616439
 30
0.0
  0
VERTEX
  5
78E
  8
LARGER_ENDPLATE
 10
119.8902954094927
 20
85.42197779553256
 30
0.0
  0
VERTEX
  5
78F
  8
LARGER_ENDPLATE
 10
119.8604912466809
 20
85.27503654918753
 30
0.0
  0
VERTEX
  5
790
  8
LARGER_ENDPLATE
 10
119.82217160878
 20
85.13049387740391
 30
0.0
  0
VERTEX
  5
791
  8
LARGER_ENDPLATE
 10
119.77533649579
 20
84.9883497801817
 30
0.0
  0
VERTEX
  5
792
  8
LARGER_ENDPLATE
 10
119.7199859077109
 20
84.84860425752086
 30
0.0
  0
VERTEX
  5
793
  8
LARGER_ENDPLATE
 10
119.6561198445427
 20
84.71125730942146
 30
0.0
  0
VERTEX
  5
794
  8
LARGER_ENDPLATE
 10
119.5837383062855
 20
84.57630893588345
 30
0.0
  0
VERTEX
  5
795
  8
LARGER_ENDPLATE
 10
119.5028412929391
 20
84.44375913690683
 30
0.0
  0
VERTEX
  5
796
  8
LARGER_ENDPLATE
 10
119.4134288045037
 20
84.31360791249162
 30
0.0
  0
VERTEX
  5
797
  8
LARGER_ENDPLATE
 10
119.3155008409791
 20
84.18585526263782
 30
0.0
  0
VERTEX
  5
798
  8
LARGER_ENDPLATE
 10
119.2090574023655
 20
84.06050118734541
 30
0.0
  0
VERTEX
  5
799
  8
LARGER_ENDPLATE
 10
119.0940984886628
 20
83.93754568661443
 30
0.0
  0
VERTEX
  5
79A
  8
LARGER_ENDPLATE
 10
118.970624099871
 20
83.81698876044483
 30
0.0
  0
VERTEX
  5
79B
  8
LARGER_ENDPLATE
 10
118.8386342359901
 20
83.69883040883666
 30
0.0
  0
VERTEX
  5
79C
  8
LARGER_ENDPLATE
 10
118.6996717301364
 20
83.58552631526942
 30
0.0
  0
VERTEX
  5
79D
  8
LARGER_ENDPLATE
 10
118.5552794154263
 20
83.47953216322263
 30
0.0
  0
VERTEX
  5
79E
  8
LARGER_ENDPLATE
 10
118.4054572918598
 20
83.38084795269631
 30
0.0
  0
VERTEX
  5
79F
  8
LARGER_ENDPLATE
 10
118.2502053594367
 20
83.28947368369046
 30
0.0
  0
VERTEX
  5
7A0
  8
LARGER_ENDPLATE
 10
118.0895236181573
 20
83.20540935620508
 30
0.0
  0
VERTEX
  5
7A1
  8
LARGER_ENDPLATE
 10
117.9234120680214
 20
83.12865497024016
 30
0.0
  0
VERTEX
  5
7A2
  8
LARGER_ENDPLATE
 10
117.751870709029
 20
83.05921052579572
 30
0.0
  0
VERTEX
  5
7A3
  8
LARGER_ENDPLATE
 10
117.5748995411802
 20
82.99707602287174
 30
0.0
  0
VERTEX
  5
7A4
  8
LARGER_ENDPLATE
 10
117.3924985644749
 20
82.94225146146823
 30
0.0
  0
VERTEX
  5
7A5
  8
LARGER_ENDPLATE
 10
117.2046677789132
 20
82.89473684158519
 30
0.0
  0
VERTEX
  5
7A6
  8
LARGER_ENDPLATE
 10
117.011407184495
 20
82.85453216322261
 30
0.0
  0
VERTEX
  5
7A7
  8
LARGER_ENDPLATE
 10
116.8127167812204
 20
82.8216374263805
 30
0.0
  0
VERTEX
  5
7A8
  8
LARGER_ENDPLATE
 10
116.6085965690893
 20
82.79605263105887
 30
0.0
  0
VERTEX
  5
7A9
  8
LARGER_ENDPLATE
 10
116.3990465481018
 20
82.77777777725771
 30
0.0
  0
VERTEX
  5
7AA
  8
LARGER_ENDPLATE
 10
115.9636570795574
 20
82.76315789421677
 30
0.0
  0
VERTEX
  5
7AB
  8
LARGER_ENDPLATE
 10
115.4643823628176
 20
82.77320906380741
 30
0.0
  0
VERTEX
  5
7AC
  8
LARGER_ENDPLATE
 10
114.9029160342357
 20
82.80336257257935
 30
0.0
  0
VERTEX
  5
7AD
  8
LARGER_ENDPLATE
 10
114.2792580938117
 20
82.85361842053257
 30
0.0
  0
VERTEX
  5
7AE
  8
LARGER_ENDPLATE
 10
113.5934085415457
 20
82.92397660766707
 30
0.0
  0
VERTEX
  5
7AF
  8
LARGER_ENDPLATE
 10
112.1139020768161
 20
83.0774853795969
 30
0.0
  0
VERTEX
  5
7B0
  8
LARGER_ENDPLATE
 10
110.8209418931539
 20
83.18713450240392
 30
0.0
  0
VERTEX
  5
7B1
  8
LARGER_ENDPLATE
 10
110.2444166567229
 20
83.22551169538637
 30
0.0
  0
VERTEX
  5
7B2
  8
LARGER_ENDPLATE
 10
109.7145279905588
 20
83.25292397608813
 30
0.0
  0
VERTEX
  5
7B3
  8
LARGER_ENDPLATE
 10
109.2312758946615
 20
83.26937134450918
 30
0.0
  0
VERTEX
  5
7B4
  8
LARGER_ENDPLATE
 10
108.794660369031
 20
83.27485380064952
 30
0.0
  0
VERTEX
  5
7B5
  8
LARGER_ENDPLATE
 10
108.2418424722383
 20
83.26937134450918
 30
0.0
  0
VERTEX
  5
7B6
  8
LARGER_ENDPLATE
 10
107.6661738695793
 20
83.25292397608813
 30
0.0
  0
VERTEX
  5
7B7
  8
LARGER_ENDPLATE
 10
107.0676545610541
 20
83.22551169538637
 30
0.0
  0
VERTEX
  5
7B8
  8
LARGER_ENDPLATE
 10
106.4462845466626
 20
83.18713450240392
 30
0.0
  0
VERTEX
  5
7B9
  8
LARGER_ENDPLATE
 10
105.8020638264049
 20
83.13779239714076
 30
0.0
  0
VERTEX
  5
7BA
  8
LARGER_ENDPLATE
 10
105.134992400281
 20
83.0774853795969
 30
0.0
  0
VERTEX
  5
7BB
  8
LARGER_ENDPLATE
 10
104.4450702682909
 20
83.00621344977233
 30
0.0
  0
VERTEX
  5
7BC
  8
LARGER_ENDPLATE
 10
103.7322974304345
 20
82.92397660766707
 30
0.0
  0
VERTEX
  5
7BD
  8
LARGER_ENDPLATE
 10
103.9637027666919
 20
83.74063413690683
 30
0.0
  0
VERTEX
  5
7BE
  8
LARGER_ENDPLATE
 10
104.7420544890968
 20
83.96384434341269
 30
0.0
  0
VERTEX
  5
7BF
  8
LARGER_ENDPLATE
 10
105.3421407235632
 20
84.15535910035712
 30
0.0
  0
VERTEX
  5
7C0
  8
LARGER_ENDPLATE
 10
105.5753342828194
 20
84.23923068524381
 30
0.0
  0
VERTEX
  5
7C1
  8
LARGER_ENDPLATE
 10
105.763961470091
 20
84.31517840774016
 30
0.0
  0
VERTEX
  5
7C2
  8
LARGER_ENDPLATE
 10
105.9080222853779
 20
84.38320226784614
 30
0.0
  0
VERTEX
  5
7C3
  8
LARGER_ENDPLATE
 10
106.0075167286802
 20
84.4433022655618
 30
0.0
  0
VERTEX
  5
7C4
  8
LARGER_ENDPLATE
 10
106.155500212781
 20
84.56869917254281
 30
0.0
  0
VERTEX
  5
7C5
  8
LARGER_ENDPLATE
 10
106.2906056358439
 20
84.72033762740392
 30
0.0
  0
VERTEX
  5
7C6
  8
LARGER_ENDPLATE
 10
106.4128329978688
 20
84.89821763014514
 30
0.0
  0
VERTEX
  5
7C7
  8
LARGER_ENDPLATE
 10
106.5221822988556
 20
85.10233918076648
 30
0.0
  0
VERTEX
  5
7C8
  8
LARGER_ENDPLATE
 10
106.703833274847
 20
85.49280534658791
 30
0.0
  0
VERTEX
  5
7C9
  8
LARGER_ENDPLATE
 10
106.8984800990201
 20
85.97044470662539
 30
0.0
  0
VERTEX
  5
7CA
  8
LARGER_ENDPLATE
 10
107.1061227713748
 20
86.53525726087886
 30
0.0
  0
VERTEX
  5
7CB
  8
LARGER_ENDPLATE
 10
107.3267612919111
 20
87.18724300934835
 30
0.0
  0
VERTEX
  5
7CC
  8
LARGER_ENDPLATE
 10
107.5603956606292
 20
87.92640195203384
 30
0.0
  0
VERTEX
  5
7CD
  8
LARGER_ENDPLATE
 10
107.8070258775288
 20
88.75273408893534
 30
0.0
  0
VERTEX
  5
7CE
  8
LARGER_ENDPLATE
 10
108.0666519426102
 20
89.66623942005285
 30
0.0
  0
VERTEX
  5
7CF
  8
LARGER_ENDPLATE
 10
108.3392738558731
 20
90.66691794538636
 30
0.0
  0
VERTEX
  5
7D0
  8
LARGER_ENDPLATE
 10
108.8998050259207
 20
92.78465226327745
 30
0.0
  0
VERTEX
  5
7D1
  8
LARGER_ENDPLATE
 10
109.464919186648
 20
94.9607947271846
 30
0.0
  0
VERTEX
  5
7D2
  8
LARGER_ENDPLATE
 10
110.0346163380552
 20
97.19534533710785
 30
0.0
  0
VERTEX
  5
7D3
  8
LARGER_ENDPLATE
 10
110.6088964801421
 20
99.48830409304719
 30
0.0
  0
VERTEX
  5
7D4
  8
LARGER_ENDPLATE
 10
110.172759241701
 20
99.47530289090446
 30
0.0
  0
VERTEX
  5
7D5
  8
LARGER_ENDPLATE
 10
109.74256846936
 20
99.43629928447628
 30
0.0
  0
VERTEX
  5
7D6
  8
LARGER_ENDPLATE
 10
109.3183241631191
 20
99.37129327376265
 30
0.0
  0
VERTEX
  5
7D7
  8
LARGER_ENDPLATE
 10
108.9000263229784
 20
99.28028485876357
 30
0.0
  0
VERTEX
  5
7D8
  8
LARGER_ENDPLATE
 10
108.4876749489378
 20
99.16327403947902
 30
0.0
  0
VERTEX
  5
7D9
  8
LARGER_ENDPLATE
 10
108.0812700409974
 20
99.02026081590903
 30
0.0
  0
VERTEX
  5
7DA
  8
LARGER_ENDPLATE
 10
107.6808115991571
 20
98.85124518805358
 30
0.0
  0
VERTEX
  5
7DB
  8
LARGER_ENDPLATE
 10
107.286299623417
 20
98.65622715591269
 30
0.0
  0
VERTEX
  5
7DC
  8
LARGER_ENDPLATE
 10
106.905509849911
 20
98.44033759884947
 30
0.0
  0
VERTEX
  5
7DD
  8
LARGER_ENDPLATE
 10
106.546218014773
 20
98.20870739622703
 30
0.0
  0
VERTEX
  5
7DE
  8
LARGER_ENDPLATE
 10
106.2084241180031
 20
97.96133654804538
 30
0.0
  0
VERTEX
  5
7DF
  8
LARGER_ENDPLATE
 10
105.8921281596012
 20
97.6982250543045
 30
0.0
  0
VERTEX
  5
7E0
  8
LARGER_ENDPLATE
 10
105.5973301395674
 20
97.41937291500443
 30
0.0
  0
VERTEX
  5
7E1
  8
LARGER_ENDPLATE
 10
105.3240300579017
 20
97.12478013014515
 30
0.0
  0
VERTEX
  5
7E2
  8
LARGER_ENDPLATE
 10
105.072227914604
 20
96.81444669972666
 30
0.0
  0
VERTEX
  5
7E3
  8
LARGER_ENDPLATE
 10
104.8419237096743
 20
96.48837262374894
 30
0.0
  0
VERTEX
  5
7E4
  8
LARGER_ENDPLATE
 10
104.6360906761628
 20
96.15226344006382
 30
0.0
  0
VERTEX
  5
7E5
  8
LARGER_ENDPLATE
 10
104.4577020471195
 20
95.81182468652307
 30
0.0
  0
VERTEX
  5
7E6
  8
LARGER_ENDPLATE
 10
104.3067578225444
 20
95.46705636312667
 30
0.0
  0
VERTEX
  5
7E7
  8
LARGER_ENDPLATE
 10
104.1832580024375
 20
95.11795846987468
 30
0.0
  0
VERTEX
  5
7E8
  8
LARGER_ENDPLATE
 10
104.0872025867988
 20
94.76453100676704
 30
0.0
  0
VERTEX
  5
7E9
  8
LARGER_ENDPLATE
 10
104.0185915756283
 20
94.40677397380378
 30
0.0
  0
VERTEX
  5
7EA
  8
LARGER_ENDPLATE
 10
103.977424968926
 20
94.04468737098486
 30
0.0
  0
VERTEX
  5
7EB
  8
LARGER_ENDPLATE
 10
103.9637027666919
 20
93.67827119831034
 30
0.0
  0
VERTEX
  5
7EC
  8
LARGER_ENDPLATE
 10
103.9714695795574
 20
93.37443747663637
 30
0.0
  0
VERTEX
  5
7ED
  8
LARGER_ENDPLATE
 10
103.9947700181538
 20
93.09067753968462
 30
0.0
  0
VERTEX
  5
7EE
  8
LARGER_ENDPLATE
 10
104.0336040824813
 20
92.82699138745508
 30
0.0
  0
VERTEX
  5
7EF
  8
LARGER_ENDPLATE
 10
104.0879717725398
 20
92.58337901994777
 30
0.0
  0
VERTEX
  5
7F0
  8
LARGER_ENDPLATE
 10
104.1697517433
 20
92.32607478931912
 30
0.0
  0
VERTEX
  5
7F1
  8
LARGER_ENDPLATE
 10
104.2908226497328
 20
92.02131304772556
 30
0.0
  0
VERTEX
  5
7F2
  8
LARGER_ENDPLATE
 10
104.451184491838
 20
91.66909379516707
 30
0.0
  0
VERTEX
  5
7F3
  8
LARGER_ENDPLATE
 10
104.6508372696158
 20
91.26941703164367
 30
0.0
  0
VERTEX
  5
7F4
  8
LARGER_ENDPLATE
 10
104.7723650473936
 20
91.02587605028403
 30
0.0
  0
VERTEX
  5
7F5
  8
LARGER_ENDPLATE
 10
104.8591706029492
 20
90.80603526994777
 30
0.0
  0
VERTEX
  5
7F6
  8
LARGER_ENDPLATE
 10
104.9112539362825
 20
90.6098946906349
 30
0.0
  0
VERTEX
  5
7F7
  8
LARGER_ENDPLATE
 10
104.9242747696158
 20
90.52071197636224
 30
0.0
  0
VERTEX
  5
7F8
  8
LARGER_ENDPLATE
 10
104.9286150473936
 20
90.43745431234542
 30
0.0
  0
VERTEX
  5
7F9
  8
LARGER_ENDPLATE
 10
104.9244157572575
 20
90.35829956716542
 30
0.0
  0
VERTEX
  5
7FA
  8
LARGER_ENDPLATE
 10
104.911817886849
 20
90.28142560940317
 30
0.0
  0
VERTEX
  5
7FB
  8
LARGER_ENDPLATE
 10
104.8908214361683
 20
90.20683243905869
 30
0.0
  0
VERTEX
  5
7FC
  8
LARGER_ENDPLATE
 10
104.8614264052152
 20
90.13452005613198
 30
0.0
  0
VERTEX
  5
7FD
  8
LARGER_ENDPLATE
 10
104.8236327939899
 20
90.06448846062301
 30
0.0
  0
VERTEX
  5
7FE
  8
LARGER_ENDPLATE
 10
104.7774406024923
 20
89.99673765253183
 30
0.0
  0
VERTEX
  5
7FF
  8
LARGER_ENDPLATE
 10
104.7228498307224
 20
89.93126763185839
 30
0.0
  0
VERTEX
  5
800
  8
LARGER_ENDPLATE
 10
104.6598604786802
 20
89.86807839860273
 30
0.0
  0
VERTEX
  5
801
  8
LARGER_ENDPLATE
 10
104.5907426258613
 20
89.80990761152762
 30
0.0
  0
VERTEX
  5
802
  8
LARGER_ENDPLATE
 10
104.5177663517613
 20
89.75949292939586
 30
0.0
  0
VERTEX
  5
803
  8
LARGER_ENDPLATE
 10
104.4409316563803
 20
89.71683435220744
 30
0.0
  0
VERTEX
  5
804
  8
LARGER_ENDPLATE
 10
104.3602385397182
 20
89.68193187996238
 30
0.0
  0
VERTEX
  5
805
  8
LARGER_ENDPLATE
 10
104.275687001775
 20
89.65478551266065
 30
0.0
  0
VERTEX
  5
806
  8
LARGER_ENDPLATE
 10
104.1872770425508
 20
89.6353952503023
 30
0.0
  0
VERTEX
  5
807
  8
LARGER_ENDPLATE
 10
104.0950086620455
 20
89.62376109288726
 30
0.0
  0
VERTEX
  5
808
  8
LARGER_ENDPLATE
 10
103.9988818602591
 20
89.6198830404156
 30
0.0
  0
VERTEX
  5
809
  8
LARGER_ENDPLATE
 10
103.8608281892978
 20
89.62879203164367
 30
0.0
  0
VERTEX
  5
80A
  8
LARGER_ENDPLATE
 10
103.7300416281685
 20
89.65551900532787
 30
0.0
  0
VERTEX
  5
80B
  8
LARGER_ENDPLATE
 10
103.606522176871
 20
89.70006396146823
 30
0.0
  0
VERTEX
  5
80C
  8
LARGER_ENDPLATE
 10
103.4902698354053
 20
89.76242690006472
 30
0.0
  0
VERTEX
  5
80D
  8
LARGER_ENDPLATE
 10
103.3812846037715
 20
89.84260782111735
 30
0.0
  0
VERTEX
  5
80E
  8
LARGER_ENDPLATE
 10
103.2795664819696
 20
89.94060672462614
 30
0.0
  0
VERTEX
  5
80F
  8
LARGER_ENDPLATE
 10
103.1851154699996
 20
90.05642361059105
 30
0.0
  0
VERTEX
  5
810
  8
LARGER_ENDPLATE
 10
103.0979315678615
 20
90.1900584790121
 30
0.0
  0
VERTEX
  5
811
  8
LARGER_ENDPLATE
 10
102.9821789294294
 20
90.40775767491853
 30
0.0
  0
VERTEX
  5
812
  8
LARGER_ENDPLATE
 10
102.8818599761217
 20
90.64418859597116
 30
0.0
  0
VERTEX
  5
813
  8
LARGER_ENDPLATE
 10
102.7969747079382
 20
90.89935124216998
 30
0.0
  0
VERTEX
  5
814
  8
LARGER_ENDPLATE
 10
102.727523124879
 20
91.17324561351502
 30
0.0
  0
VERTEX
  5
815
  8
LARGER_ENDPLATE
 10
102.6735052269441
 20
91.46587171000625
 30
0.0
  0
VERTEX
  5
816
  8
LARGER_ENDPLATE
 10
102.6349210141334
 20
91.77722953164367
 30
0.0
  0
VERTEX
  5
817
  8
LARGER_ENDPLATE
 10
102.611770486447
 20
92.1073190784273
 30
0.0
  0
VERTEX
  5
818
  8
LARGER_ENDPLATE
 10
102.6040536438848
 20
92.45614035035712
 30
0.0
  0
VERTEX
  5
819
  8
LARGER_ENDPLATE
 10
102.6131339618673
 20
92.83745659670214
 30
0.0
  0
VERTEX
  5
81A
  8
LARGER_ENDPLATE
 10
102.6403749158147
 20
93.2138614760881
 30
0.0
  0
VERTEX
  5
81B
  8
LARGER_ENDPLATE
 10
102.6857765057269
 20
93.585354988515
 30
0.0
  0
VERTEX
  5
81C
  8
LARGER_ENDPLATE
 10
102.7493387316041
 20
93.95193713398284
 30
0.0
  0
VERTEX
  5
81D
  8
LARGER_ENDPLATE
 10
102.8310615934462
 20
94.31360791249162
 30
0.0
  0
VERTEX
  5
81E
  8
LARGER_ENDPLATE
 10
102.9309450912532
 20
94.67036732404132
 30
0.0
  0
VERTEX
  5
81F
  8
LARGER_ENDPLATE
 10
103.0489892250252
 20
95.02221536863198
 30
0.0
  0
VERTEX
  5
820
  8
LARGER_ENDPLATE
 10
103.185193994762
 20
95.36915204626355
 30
0.0
  0
VERTEX
  5
821
  8
LARGER_ENDPLATE
 10
103.3395594004638
 20
95.71117735693606
 30
0.0
  0
VERTEX
  5
822
  8
LARGER_ENDPLATE
 10
103.5120854421305
 20
96.04829130064951
 30
0.0
  0
VERTEX
  5
823
  8
LARGER_ENDPLATE
 10
103.702772119762
 20
96.38049387740391
 30
0.0
  0
VERTEX
  5
824
  8
LARGER_ENDPLATE
 10
103.9116194333585
 20
96.70778508719923
 30
0.0
  0
VERTEX
  5
825
  8
LARGER_ENDPLATE
 10
104.1386273829199
 20
97.03016493003548
 30
0.0
  0
VERTEX
  5
826
  8
LARGER_ENDPLATE
 10
104.3837959684462
 20
97.34763340591267
 30
0.0
  0
VERTEX
  5
827
  8
LARGER_ENDPLATE
 10
104.6471251899375
 20
97.6601905148308
 30
0.0
  0
VERTEX
  5
828
  8
LARGER_ENDPLATE
 10
104.9286150473936
 20
97.96783625678988
 30
0.0
  0
VERTEX
  5
829
  8
LARGER_ENDPLATE
 10
105.2274660159609
 20
98.26348912594193
 30
0.0
  0
VERTEX
  5
82A
  8
LARGER_ENDPLATE
 10
105.5428785707854
 20
98.540067616439
 30
0.0
  0
VERTEX
  5
82B
  8
LARGER_ENDPLATE
 10
105.8748527118673
 20
98.7975717282811
 30
0.0
  0
VERTEX
  5
82C
  8
LARGER_ENDPLATE
 10
106.2233884392065
 20
99.03600146146823
 30
0.0
  0
VERTEX
  5
82D
  8
LARGER_ENDPLATE
 10
106.588485752803
 20
99.25535681600039
 30
0.0
  0
VERTEX
  5
82E
  8
LARGER_ENDPLATE
 10
106.9701446526568
 20
99.45563779187759
 30
0.0
  0
VERTEX
  5
82F
  8
LARGER_ENDPLATE
 10
107.3683651387679
 20
99.63684438909982
 30
0.0
  0
VERTEX
  5
830
  8
LARGER_ENDPLATE
 10
107.7831472111363
 20
99.79897660766707
 30
0.0
  0
VERTEX
  5
831
  8
LARGER_ENDPLATE
 10
108.214490869762
 20
99.94203444757935
 30
0.0
  0
VERTEX
  5
832
  8
LARGER_ENDPLATE
 10
108.6623961146451
 20
100.0660179088367
 30
0.0
  0
VERTEX
  5
833
  8
LARGER_ENDPLATE
 10
109.1268629457854
 20
100.170926991439
 30
0.0
  0
VERTEX
  5
834
  8
LARGER_ENDPLATE
 10
109.6078913631831
 20
100.2567616953864
 30
0.0
  0
VERTEX
  5
835
  8
LARGER_ENDPLATE
 10
110.1054813668381
 20
100.3235220206788
 30
0.0
  0
VERTEX
  5
836
  8
LARGER_ENDPLATE
 10
110.6196329567503
 20
100.3712079673162
 30
0.0
  0
VERTEX
  5
837
  8
LARGER_ENDPLATE
 10
111.1503461329199
 20
100.3998195352986
 30
0.0
  0
VERTEX
  5
838
  8
LARGER_ENDPLATE
 10
111.6976208953468
 20
100.4093567246261
 30
0.0
  0
VERTEX
  5
839
  8
LARGER_ENDPLATE
 10
116.7122407783878
 20
100.4093567246261
 30
0.0
  0
VERTEX
  5
83A
  8
LARGER_ENDPLATE
 10
117.3415810561655
 20
100.414610745094
 30
0.0
  0
VERTEX
  5
83B
  8
LARGER_ENDPLATE
 10
117.9284322988556
 20
100.4303728064975
 30
0.0
  0
VERTEX
  5
83C
  8
LARGER_ENDPLATE
 10
118.4727945064579
 20
100.4566429088367
 30
0.0
  0
VERTEX
  5
83D
  8
LARGER_ENDPLATE
 10
118.9746676789726
 20
100.4934210521115
 30
0.0
  0
VERTEX
  5
83E
  8
LARGER_ENDPLATE
 10
119.4340518163995
 20
100.540707236322
 30
0.0
  0
VERTEX
  5
83F
  8
LARGER_ENDPLATE
 10
119.8509469187386
 20
100.5985014614682
 30
0.0
  0
VERTEX
  5
840
  8
LARGER_ENDPLATE
 10
120.2253529859901
 20
100.6668037275501
 30
0.0
  0
VERTEX
  5
841
  8
LARGER_ENDPLATE
 10
120.5572700181538
 20
100.7456140345677
 30
0.0
  0
VERTEX
  5
842
  8
LARGER_ENDPLATE
 10
120.2913708953468
 20
99.61511444575186
 30
0.0
  0
VERTEX
  5
843
  8
LARGER_ENDPLATE
 10
120.0784688485632
 20
98.66079586936297
 30
0.0
  0
VERTEX
  5
844
  8
LARGER_ENDPLATE
 10
119.918563877803
 20
97.88265830540098
 30
0.0
  0
SEQEND
  5
AC7
  8
LARGER_ENDPLATE
  0
POLYLINE
  5
81
  8
LARGER_ENDPLATE
 66
     1
 10
0.0
 20
0.0
 30
0.0
 70
     1
  0
VERTEX
  5
845
  8
LARGER_ENDPLATE
 10
133.8595361000252
 20
100.5265442246261
 30
0.0
  0
VERTEX
  5
846
  8
LARGER_ENDPLATE
 10
133.5906708827829
 20
99.90566320534616
 30
0.0
  0
VERTEX
  5
847
  8
LARGER_ENDPLATE
 10
133.3177009620501
 20
99.22677380247701
 30
0.0
  0
VERTEX
  5
848
  8
LARGER_ENDPLATE
 10
133.0406263378268
 20
98.48987601601867
 30
0.0
  0
VERTEX
  5
849
  8
LARGER_ENDPLATE
 10
132.7594470101129
 20
97.69496984597116
 30
0.0
  0
VERTEX
  5
84A
  8
LARGER_ENDPLATE
 10
132.4741629789086
 20
96.84205529233446
 30
0.0
  0
VERTEX
  5
84B
  8
LARGER_ENDPLATE
 10
132.1847742442138
 20
95.93113235510859
 30
0.0
  0
VERTEX
  5
84C
  8
LARGER_ENDPLATE
 10
131.8912808060285
 20
94.96220103429353
 30
0.0
  0
VERTEX
  5
84D
  8
LARGER_ENDPLATE
 10
131.5936826643527
 20
93.93526132988929
 30
0.0
  0
VERTEX
  5
84E
  8
LARGER_ENDPLATE
 10
129.4155485269258
 20
86.32104349363198
 30
0.0
  0
VERTEX
  5
84F
  8
LARGER_ENDPLATE
 10
129.2828042006968
 20
85.87148833641113
 30
0.0
  0
VERTEX
  5
850
  8
LARGER_ENDPLATE
 10
129.1436743835596
 20
85.4372508618246
 30
0.0
  0
VERTEX
  5
851
  8
LARGER_ENDPLATE
 10
128.9981590755141
 20
85.01833106987239
 30
0.0
  0
VERTEX
  5
852
  8
LARGER_ENDPLATE
 10
128.8462582765603
 20
84.61472896055449
 30
0.0
  0
VERTEX
  5
853
  8
LARGER_ENDPLATE
 10
128.6879719866983
 20
84.22644453387093
 30
0.0
  0
VERTEX
  5
854
  8
LARGER_ENDPLATE
 10
128.523300205928
 20
83.85347778982168
 30
0.0
  0
VERTEX
  5
855
  8
LARGER_ENDPLATE
 10
128.3522429342494
 20
83.49582872840675
 30
0.0
  0
VERTEX
  5
856
  8
LARGER_ENDPLATE
 10
128.1748001716626
 20
83.15349734962614
 30
0.0
  0
VERTEX
  5
857
  8
LARGER_ENDPLATE
 10
127.9909719181676
 20
82.82648365347985
 30
0.0
  0
VERTEX
  5
858
  8
LARGER_ENDPLATE
 10
127.8007581737642
 20
82.51478763996786
 30
0.0
  0
VERTEX
  5
859
  8
LARGER_ENDPLATE
 10
127.6041589384527
 20
82.21840930909022
 30
0.0
  0
VERTEX
  5
85A
  8
LARGER_ENDPLATE
 10
127.4011742122328
 20
81.93734866084688
 30
0.0
  0
VERTEX
  5
85B
  8
LARGER_ENDPLATE
 10
127.1918039951047
 20
81.67160569523787
 30
0.0
  0
VERTEX
  5
85C
  8
LARGER_ENDPLATE
 10
126.9760482870683
 20
81.42118041226318
 30
0.0
  0
VERTEX
  5
85D
  8
LARGER_ENDPLATE
 10
126.7539070881237
 20
81.18607281192283
 30
0.0
  0
VERTEX
  5
85E
  8
LARGER_ENDPLATE
 10
126.5253803982708
 20
80.96628289421677
 30
0.0
  0
VERTEX
  5
85F
  8
LARGER_ENDPLATE
 10
126.2905217571204
 20
80.75898287537083
 30
0.0
  0
VERTEX
  5
860
  8
LARGER_ENDPLATE
 10
126.0530396750435
 20
80.56505705128914
 30
0.0
  0
VERTEX
  5
861
  8
LARGER_ENDPLATE
 10
125.81293415204
 20
80.38450542197172
 30
0.0
  0
VERTEX
  5
862
  8
LARGER_ENDPLATE
 10
125.57020518811
 20
80.21732798741853
 30
0.0
  0
VERTEX
  5
863
  8
LARGER_ENDPLATE
 10
125.3248527832534
 20
80.0635247476296
 30
0.0
  0
VERTEX
  5
864
  8
LARGER_ENDPLATE
 10
125.0768769374704
 20
79.92309570260494
 30
0.0
  0
VERTEX
  5
865
  8
LARGER_ENDPLATE
 10
124.8262776507608
 20
79.79604085234453
 30
0.0
  0
VERTEX
  5
866
  8
LARGER_ENDPLATE
 10
124.5730549231246
 20
79.68236019684835
 30
0.0
  0
VERTEX
  5
867
  8
LARGER_ENDPLATE
 10
124.3172087545619
 20
79.58205373611645
 30
0.0
  0
VERTEX
  5
868
  8
LARGER_ENDPLATE
 10
124.0587391450727
 20
79.4951214701488
 30
0.0
  0
VERTEX
  5
869
  8
LARGER_ENDPLATE
 10
123.797646094657
 20
79.42156339894541
 30
0.0
  0
VERTEX
  5
86A
  8
LARGER_ENDPLATE
 10
123.5339296033147
 20
79.36137952250625
 30
0.0
  0
VERTEX
  5
86B
  8
LARGER_ENDPLATE
 10
123.2675896710459
 20
79.31456984083137
 30
0.0
  0
VERTEX
  5
86C
  8
LARGER_ENDPLATE
 10
122.9986262978505
 20
79.28113435392073
 30
0.0
  0
VERTEX
  5
86D
  8
LARGER_ENDPLATE
 10
122.7270394837286
 20
79.26107306177435
 30
0.0
  0
VERTEX
  5
86E
  8
LARGER_ENDPLATE
 10
122.4528292286802
 20
79.25438596439221
 30
0.0
  0
VERTEX
  5
86F
  8
LARGER_ENDPLATE
 10
122.0967979558366
 20
79.26466556965538
 30
0.0
  0
VERTEX
  5
870
  8
LARGER_ENDPLATE
 10
121.7585561109901
 20
79.29550438544484
 30
0.0
  0
VERTEX
  5
871
  8
LARGER_ENDPLATE
 10
121.4381036941407
 20
79.34690241176064
 30
0.0
  0
VERTEX
  5
872
  8
LARGER_ENDPLATE
 10
121.1354407052883
 20
79.41885964860273
 30
0.0
  0
VERTEX
  5
873
  8
LARGER_ENDPLATE
 10
120.8505671444331
 20
79.51137609597117
 30
0.0
  0
VERTEX
  5
874
  8
LARGER_ENDPLATE
 10
120.5834830115749
 20
79.62445175386591
 30
0.0
  0
VERTEX
  5
875
  8
LARGER_ENDPLATE
 10
120.3341883067138
 20
79.75808662228697
 30
0.0
  0
VERTEX
  5
876
  8
LARGER_ENDPLATE
 10
120.1026830298497
 20
79.91228070123432
 30
0.0
  0
VERTEX
  5
877
  8
LARGER_ENDPLATE
 10
119.8939856271633
 20
80.07881030649747
 30
0.0
  0
VERTEX
  5
878
  8
LARGER_ENDPLATE
 10
119.7131145448351
 20
80.2494517538659
 30
0.0
  0
VERTEX
  5
879
  8
LARGER_ENDPLATE
 10
119.5600697828651
 20
80.42420504333958
 30
0.0
  0
VERTEX
  5
87A
  8
LARGER_ENDPLATE
 10
119.4348513412532
 20
80.60307017491853
 30
0.0
  0
VERTEX
  5
87B
  8
LARGER_ENDPLATE
 10
119.3374592199996
 20
80.78604714860273
 30
0.0
  0
VERTEX
  5
87C
  8
LARGER_ENDPLATE
 10
119.2678934191041
 20
80.97313596439221
 30
0.0
  0
VERTEX
  5
87D
  8
LARGER_ENDPLATE
 10
119.2261539385669
 20
81.16433662228695
 30
0.0
  0
VERTEX
  5
87E
  8
LARGER_ENDPLATE
 10
119.2122407783878
 20
81.35964912228695
 30
0.0
  0
VERTEX
  5
87F
  8
LARGER_ENDPLATE
 10
119.216352620493
 20
81.44965277725771
 30
0.0
  0
VERTEX
  5
880
  8
LARGER_ENDPLATE
 10
119.2286881468088
 20
81.53691520415829
 30
0.0
  0
VERTEX
  5
881
  8
LARGER_ENDPLATE
 10
119.2492473573352
 20
81.6214364029887
 30
0.0
  0
VERTEX
  5
882
  8
LARGER_ENDPLATE
 10
119.278030252072
 20
81.70321637374894
 30
0.0
  0
VERTEX
  5
883
  8
LARGER_ENDPLATE
 10
119.3150368310193
 20
81.78225511643902
 30
0.0
  0
VERTEX
  5
884
  8
LARGER_ENDPLATE
 10
119.3602670941772
 20
81.85855263105888
 30
0.0
  0
VERTEX
  5
885
  8
LARGER_ENDPLATE
 10
119.4137210415457
 20
81.9321089176086
 30
0.0
  0
VERTEX
  5
886
  8
LARGER_ENDPLATE
 10
119.4753986731246
 20
82.00292397608813
 30
0.0
  0
VERTEX
  5
887
  8
LARGER_ENDPLATE
 10
119.5423303251714
 20
82.06802814275478
 30
0.0
  0
VERTEX
  5
888
  8
LARGER_ENDPLATE
 10
119.6115463339433
 20
82.12445175386591
 30
0.0
  0
VERTEX
  5
889
  8
LARGER_ENDPLATE
 10
119.6830466994404
 20
82.17219480942146
 30
0.0
  0
VERTEX
  5
88A
  8
LARGER_ENDPLATE
 10
119.7568314216626
 20
82.21125730942146
 30
0.0
  0
VERTEX
  5
88B
  8
LARGER_ENDPLATE
 10
119.83290050061
 20
82.2416392538659
 30
0.0
  0
VERTEX
  5
88C
  8
LARGER_ENDPLATE
 10
119.9112539362825
 20
82.2633406427548
 30
0.0
  0
VERTEX
  5
88D
  8
LARGER_ENDPLATE
 10
119.9918917286801
 20
82.27636147608813
 30
0.0
  0
VERTEX
  5
88E
  8
LARGER_ENDPLATE
 10
120.074813877803
 20
82.2807017538659
 30
0.0
  0
VERTEX
  5
88F
  8
LARGER_ENDPLATE
 10
120.2002250620135
 20
82.27133589129281
 30
0.0
  0
VERTEX
  5
890
  8
LARGER_ENDPLATE
 10
120.3279206029492
 20
82.2432383035735
 30
0.0
  0
VERTEX
  5
891
  8
LARGER_ENDPLATE
 10
120.45790050061
 20
82.19640899070801
 30
0.0
  0
VERTEX
  5
892
  8
LARGER_ENDPLATE
 10
120.590164754996
 20
82.13084795269631
 30
0.0
  0
VERTEX
  5
893
  8
LARGER_ENDPLATE
 10
120.7247133661071
 20
82.04655518953841
 30
0.0
  0
VERTEX
  5
894
  8
LARGER_ENDPLATE
 10
120.8615463339433
 20
81.94353070123432
 30
0.0
  0
VERTEX
  5
895
  8
LARGER_ENDPLATE
 10
121.0006636585047
 20
81.82177448778403
 30
0.0
  0
VERTEX
  5
896
  8
LARGER_ENDPLATE
 10
121.1420653397913
 20
81.68128654918753
 30
0.0
  0
VERTEX
  5
897
  8
LARGER_ENDPLATE
 10
121.5084761585047
 20
81.31578947316413
 30
0.0
  0
VERTEX
  5
898
  8
LARGER_ENDPLATE
 10
121.8328548134755
 20
81.02339181234544
 30
0.0
  0
VERTEX
  5
899
  8
LARGER_ENDPLATE
 10
121.9792820795574
 20
80.90460526263783
 30
0.0
  0
VERTEX
  5
89A
  8
LARGER_ENDPLATE
 10
122.1152013047035
 20
80.80409356673138
 30
0.0
  0
VERTEX
  5
89B
  8
LARGER_ENDPLATE
 10
122.2406124889141
 20
80.72185672462612
 30
0.0
  0
VERTEX
  5
89C
  8
LARGER_ENDPLATE
 10
122.3555156321889
 20
80.65789473632204
 30
0.0
  0
VERTEX
  5
89D
  8
LARGER_ENDPLATE
 10
122.6552232345281
 20
80.52357456088343
 30
0.0
  0
VERTEX
  5
89E
  8
LARGER_ENDPLATE
 10
122.7995945795574
 20
80.47080592053257
 30
0.0
  0
VERTEX
  5
89F
  8
LARGER_ENDPLATE
 10
122.9403109538264
 20
80.42763157842731
 30
0.0
  0
VERTEX
  5
8A0
  8
LARGER_ENDPLATE
 10
123.0773723573352
 20
80.39405153456767
 30
0.0
  0
VERTEX
  5
8A1
  8
LARGER_ENDPLATE
 10
123.2107787900837
 20
80.37006578895362
 30
0.0
  0
VERTEX
  5
8A2
  8
LARGER_ENDPLATE
 10
123.340530252072
 20
80.3556743415852
 30
0.0
  0
VERTEX
  5
8A3
  8
LARGER_ENDPLATE
 10
123.4666267433
 20
80.35087719246239
 30
0.0
  0
VERTEX
  5
8A4
  8
LARGER_ENDPLATE
 10
123.5959213339433
 20
80.35453573253001
 30
0.0
  0
VERTEX
  5
8A5
  8
LARGER_ENDPLATE
 10
123.7206472111363
 20
80.36551135273287
 30
0.0
  0
VERTEX
  5
8A6
  8
LARGER_ENDPLATE
 10
123.840804374879
 20
80.38380405307095
 30
0.0
  0
VERTEX
  5
8A7
  8
LARGER_ENDPLATE
 10
123.9563928251714
 20
80.40941383354426
 30
0.0
  0
VERTEX
  5
8A8
  8
LARGER_ENDPLATE
 10
124.0674125620135
 20
80.44234069415282
 30
0.0
  0
VERTEX
  5
8A9
  8
LARGER_ENDPLATE
 10
124.1738635854053
 20
80.48258463489661
 30
0.0
  0
VERTEX
  5
8AA
  8
LARGER_ENDPLATE
 10
124.2757458953468
 20
80.53014565577563
 30
0.0
  0
VERTEX
  5
8AB
  8
LARGER_ENDPLATE
 10
124.373059491838
 20
80.58502375678988
 30
0.0
  0
VERTEX
  5
8AC
  8
LARGER_ENDPLATE
 10
124.5277104421304
 20
80.68690963603879
 30
0.0
  0
VERTEX
  5
8AD
  8
LARGER_ENDPLATE
 10
124.6773358076275
 20
80.8022803585808
 30
0.0
  0
VERTEX
  5
8AE
  8
LARGER_ENDPLATE
 10
124.8219355883293
 20
80.93113592441597
 30
0.0
  0
VERTEX
  5
8AF
  8
LARGER_ENDPLATE
 10
124.9615097842357
 20
81.07347633354425
 30
0.0
  0
VERTEX
  5
8B0
  8
LARGER_ENDPLATE
 10
125.0960583953468
 20
81.22930158596569
 30
0.0
  0
VERTEX
  5
8B1
  8
LARGER_ENDPLATE
 10
125.2255814216626
 20
81.39861168168022
 30
0.0
  0
VERTEX
  5
8B2
  8
LARGER_ENDPLATE
 10
125.3500788631831
 20
81.58140662068791
 30
0.0
  0
VERTEX
  5
8B3
  8
LARGER_ENDPLATE
 10
125.4695507199082
 20
81.7776864029887
 30
0.0
  0
VERTEX
  5
8B4
  8
LARGER_ENDPLATE
 10
125.6020434099667
 20
82.03981633719923
 30
0.0
  0
VERTEX
  5
8B5
  8
LARGER_ENDPLATE
 10
125.7656033514872
 20
82.42016173193608
 30
0.0
  0
VERTEX
  5
8B6
  8
LARGER_ENDPLATE
 10
125.9602305444696
 20
82.91872258719923
 30
0.0
  0
VERTEX
  5
8B7
  8
LARGER_ENDPLATE
 10
126.1859249889141
 20
83.5354989029887
 30
0.0
  0
VERTEX
  5
8B8
  8
LARGER_ENDPLATE
 10
126.4426866848205
 20
84.27049067930449
 30
0.0
  0
VERTEX
  5
8B9
  8
LARGER_ENDPLATE
 10
126.7305156321889
 20
85.1236979161466
 30
0.0
  0
VERTEX
  5
8BA
  8
LARGER_ENDPLATE
 10
127.3993752813117
 20
87.18475877140976
 30
0.0
  0
VERTEX
  5
8BB
  8
LARGER_ENDPLATE
 10
128.0088416555807
 20
89.11950897700186
 30
0.0
  0
VERTEX
  5
8BC
  8
LARGER_ENDPLATE
 10
128.6091706029491
 20
91.09083744465536
 30
0.0
  0
VERTEX
  5
8BD
  8
LARGER_ENDPLATE
 10
129.200362123417
 20
93.0987441743703
 30
0.0
  0
VERTEX
  5
8BE
  8
LARGER_ENDPLATE
 10
129.7824162169842
 20
95.1432291661466
 30
0.0
  0
VERTEX
  5
8BF
  8
LARGER_ENDPLATE
 10
131.0543460415456
 20
99.59064327433373
 30
0.0
  0
VERTEX
  5
8C0
  8
LARGER_ENDPLATE
 10
130.3525916555807
 20
99.6198830404156
 30
0.0
  0
VERTEX
  5
8C1
  8
LARGER_ENDPLATE
 10
130.0651624706392
 20
99.61551420817877
 30
0.0
  0
VERTEX
  5
8C2
  8
LARGER_ENDPLATE
 10
129.7840152666919
 20
99.60240771146823
 30
0.0
  0
VERTEX
  5
8C3
  8
LARGER_ENDPLATE
 10
129.5091500437387
 20
99.58056355028403
 30
0.0
  0
VERTEX
  5
8C4
  8
LARGER_ENDPLATE
 10
129.2405668017796
 20
99.54998172462612
 30
0.0
  0
VERTEX
  5
8C5
  8
LARGER_ENDPLATE
 10
128.9782655408147
 20
99.51066223449455
 30
0.0
  0
VERTEX
  5
8C6
  8
LARGER_ENDPLATE
 10
128.7222462608439
 20
99.46260507988927
 30
0.0
  0
VERTEX
  5
8C7
  8
LARGER_ENDPLATE
 10
128.4725089618673
 20
99.40581026081033
 30
0.0
  0
VERTEX
  5
8C8
  8
LARGER_ENDPLATE
 10
128.2290536438849
 20
99.3402777772577
 30
0.0
  0
VERTEX
  5
8C9
  8
LARGER_ENDPLATE
 10
127.9918803068966
 20
99.2660076292314
 30
0.0
  0
VERTEX
  5
8CA
  8
LARGER_ENDPLATE
 10
127.7609889509024
 20
99.18299981673138
 30
0.0
  0
VERTEX
  5
8CB
  8
LARGER_ENDPLATE
 10
127.5363795759024
 20
99.0912543397577
 30
0.0
  0
VERTEX
  5
8CC
  8
LARGER_ENDPLATE
 10
127.3180521818965
 20
98.99077119831033
 30
0.0
  0
VERTEX
  5
8CD
  8
LARGER_ENDPLATE
 10
127.1060067688848
 20
98.88155039238929
 30
0.0
  0
VERTEX
  5
8CE
  8
LARGER_ENDPLATE
 10
126.9002433368673
 20
98.76359192199455
 30
0.0
  0
VERTEX
  5
8CF
  8
LARGER_ENDPLATE
 10
126.7007618858439
 20
98.63689578712614
 30
0.0
  0
VERTEX
  5
8D0
  8
LARGER_ENDPLATE
 10
126.5075624158147
 20
98.50146198778403
 30
0.0
  0
VERTEX
  5
8D1
  8
LARGER_ENDPLATE
 10
126.3234432637679
 20
98.361173930401
 30
0.0
  0
VERTEX
  5
8D2
  8
LARGER_ENDPLATE
 10
126.1512027666919
 20
98.21991502140976
 30
0.0
  0
VERTEX
  5
8D3
  8
LARGER_ENDPLATE
 10
125.9908409245866
 20
98.07768526081034
 30
0.0
  0
VERTEX
  5
8D4
  8
LARGER_ENDPLATE
 10
125.8423577374521
 20
97.93448464860275
 30
0.0
  0
VERTEX
  5
8D5
  8
LARGER_ENDPLATE
 10
125.7057532052883
 20
97.79031318478695
 30
0.0
  0
VERTEX
  5
8D6
  8
LARGER_ENDPLATE
 10
125.5810273280954
 20
97.64517086936299
 30
0.0
  0
VERTEX
  5
8D7
  8
LARGER_ENDPLATE
 10
125.4681801058732
 20
97.49905770233083
 30
0.0
  0
VERTEX
  5
8D8
  8
LARGER_ENDPLATE
 10
125.3672115386217
 20
97.35197368369047
 30
0.0
  0
VERTEX
  5
8D9
  8
LARGER_ENDPLATE
 10
125.278121626341
 20
97.20391881344193
 30
0.0
  0
VERTEX
  5
8DA
  8
LARGER_ENDPLATE
 10
125.200910369031
 20
97.05489309158521
 30
0.0
  0
VERTEX
  5
8DB
  8
LARGER_ENDPLATE
 10
125.1355777666919
 20
96.9048965181203
 30
0.0
  0
VERTEX
  5
8DC
  8
LARGER_ENDPLATE
 10
125.0821238193234
 20
96.7539290930472
 30
0.0
  0
VERTEX
  5
8DD
  8
LARGER_ENDPLATE
 10
125.0405485269258
 20
96.60199081636593
 30
0.0
  0
VERTEX
  5
8DE
  8
LARGER_ENDPLATE
 10
125.0108518894989
 20
96.44908168807645
 30
0.0
  0
VERTEX
  5
8DF
  8
LARGER_ENDPLATE
 10
124.9930339070427
 20
96.29520170817877
 30
0.0
  0
VERTEX
  5
8E0
  8
LARGER_ENDPLATE
 10
124.9870945795574
 20
96.14035087667291
 30
0.0
  0
VERTEX
  5
8E1
  8
LARGER_ENDPLATE
 10
124.9930339070427
 20
96.02864583281327
 30
0.0
  0
VERTEX
  5
8E2
  8
LARGER_ENDPLATE
 10
125.0108518894989
 20
95.91282894684835
 30
0.0
  0
VERTEX
  5
8E3
  8
LARGER_ENDPLATE
 10
125.0405485269258
 20
95.79290021877819
 30
0.0
  0
VERTEX
  5
8E4
  8
LARGER_ENDPLATE
 10
125.0821238193234
 20
95.66885964860273
 30
0.0
  0
VERTEX
  5
8E5
  8
LARGER_ENDPLATE
 10
125.1355777666919
 20
95.54070723632205
 30
0.0
  0
VERTEX
  5
8E6
  8
LARGER_ENDPLATE
 10
125.200910369031
 20
95.40844298193608
 30
0.0
  0
VERTEX
  5
8E7
  8
LARGER_ENDPLATE
 10
125.278121626341
 20
95.27206688544484
 30
0.0
  0
VERTEX
  5
8E8
  8
LARGER_ENDPLATE
 10
125.3672115386217
 20
95.13157894684835
 30
0.0
  0
VERTEX
  5
8E9
  8
LARGER_ENDPLATE
 10
125.5207203105515
 20
94.88212719246238
 30
0.0
  0
VERTEX
  5
8EA
  8
LARGER_ENDPLATE
 10
125.6303694333585
 20
94.66008771877817
 30
0.0
  0
VERTEX
  5
8EB
  8
LARGER_ENDPLATE
 10
125.668746626341
 20
94.55934758719923
 30
0.0
  0
VERTEX
  5
8EC
  8
LARGER_ENDPLATE
 10
125.6961589070427
 20
94.46546052579572
 30
0.0
  0
VERTEX
  5
8ED
  8
LARGER_ENDPLATE
 10
125.7126062754638
 20
94.37842653456767
 30
0.0
  0
VERTEX
  5
8EE
  8
LARGER_ENDPLATE
 10
125.7180887316041
 20
94.29824561351502
 30
0.0
  0
VERTEX
  5
8EF
  8
LARGER_ENDPLATE
 10
125.7136342359901
 20
94.20470120562028
 30
0.0
  0
VERTEX
  5
8F0
  8
LARGER_ENDPLATE
 10
125.700270749148
 20
94.11412646146825
 30
0.0
  0
VERTEX
  5
8F1
  8
LARGER_ENDPLATE
 10
125.6779982710778
 20
94.02652138105887
 30
0.0
  0
VERTEX
  5
8F2
  8
LARGER_ENDPLATE
 10
125.6468168017796
 20
93.94188596439221
 30
0.0
  0
VERTEX
  5
8F3
  8
LARGER_ENDPLATE
 10
125.6067263412532
 20
93.86022021146823
 30
0.0
  0
VERTEX
  5
8F4
  8
LARGER_ENDPLATE
 10
125.5577268894989
 20
93.78152412228695
 30
0.0
  0
VERTEX
  5
8F5
  8
LARGER_ENDPLATE
 10
125.4998184465164
 20
93.70579769684835
 30
0.0
  0
VERTEX
  5
8F6
  8
LARGER_ENDPLATE
 10
125.4330010123059
 20
93.63304093515245
 30
0.0
  0
VERTEX
  5
8F7
  8
LARGER_ENDPLATE
 10
125.3600158149375
 20
93.56622350094193
 30
0.0
  0
VERTEX
  5
8F8
  8
LARGER_ENDPLATE
 10
125.2836040824813
 20
93.50831505795946
 30
0.0
  0
VERTEX
  5
8F9
  8
LARGER_ENDPLATE
 10
125.2037658149375
 20
93.45931560620508
 30
0.0
  0
VERTEX
  5
8FA
  8
LARGER_ENDPLATE
 10
125.1205010123059
 20
93.41922514567875
 30
0.0
  0
VERTEX
  5
8FB
  8
LARGER_ENDPLATE
 10
125.0338096745866
 20
93.38804367638052
 30
0.0
  0
VERTEX
  5
8FC
  8
LARGER_ENDPLATE
 10
124.9436918017796
 20
93.36577119831034
 30
0.0
  0
VERTEX
  5
8FD
  8
LARGER_ENDPLATE
 10
124.8501473938848
 20
93.35240771146825
 30
0.0
  0
VERTEX
  5
8FE
  8
LARGER_ENDPLATE
 10
124.7531764509024
 20
93.3479532158542
 30
0.0
  0
VERTEX
  5
8FF
  8
LARGER_ENDPLATE
 10
124.6281079202006
 20
93.35502044447263
 30
0.0
  0
VERTEX
  5
900
  8
LARGER_ENDPLATE
 10
124.5087502813117
 20
93.37622213032789
 30
0.0
  0
VERTEX
  5
901
  8
LARGER_ENDPLATE
 10
124.3951035342357
 20
93.41155827341998
 30
0.0
  0
VERTEX
  5
902
  8
LARGER_ENDPLATE
 10
124.2871676789726
 20
93.46102887374893
 30
0.0
  0
VERTEX
  5
903
  8
LARGER_ENDPLATE
 10
124.1849427155223
 20
93.52463393131472
 30
0.0
  0
VERTEX
  5
904
  8
LARGER_ENDPLATE
 10
124.0884286438848
 20
93.60237344611735
 30
0.0
  0
VERTEX
  5
905
  8
LARGER_ENDPLATE
 10
123.9976254640603
 20
93.69424741815683
 30
0.0
  0
VERTEX
  5
906
  8
LARGER_ENDPLATE
 10
123.9125331760486
 20
93.80025584743315
 30
0.0
  0
VERTEX
  5
907
  8
LARGER_ENDPLATE
 10
123.8354361365749
 20
93.91994186260128
 30
0.0
  0
VERTEX
  5
908
  8
LARGER_ENDPLATE
 10
123.7686187023644
 20
94.0528485923162
 30
0.0
  0
VERTEX
  5
909
  8
LARGER_ENDPLATE
 10
123.712080873417
 20
94.19897603657789
 30
0.0
  0
VERTEX
  5
90A
  8
LARGER_ENDPLATE
 10
123.6658226497328
 20
94.35832419538636
 30
0.0
  0
VERTEX
  5
90B
  8
LARGER_ENDPLATE
 10
123.6298440313117
 20
94.53089306874162
 30
0.0
  0
VERTEX
  5
90C
  8
LARGER_ENDPLATE
 10
123.6041450181538
 20
94.71668265664367
 30
0.0
  0
VERTEX
  5
90D
  8
LARGER_ENDPLATE
 10
123.5887256102591
 20
94.9156929590925
 30
0.0
  0
VERTEX
  5
90E
  8
LARGER_ENDPLATE
 10
123.5835858076275
 20
95.12792397608811
 30
0.0
  0
VERTEX
  5
90F
  8
LARGER_ENDPLATE
 10
123.588118828004
 20
95.3311473997392
 30
0.0
  0
VERTEX
  5
910
  8
LARGER_ENDPLATE
 10
123.6017178891334
 20
95.53226047040008
 30
0.0
  0
VERTEX
  5
911
  8
LARGER_ENDPLATE
 10
123.6243829910157
 20
95.7312631880707
 30
0.0
  0
VERTEX
  5
912
  8
LARGER_ENDPLATE
 10
123.6561141336509
 20
95.92815555275112
 30
0.0
  0
VERTEX
  5
913
  8
LARGER_ENDPLATE
 10
123.6969113170391
 20
96.12293756444132
 30
0.0
  0
VERTEX
  5
914
  8
LARGER_ENDPLATE
 10
123.7467745411802
 20
96.31560922314131
 30
0.0
  0
VERTEX
  5
915
  8
LARGER_ENDPLATE
 10
123.8057038060742
 20
96.50617052885104
 30
0.0
  0
VERTEX
  5
916
  8
LARGER_ENDPLATE
 10
123.8736991117211
 20
96.69462148157058
 30
0.0
  0
VERTEX
  5
917
  8
LARGER_ENDPLATE
 10
123.950760458121
 20
96.88096208129987
 30
0.0
  0
VERTEX
  5
918
  8
LARGER_ENDPLATE
 10
124.0368878452737
 20
97.06519232803896
 30
0.0
  0
VERTEX
  5
919
  8
LARGER_ENDPLATE
 10
124.1320812731794
 20
97.24731222178781
 30
0.0
  0
VERTEX
  5
91A
  8
LARGER_ENDPLATE
 10
124.236340741838
 20
97.42732176254646
 30
0.0
  0
VERTEX
  5
91B
  8
LARGER_ENDPLATE
 10
124.3496662512496
 20
97.60522095031487
 30
0.0
  0
VERTEX
  5
91C
  8
LARGER_ENDPLATE
 10
124.4720578014141
 20
97.78100978509306
 30
0.0
  0
VERTEX
  5
91D
  8
LARGER_ENDPLATE
 10
124.6035153923315
 20
97.95468826688102
 30
0.0
  0
VERTEX
  5
91E
  8
LARGER_ENDPLATE
 10
124.7440390240018
 20
98.12625639567877
 30
0.0
  0
VERTEX
  5
91F
  8
LARGER_ENDPLATE
 10
124.8922598670436
 20
98.29389204006725
 30
0.0
  0
VERTEX
  5
920
  8
LARGER_ENDPLATE
 10
125.0468090920756
 20
98.45577306862742
 30
0.0
  0
VERTEX
  5
921
  8
LARGER_ENDPLATE
 10
125.2076866990977
 20
98.61189948135927
 30
0.0
  0
VERTEX
  5
922
  8
LARGER_ENDPLATE
 10
125.37489268811
 20
98.76227127826283
 30
0.0
  0
VERTEX
  5
923
  8
LARGER_ENDPLATE
 10
125.5484270591124
 20
98.90688845933808
 30
0.0
  0
VERTEX
  5
924
  8
LARGER_ENDPLATE
 10
125.7282898121049
 20
99.04575102458503
 30
0.0
  0
VERTEX
  5
925
  8
LARGER_ENDPLATE
 10
125.9144809470875
 20
99.17885897400365
 30
0.0
  0
VERTEX
  5
926
  8
LARGER_ENDPLATE
 10
126.1070004640603
 20
99.30621230759397
 30
0.0
  0
VERTEX
  5
927
  8
LARGER_ENDPLATE
 10
126.3058483630232
 20
99.42781102535598
 30
0.0
  0
VERTEX
  5
928
  8
LARGER_ENDPLATE
 10
126.5110246439762
 20
99.5436551272897
 30
0.0
  0
VERTEX
  5
929
  8
LARGER_ENDPLATE
 10
126.7225293069194
 20
99.65374461339509
 30
0.0
  0
VERTEX
  5
92A
  8
LARGER_ENDPLATE
 10
126.9403623518527
 20
99.75807948367219
 30
0.0
  0
VERTEX
  5
92B
  8
LARGER_ENDPLATE
 10
127.1645237787761
 20
99.85665973812097
 30
0.0
  0
VERTEX
  5
92C
  8
LARGER_ENDPLATE
 10
127.3950135876896
 20
99.94948537674145
 30
0.0
  0
VERTEX
  5
92D
  8
LARGER_ENDPLATE
 10
127.6318317785933
 20
100.0365563995336
 30
0.0
  0
VERTEX
  5
92E
  8
LARGER_ENDPLATE
 10
127.8749783514872
 20
100.1178728064975
 30
0.0
  0
VERTEX
  5
92F
  8
LARGER_ENDPLATE
 10
128.2246205641151
 20
100.2170281655984
 30
0.0
  0
VERTEX
  5
930
  8
LARGER_ENDPLATE
 10
128.6166804256831
 20
100.3029628101525
 30
0.0
  0
VERTEX
  5
931
  8
LARGER_ENDPLATE
 10
129.0511579361911
 20
100.3756767401598
 30
0.0
  0
VERTEX
  5
932
  8
LARGER_ENDPLATE
 10
129.5280530956392
 20
100.4351699556203
 30
0.0
  0
VERTEX
  5
933
  8
LARGER_ENDPLATE
 10
130.0473659040274
 20
100.481442456534
 30
0.0
  0
VERTEX
  5
934
  8
LARGER_ENDPLATE
 10
130.6090963613556
 20
100.514494242901
 30
0.0
  0
VERTEX
  5
935
  8
LARGER_ENDPLATE
 10
131.2132444676239
 20
100.5343253147212
 30
0.0
  0
VERTEX
  5
936
  8
LARGER_ENDPLATE
 10
131.8598102228322
 20
100.5409356719946
 30
0.0
  0
SEQEND
  5
AC8
  8
LARGER_ENDPLATE
  0
POLYLINE
  5
82
  8
LARGER_ENDPLATE
 66
     1
 10
0.0
 20
0.0
 30
0.0
 70
     1
  0
VERTEX
  5
937
  8
LARGER_ENDPLATE
 10
154.2317948717948
 20
153.0758446882082
 30
0.0
  0
VERTEX
  5
938
  8
LARGER_ENDPLATE
 10
154.2130266992781
 20
153.8180920556147
 30
0.0
  0
VERTEX
  5
939
  8
LARGER_ENDPLATE
 10
154.1514050793692
 20
154.6284650967123
 30
0.0
  0
VERTEX
  5
93A
  8
LARGER_ENDPLATE
 10
154.0496748942918
 20
155.4290460534585
 30
0.0
  0
VERTEX
  5
93B
  8
LARGER_ENDPLATE
 10
153.9087529814744
 20
156.2181644716634
 30
0.0
  0
VERTEX
  5
93C
  8
LARGER_ENDPLATE
 10
153.7296338797842
 20
156.9942482495094
 30
0.0
  0
VERTEX
  5
93D
  8
LARGER_ENDPLATE
 10
153.5133694194303
 20
157.7558283910093
 30
0.0
  0
VERTEX
  5
93E
  8
LARGER_ENDPLATE
 10
153.2610489322796
 20
158.5015391420297
 30
0.0
  0
VERTEX
  5
93F
  8
LARGER_ENDPLATE
 10
152.9737809627815
 20
159.2301140493278
 30
0.0
  0
VERTEX
  5
940
  8
LARGER_ENDPLATE
 10
152.6526771542369
 20
159.9403786173534
 30
0.0
  0
VERTEX
  5
941
  8
LARGER_ENDPLATE
 10
152.2988387735515
 20
160.6312403081247
 30
0.0
  0
VERTEX
  5
942
  8
LARGER_ENDPLATE
 10
151.9133461447884
 20
161.3016766329429
 30
0.0
  0
VERTEX
  5
943
  8
LARGER_ENDPLATE
 10
151.4972510974492
 20
161.9507220451123
 30
0.0
  0
VERTEX
  5
944
  8
LARGER_ENDPLATE
 10
151.0515724075878
 20
162.5774542740951
 30
0.0
  0
VERTEX
  5
945
  8
LARGER_ENDPLATE
 10
150.5772941178249
 20
163.180980658482
 30
0.0
  0
VERTEX
  5
946
  8
LARGER_ENDPLATE
 10
150.0753665623676
 20
163.7604249529945
 30
0.0
  0
VERTEX
  5
947
  8
LARGER_ENDPLATE
 10
149.5467098850993
 20
164.3149150125541
 30
0.0
  0
VERTEX
  5
948
  8
LARGER_ENDPLATE
 10
148.9922198255756
 20
164.8435716898034
 30
0.0
  0
VERTEX
  5
949
  8
LARGER_ENDPLATE
 10
148.4127755309634
 20
165.3454992453499
 30
0.0
  0
VERTEX
  5
94A
  8
LARGER_ENDPLATE
 10
147.8092491466416
 20
165.8197775350659
 30
0.0
  0
VERTEX
  5
94B
  8
LARGER_ENDPLATE
 10
147.1825169174124
 20
166.2654562251023
 30
0.0
  0
VERTEX
  5
94C
  8
LARGER_ENDPLATE
 10
146.533471505186
 20
166.681551272462
 30
0.0
  0
VERTEX
  5
94D
  8
LARGER_ENDPLATE
 10
145.8630351803842
 20
167.0670439012131
 30
0.0
  0
VERTEX
  5
94E
  8
LARGER_ENDPLATE
 10
145.1721734898103
 20
167.4208822817852
 30
0.0
  0
VERTEX
  5
94F
  8
LARGER_ENDPLATE
 10
144.4619089215873
 20
167.7419860904176
 30
0.0
  0
VERTEX
  5
950
  8
LARGER_ENDPLATE
 10
143.7333340144448
 20
168.0292540598457
 30
0.0
  0
VERTEX
  5
951
  8
LARGER_ENDPLATE
 10
142.9876232634167
 20
168.2815745469943
 30
0.0
  0
VERTEX
  5
952
  8
LARGER_ENDPLATE
 10
142.2260431219617
 20
168.497839007335
 30
0.0
  0
VERTEX
  5
953
  8
LARGER_ENDPLATE
 10
141.4499593441717
 20
168.6769581090163
 30
0.0
  0
VERTEX
  5
954
  8
LARGER_ENDPLATE
 10
140.6608409260991
 20
168.8178800218152
 30
0.0
  0
VERTEX
  5
955
  8
LARGER_ENDPLATE
 10
139.8602599691601
 20
168.9196102069243
 30
0.0
  0
VERTEX
  5
956
  8
LARGER_ENDPLATE
 10
139.0498869280093
 20
168.9812318268325
 30
0.0
  0
VERTEX
  5
957
  8
LARGER_ENDPLATE
 10
138.3076395605833
 20
168.9999999993478
 30
0.0
  0
VERTEX
  5
958
  8
LARGER_ENDPLATE
 10
124.9220915622363
 20
168.9999999993479
 30
0.0
  0
VERTEX
  5
959
  8
LARGER_ENDPLATE
 10
120.9809654655631
 20
168.9999999993481
 30
0.0
  0
VERTEX
  5
95A
  8
LARGER_ENDPLATE
 10
120.0051840488407
 20
168.9671949147166
 30
0.0
  0
VERTEX
  5
95B
  8
LARGER_ENDPLATE
 10
118.9402855093839
 20
168.859595986759
 30
0.0
  0
VERTEX
  5
95C
  8
LARGER_ENDPLATE
 10
117.8914435090586
 20
168.6823278118241
 30
0.0
  0
VERTEX
  5
95D
  8
LARGER_ENDPLATE
 10
116.8621249979195
 20
168.4371897146231
 30
0.0
  0
VERTEX
  5
95E
  8
LARGER_ENDPLATE
 10
115.8555825562338
 20
168.1260114416064
 30
0.0
  0
VERTEX
  5
95F
  8
LARGER_ENDPLATE
 10
114.8748941697298
 20
167.7506111264086
 30
0.0
  0
VERTEX
  5
960
  8
LARGER_ENDPLATE
 10
113.9230103348835
 20
167.3127683047696
 30
0.0
  0
VERTEX
  5
961
  8
LARGER_ENDPLATE
 10
113.002804165054
 20
166.8142124399104
 30
0.0
  0
VERTEX
  5
962
  8
LARGER_ENDPLATE
 10
112.1171206173204
 20
166.2566265732933
 30
0.0
  0
VERTEX
  5
963
  8
LARGER_ENDPLATE
 10
111.2688214003168
 20
165.6416651030287
 30
0.0
  0
VERTEX
  5
964
  8
LARGER_ENDPLATE
 10
110.4608224867435
 20
164.9709842075166
 30
0.0
  0
VERTEX
  5
965
  8
LARGER_ENDPLATE
 10
109.6961214300915
 20
164.2462829597588
 30
0.0
  0
VERTEX
  5
966
  8
LARGER_ENDPLATE
 10
108.9778119302711
 20
163.4693526241905
 30
0.0
  0
VERTEX
  5
967
  8
LARGER_ENDPLATE
 10
108.3090834086866
 20
162.6421309416697
 30
0.0
  0
VERTEX
  5
968
  8
LARGER_ENDPLATE
 10
107.6932038740946
 20
161.7667574056259
 30
0.0
  0
VERTEX
  5
969
  8
LARGER_ENDPLATE
 10
107.1862044532296
 20
160.9323851061606
 30
0.0
  0
VERTEX
  5
96A
  8
LARGER_ENDPLATE
 10
84.23949727562079
 20
120.1404706398808
 30
0.0
  0
VERTEX
  5
96B
  8
LARGER_ENDPLATE
 10
83.80901171044277
 20
119.3141420090447
 30
0.0
  0
VERTEX
  5
96C
  8
LARGER_ENDPLATE
 10
83.39452861816689
 20
118.3761698518774
 30
0.0
  0
VERTEX
  5
96D
  8
LARGER_ENDPLATE
 10
83.04162464773295
 20
117.4155613029104
 30
0.0
  0
VERTEX
  5
96E
  8
LARGER_ENDPLATE
 10
82.75110005972356
 20
116.4353781341277
 30
0.0
  0
VERTEX
  5
96F
  8
LARGER_ENDPLATE
 10
82.52374506828068
 20
115.4386468320372
 30
0.0
  0
VERTEX
  5
970
  8
LARGER_ENDPLATE
 10
82.36035478187789
 20
114.4283926012317
 30
0.0
  0
VERTEX
  5
971
  8
LARGER_ENDPLATE
 10
82.26173285261727
 20
113.4076763250361
 30
0.0
  0
VERTEX
  5
972
  8
LARGER_ENDPLATE
 10
82.23179487211516
 20
112.4764188175022
 30
0.0
  0
VERTEX
  5
973
  8
LARGER_ENDPLATE
 10
82.23179487211524
 20
9.924155311014601
 30
0.0
  0
VERTEX
  5
974
  8
LARGER_ENDPLATE
 10
82.25056304463422
 20
9.181907943712758
 30
0.0
  0
VERTEX
  5
975
  8
LARGER_ENDPLATE
 10
82.31218466453885
 20
8.371534902627673
 30
0.0
  0
VERTEX
  5
976
  8
LARGER_ENDPLATE
 10
82.41391484963314
 20
7.570953945807332
 30
0.0
  0
VERTEX
  5
977
  8
LARGER_ENDPLATE
 10
82.55483676243979
 20
6.78183552766086
 30
0.0
  0
VERTEX
  5
978
  8
LARGER_ENDPLATE
 10
82.73395586413245
 20
6.005751749815317
 30
0.0
  0
VERTEX
  5
979
  8
LARGER_ENDPLATE
 10
82.95022032445696
 20
5.244171608406532
 30
0.0
  0
VERTEX
  5
97A
  8
LARGER_ENDPLATE
 10
83.20254081161666
 20
4.498460857354075
 30
0.0
  0
VERTEX
  5
97B
  8
LARGER_ENDPLATE
 10
83.4898087811227
 20
3.769885950025582
 30
0.0
  0
VERTEX
  5
97C
  8
LARGER_ENDPLATE
 10
83.81091258965667
 20
3.059621382026535
 30
0.0
  0
VERTEX
  5
97D
  8
LARGER_ENDPLATE
 10
84.16475097029304
 20
2.368759691336209
 30
0.0
  0
VERTEX
  5
97E
  8
LARGER_ENDPLATE
 10
84.55024359902184
 20
1.698323366570776
 30
0.0
  0
VERTEX
  5
97F
  8
LARGER_ENDPLATE
 10
84.96633864640815
 20
1.04927795431081
 30
0.0
  0
VERTEX
  5
980
  8
LARGER_ENDPLATE
 10
85.41201733635349
 20
0.4225457252161959
 30
0.0
  0
VERTEX
  5
981
  8
LARGER_ENDPLATE
 10
85.88629562605452
 20
-0.1809806590956669
 30
0.0
  0
VERTEX
  5
982
  8
LARGER_ENDPLATE
 10
86.38822318158311
 20
-0.760424953692791
 30
0.0
  0
VERTEX
  5
983
  8
LARGER_ENDPLATE
 10
86.91687985885774
 20
-1.314915013257632
 30
0.0
  0
VERTEX
  5
984
  8
LARGER_ENDPLATE
 10
87.47136991842179
 20
-1.843571690531689
 30
0.0
  0
VERTEX
  5
985
  8
LARGER_ENDPLATE
 10
88.05081421301948
 20
-2.345499246060854
 30
0.0
  0
VERTEX
  5
986
  8
LARGER_ENDPLATE
 10
88.6543405973318
 20
-2.819777535762114
 30
0.0
  0
VERTEX
  5
987
  8
LARGER_ENDPLATE
 10
89.28107282642482
 20
-3.2654562257066
 30
0.0
  0
VERTEX
  5
988
  8
LARGER_ENDPLATE
 10
89.93011823868672
 20
-3.68155127309376
 30
0.0
  0
VERTEX
  5
989
  8
LARGER_ENDPLATE
 10
90.60055456344953
 20
-4.067043901821251
 30
0.0
  0
VERTEX
  5
98A
  8
LARGER_ENDPLATE
 10
91.29141625414077
 20
-4.420882282458138
 30
0.0
  0
VERTEX
  5
98B
  8
LARGER_ENDPLATE
 10
92.00168082214334
 20
-4.741986090993748
 30
0.0
  0
VERTEX
  5
98C
  8
LARGER_ENDPLATE
 10
92.7302557294695
 20
-5.02925406049863
 30
0.0
  0
VERTEX
  5
98D
  8
LARGER_ENDPLATE
 10
93.47596648051861
 20
-5.281574547657371
 30
0.0
  0
VERTEX
  5
98E
  8
LARGER_ENDPLATE
 10
94.23754662192859
 20
-5.497839007982307
 30
0.0
  0
VERTEX
  5
98F
  8
LARGER_ENDPLATE
 10
95.01363039977777
 20
-5.676958109675837
 30
0.0
  0
VERTEX
  5
990
  8
LARGER_ENDPLATE
 10
95.80274881792313
 20
-5.817880022482271
 30
0.0
  0
VERTEX
  5
991
  8
LARGER_ENDPLATE
 10
96.60332977474538
 20
-5.919610207576806
 30
0.0
  0
VERTEX
  5
992
  8
LARGER_ENDPLATE
 10
97.41370281582293
 20
-5.98123182748057
 30
0.0
  0
VERTEX
  5
993
  8
LARGER_ENDPLATE
 10
98.15595018312133
 20
-5.999999999999998
 30
0.0
  0
VERTEX
  5
994
  8
LARGER_ENDPLATE
 10
124.9793331164449
 20
-6.0
 30
0.0
  0
VERTEX
  5
995
  8
LARGER_ENDPLATE
 10
138.3076395607813
 20
-6.0
 30
0.0
  0
VERTEX
  5
996
  8
LARGER_ENDPLATE
 10
139.0498869280844
 20
-5.981231827480821
 30
0.0
  0
VERTEX
  5
997
  8
LARGER_ENDPLATE
 10
139.8602599691688
 20
-5.919610207576291
 30
0.0
  0
VERTEX
  5
998
  8
LARGER_ENDPLATE
 10
140.6608409259841
 20
-5.817880022482683
 30
0.0
  0
VERTEX
  5
999
  8
LARGER_ENDPLATE
 10
141.449959344138
 20
-5.676958109674601
 30
0.0
  0
VERTEX
  5
99A
  8
LARGER_ENDPLATE
 10
142.2260431219821
 20
-5.497839007982009
 30
0.0
  0
VERTEX
  5
99B
  8
LARGER_ENDPLATE
 10
142.9876232633863
 20
-5.281574547658977
 30
0.0
  0
VERTEX
  5
99C
  8
LARGER_ENDPLATE
 10
143.7333340144381
 20
-5.029254060499511
 30
0.0
  0
VERTEX
  5
99D
  8
LARGER_ENDPLATE
 10
144.4619089217663
 20
-4.741986090993748
 30
0.0
  0
VERTEX
  5
99E
  8
LARGER_ENDPLATE
 10
145.1721734897662
 20
-4.420882282459615
 30
0.0
  0
VERTEX
  5
99F
  8
LARGER_ENDPLATE
 10
145.8630351804615
 20
-4.067043901820739
 30
0.0
  0
VERTEX
  5
9A0
  8
LARGER_ENDPLATE
 10
146.5334715052263
 20
-3.681551273091713
 30
0.0
  0
VERTEX
  5
9A1
  8
LARGER_ENDPLATE
 10
147.1825169174863
 20
-3.265456225705634
 30
0.0
  0
VERTEX
  5
9A2
  8
LARGER_ENDPLATE
 10
147.8092491465779
 20
-2.819777535762114
 30
0.0
  0
VERTEX
  5
9A3
  8
LARGER_ENDPLATE
 10
148.4127755308902
 20
-2.345499246060854
 30
0.0
  0
VERTEX
  5
9A4
  8
LARGER_ENDPLATE
 10
148.9922198254887
 20
-1.843571690531235
 30
0.0
  0
VERTEX
  5
9A5
  8
LARGER_ENDPLATE
 10
149.5467098850529
 20
-1.31491501325695
 30
0.0
  0
VERTEX
  5
9A6
  8
LARGER_ENDPLATE
 10
150.0753665623263
 20
-0.7604249536934731
 30
0.0
  0
VERTEX
  5
9A7
  8
LARGER_ENDPLATE
 10
150.5772941178561
 20
-0.1809806590949847
 30
0.0
  0
VERTEX
  5
9A8
  8
LARGER_ENDPLATE
 10
151.0515724075569
 20
0.4225457252168781
 30
0.0
  0
VERTEX
  5
9A9
  8
LARGER_ENDPLATE
 10
151.4972510975024
 20
1.049277954311492
 30
0.0
  0
VERTEX
  5
9AA
  8
LARGER_ENDPLATE
 10
151.9133461448873
 20
1.698323366570094
 30
0.0
  0
VERTEX
  5
9AB
  8
LARGER_ENDPLATE
 10
152.2988387736154
 20
2.368759691332798
 30
0.0
  0
VERTEX
  5
9AC
  8
LARGER_ENDPLATE
 10
152.6526771542524
 20
3.059621382024488
 30
0.0
  0
VERTEX
  5
9AD
  8
LARGER_ENDPLATE
 10
152.9737809627885
 20
3.769885950027401
 30
0.0
  0
VERTEX
  5
9AE
  8
LARGER_ENDPLATE
 10
153.2610489322934
 20
4.498460857354075
 30
0.0
  0
VERTEX
  5
9AF
  8
LARGER_ENDPLATE
 10
153.5133694194542
 20
5.244171608409488
 30
0.0
  0
VERTEX
  5
9B0
  8
LARGER_ENDPLATE
 10
153.7296338797769
 20
6.005751749812134
 30
0.0
  0
VERTEX
  5
9B1
  8
LARGER_ENDPLATE
 10
153.9087529814696
 20
6.781835527657222
 30
0.0
  0
VERTEX
  5
9B2
  8
LARGER_ENDPLATE
 10
154.0496748942759
 20
7.570953945800738
 30
0.0
  0
VERTEX
  5
9B3
  8
LARGER_ENDPLATE
 10
154.1514050793721
 20
8.371534902636995
 30
0.0
  0
VERTEX
  5
9B4
  8
LARGER_ENDPLATE
 10
154.2130266992756
 20
9.18190794371003
 30
0.0
  0
VERTEX
  5
9B5
  8
LARGER_ENDPLATE
 10
154.2317948717948
 20
9.924155311020513
 30
0.0
  0
SEQEND
  5
AC9
  8
LARGER_ENDPLATE
  0
POLYLINE
  5
83
  8
LARGER_ENDPLATE
 66
     1
 10
0.0
 20
0.0
 30
0.0
 70
     1
  0
VERTEX
  5
9B6
  8
LARGER_ENDPLATE
 10
68.95837535225535
 20
117.4155613029473
 30
0.0
  0
VERTEX
  5
9B7
  8
LARGER_ENDPLATE
 10
68.60547138183374
 20
118.376169851877
 30
0.0
  0
VERTEX
  5
9B8
  8
LARGER_ENDPLATE
 10
68.19098828957071
 20
119.3141420090139
 30
0.0
  0
VERTEX
  5
9B9
  8
LARGER_ENDPLATE
 10
67.7605027243532
 20
120.1404706399276
 30
0.0
  0
VERTEX
  5
9BA
  8
LARGER_ENDPLATE
 10
44.81379554678954
 20
160.9323851061272
 30
0.0
  0
VERTEX
  5
9BB
  8
LARGER_ENDPLATE
 10
44.30679612590158
 20
161.7667574056311
 30
0.0
  0
VERTEX
  5
9BC
  8
LARGER_ENDPLATE
 10
43.69091659132907
 20
162.6421309416494
 30
0.0
  0
VERTEX
  5
9BD
  8
LARGER_ENDPLATE
 10
43.02218806973148
 20
163.4693526241842
 30
0.0
  0
VERTEX
  5
9BE
  8
LARGER_ENDPLATE
 10
42.30387856989266
 20
164.2462829597805
 30
0.0
  0
VERTEX
  5
9BF
  8
LARGER_ENDPLATE
 10
41.53917751323586
 20
164.9709842075392
 30
0.0
  0
VERTEX
  5
9C0
  8
LARGER_ENDPLATE
 10
40.73117859969982
 20
165.6416651030154
 30
0.0
  0
VERTEX
  5
9C1
  8
LARGER_ENDPLATE
 10
39.88287938270575
 20
166.2566265732753
 30
0.0
  0
VERTEX
  5
9C2
  8
LARGER_ENDPLATE
 10
38.99719583489757
 20
166.8142124399369
 30
0.0
  0
VERTEX
  5
9C3
  8
LARGER_ENDPLATE
 10
38.07698966500463
 20
167.3127683048262
 30
0.0
  0
VERTEX
  5
9C4
  8
LARGER_ENDPLATE
 10
37.12510583019746
 20
167.7506111264387
 30
0.0
  0
VERTEX
  5
9C5
  8
LARGER_ENDPLATE
 10
36.14441744381627
 20
168.126011441588
 30
0.0
  0
VERTEX
  5
9C6
  8
LARGER_ENDPLATE
 10
35.13787500210326
 20
168.4371897146166
 30
0.0
  0
VERTEX
  5
9C7
  8
LARGER_ENDPLATE
 10
34.10855649100283
 20
168.6823278118131
 30
0.0
  0
VERTEX
  5
9C8
  8
LARGER_ENDPLATE
 10
33.05971449060932
 20
168.8595959867596
 30
0.0
  0
VERTEX
  5
9C9
  8
LARGER_ENDPLATE
 10
31.99481595115019
 20
168.967194914716
 30
0.0
  0
VERTEX
  5
9CA
  8
LARGER_ENDPLATE
 10
31.01903453435778
 20
168.9999999993481
 30
0.0
  0
VERTEX
  5
9CB
  8
LARGER_ENDPLATE
 10
27.07790843776372
 20
168.9999999993479
 30
0.0
  0
VERTEX
  5
9CC
  8
LARGER_ENDPLATE
 10
13.69236043923019
 20
168.9999999993479
 30
0.0
  0
VERTEX
  5
9CD
  8
LARGER_ENDPLATE
 10
12.95011307192562
 20
168.9812318268293
 30
0.0
  0
VERTEX
  5
9CE
  8
LARGER_ENDPLATE
 10
12.13974003084394
 20
168.9196102069255
 30
0.0
  0
VERTEX
  5
9CF
  8
LARGER_ENDPLATE
 10
11.33915907401632
 20
168.8178800218304
 30
0.0
  0
VERTEX
  5
9D0
  8
LARGER_ENDPLATE
 10
10.55004065586325
 20
168.6769581090231
 30
0.0
  0
VERTEX
  5
9D1
  8
LARGER_ENDPLATE
 10
9.773956878028171
 20
168.4978390073327
 30
0.0
  0
VERTEX
  5
9D2
  8
LARGER_ENDPLATE
 10
9.012376736601423
 20
168.2815745470028
 30
0.0
  0
VERTEX
  5
9D3
  8
LARGER_ENDPLATE
 10
8.266665985549194
 20
168.0292540598421
 30
0.0
  0
VERTEX
  5
9D4
  8
LARGER_ENDPLATE
 10
7.538091078234799
 20
167.7419860903419
 30
0.0
  0
VERTEX
  5
9D5
  8
LARGER_ENDPLATE
 10
6.827826510212788
 20
167.4208822817977
 30
0.0
  0
VERTEX
  5
9D6
  8
LARGER_ENDPLATE
 10
6.136964819529283
 20
167.0670439011633
 30
0.0
  0
VERTEX
  5
9D7
  8
LARGER_ENDPLATE
 10
5.466528494777038
 20
166.6815512724415
 30
0.0
  0
VERTEX
  5
9D8
  8
LARGER_ENDPLATE
 10
4.817483082512526
 20
166.2654562250527
 30
0.0
  0
VERTEX
  5
9D9
  8
LARGER_ENDPLATE
 10
4.190750853412001
 20
165.8197775351023
 30
0.0
  0
VERTEX
  5
9DA
  8
LARGER_ENDPLATE
 10
3.587224469106959
 20
165.3454992454067
 30
0.0
  0
VERTEX
  5
9DB
  8
LARGER_ENDPLATE
 10
3.007780174512792
 20
164.8435716898809
 30
0.0
  0
VERTEX
  5
9DC
  8
LARGER_ENDPLATE
 10
2.453290114952044
 20
164.3149150126094
 30
0.0
  0
VERTEX
  5
9DD
  8
LARGER_ENDPLATE
 10
1.92463343767776
 20
163.7604249530464
 30
0.0
  0
VERTEX
  5
9DE
  8
LARGER_ENDPLATE
 10
1.422705882146095
 20
163.1809806584461
 30
0.0
  0
VERTEX
  5
9DF
  8
LARGER_ENDPLATE
 10
0.9484275924400593
 20
162.5774542741274
 30
0.0
  0
VERTEX
  5
9E0
  8
LARGER_ENDPLATE
 10
0.5027489024944928
 20
161.9507220450321
 30
0.0
  0
VERTEX
  5
9E1
  8
LARGER_ENDPLATE
 10
0.0866538551130744
 20
161.3016766327787
 30
0.0
  0
VERTEX
  5
9E2
  8
LARGER_ENDPLATE
 10
-0.2988387736176563
 20
160.631240308011
 30
0.0
  0
VERTEX
  5
9E3
  8
LARGER_ENDPLATE
 10
-0.6526771542556233
 20
159.9403786173168
 30
0.0
  0
VERTEX
  5
9E4
  8
LARGER_ENDPLATE
 10
-0.9737809627892448
 20
159.2301140493182
 30
0.0
  0
VERTEX
  5
9E5
  8
LARGER_ENDPLATE
 10
-1.261048932293643
 20
158.501539141993
 30
0.0
  0
VERTEX
  5
9E6
  8
LARGER_ENDPLATE
 10
-1.513369419453592
 20
157.7558283909398
 30
0.0
  0
VERTEX
  5
9E7
  8
LARGER_ENDPLATE
 10
-1.729633879777136
 20
156.9942482495341
 30
0.0
  0
VERTEX
  5
9E8
  8
LARGER_ENDPLATE
 10
-1.908752981469799
 20
156.2181644716896
 30
0.0
  0
VERTEX
  5
9E9
  8
LARGER_ENDPLATE
 10
-2.04967489427678
 20
155.4290460535421
 30
0.0
  0
VERTEX
  5
9EA
  8
LARGER_ENDPLATE
 10
-2.151405079371617
 20
154.628465096717
 30
0.0
  0
VERTEX
  5
9EB
  8
LARGER_ENDPLATE
 10
-2.213026699275672
 20
153.8180920556385
 30
0.0
  0
VERTEX
  5
9EC
  8
LARGER_ENDPLATE
 10
-2.231794871794871
 20
153.0758446883365
 30
0.0
  0
VERTEX
  5
9ED
  8
LARGER_ENDPLATE
 10
-2.231794871794871
 20
9.924155311012981
 30
0.0
  0
VERTEX
  5
9EE
  8
LARGER_ENDPLATE
 10
-2.213026699275715
 20
9.18190794371074
 30
0.0
  0
VERTEX
  5
9EF
  8
LARGER_ENDPLATE
 10
-2.151405079371484
 20
8.37153490262888
 30
0.0
  0
VERTEX
  5
9F0
  8
LARGER_ENDPLATE
 10
-2.049674894276691
 20
7.570953945805286
 30
0.0
  0
VERTEX
  5
9F1
  8
LARGER_ENDPLATE
 10
-1.908752981470218
 20
6.781835527660576
 30
0.0
  0
VERTEX
  5
9F2
  8
LARGER_ENDPLATE
 10
-1.729633879777583
 20
6.005751749815175
 30
0.0
  0
VERTEX
  5
9F3
  8
LARGER_ENDPLATE
 10
-1.51336941945264
 20
5.244171608404884
 30
0.0
  0
VERTEX
  5
9F4
  8
LARGER_ENDPLATE
 10
-1.26104893229365
 20
4.498460857354985
 30
0.0
  0
VERTEX
  5
9F5
  8
LARGER_ENDPLATE
 10
-0.9737809627880866
 20
3.769885950026975
 30
0.0
  0
VERTEX
  5
9F6
  8
LARGER_ENDPLATE
 10
-0.652677154253307
 20
3.05962138202635
 30
0.0
  0
VERTEX
  5
9F7
  8
LARGER_ENDPLATE
 10
-0.2988387736161855
 20
2.368759691334276
 30
0.0
  0
VERTEX
  5
9F8
  8
LARGER_ENDPLATE
 10
0.0866538551117102
 20
1.698323366571316
 30
0.0
  0
VERTEX
  5
9F9
  8
LARGER_ENDPLATE
 10
0.5027489024976192
 20
1.049277954311179
 30
0.0
  0
VERTEX
  5
9FA
  8
LARGER_ENDPLATE
 10
0.9484275924428588
 20
0.4225457252168638
 30
0.0
  0
VERTEX
  5
9FB
  8
LARGER_ENDPLATE
 10
1.422705882143821
 20
-0.1809806590950842
 30
0.0
  0
VERTEX
  5
9FC
  8
LARGER_ENDPLATE
 10
1.924633437673312
 20
-0.7604249536933594
 30
0.0
  0
VERTEX
  5
9FD
  8
LARGER_ENDPLATE
 10
2.453290114947568
 20
-1.314915013257448
 30
0.0
  0
VERTEX
  5
9FE
  8
LARGER_ENDPLATE
 10
3.007780174511812
 20
-1.843571690531846
 30
0.0
  0
VERTEX
  5
9FF
  8
LARGER_ENDPLATE
 10
3.587224469110043
 20
-2.345499246061323
 30
0.0
  0
VERTEX
  5
A00
  8
LARGER_ENDPLATE
 10
4.190750853421991
 20
-2.819777535762249
 30
0.0
  0
VERTEX
  5
A01
  8
LARGER_ENDPLATE
 10
4.817483082516164
 20
-3.265456225707382
 30
0.0
  0
VERTEX
  5
A02
  8
LARGER_ENDPLATE
 10
5.466528494776257
 20
-3.681551273093312
 30
0.0
  0
VERTEX
  5
A03
  8
LARGER_ENDPLATE
 10
6.136964819539295
 20
-4.067043901821261
 30
0.0
  0
VERTEX
  5
A04
  8
LARGER_ENDPLATE
 10
6.827826510231137
 20
-4.420882282458258
 30
0.0
  0
VERTEX
  5
A05
  8
LARGER_ENDPLATE
 10
7.538091078232221
 20
-4.741986090993262
 30
0.0
  0
VERTEX
  5
A06
  8
LARGER_ENDPLATE
 10
8.266665985560032
 20
-5.029254060498743
 30
0.0
  0
VERTEX
  5
A07
  8
LARGER_ENDPLATE
 10
9.012376736610337
 20
-5.281574547657847
 30
0.0
  0
VERTEX
  5
A08
  8
LARGER_ENDPLATE
 10
9.773956878020199
 20
-5.497839007982682
 30
0.0
  0
VERTEX
  5
A09
  8
LARGER_ENDPLATE
 10
10.55004065586584
 20
-5.676958109675383
 30
0.0
  0
VERTEX
  5
A0A
  8
LARGER_ENDPLATE
 10
11.33915907401024
 20
-5.817880022481776
 30
0.0
  0
VERTEX
  5
A0B
  8
LARGER_ENDPLATE
 10
12.13974003083418
 20
-5.919610207576627
 30
0.0
  0
VERTEX
  5
A0C
  8
LARGER_ENDPLATE
 10
12.9501130719157
 20
-5.98123182748084
 30
0.0
  0
VERTEX
  5
A0D
  8
LARGER_ENDPLATE
 10
13.69236043921737
 20
-6.0
 30
0.0
  0
VERTEX
  5
A0E
  8
LARGER_ENDPLATE
 10
27.02066688355513
 20
-6.0
 30
0.0
  0
VERTEX
  5
A0F
  8
LARGER_ENDPLATE
 10
53.84404981687162
 20
-5.999999999999999
 30
0.0
  0
VERTEX
  5
A10
  8
LARGER_ENDPLATE
 10
54.58629718417608
 20
-5.981231827480779
 30
0.0
  0
VERTEX
  5
A11
  8
LARGER_ENDPLATE
 10
55.39667022525872
 20
-5.919610207576362
 30
0.0
  0
VERTEX
  5
A12
  8
LARGER_ENDPLATE
 10
56.19725118208048
 20
-5.817880022481653
 30
0.0
  0
VERTEX
  5
A13
  8
LARGER_ENDPLATE
 10
56.9863696002236
 20
-5.676958109675482
 30
0.0
  0
VERTEX
  5
A14
  8
LARGER_ENDPLATE
 10
57.76245337806965
 20
-5.497839007982748
 30
0.0
  0
VERTEX
  5
A15
  8
LARGER_ENDPLATE
 10
58.52403351948077
 20
-5.281574547657556
 30
0.0
  0
VERTEX
  5
A16
  8
LARGER_ENDPLATE
 10
59.26974427052851
 20
-5.029254060499284
 30
0.0
  0
VERTEX
  5
A17
  8
LARGER_ENDPLATE
 10
59.99831917785654
 20
-4.741986090993748
 30
0.0
  0
VERTEX
  5
A18
  8
LARGER_ENDPLATE
 10
60.70858374585707
 20
-4.420882282459161
 30
0.0
  0
VERTEX
  5
A19
  8
LARGER_ENDPLATE
 10
61.39944543655058
 20
-4.067043901821251
 30
0.0
  0
VERTEX
  5
A1A
  8
LARGER_ENDPLATE
 10
62.06988176131374
 20
-3.681551273093248
 30
0.0
  0
VERTEX
  5
A1B
  8
LARGER_ENDPLATE
 10
62.7189271735737
 20
-3.265456225707453
 30
0.0
  0
VERTEX
  5
A1C
  8
LARGER_ENDPLATE
 10
63.34565940266855
 20
-2.819777535761773
 30
0.0
  0
VERTEX
  5
A1D
  8
LARGER_ENDPLATE
 10
63.94918578697916
 20
-2.345499246061991
 30
0.0
  0
VERTEX
  5
A1E
  8
LARGER_ENDPLATE
 10
64.52863008157844
 20
-1.843571690531576
 30
0.0
  0
VERTEX
  5
A1F
  8
LARGER_ENDPLATE
 10
65.08312014114215
 20
-1.314915013257519
 30
0.0
  0
VERTEX
  5
A20
  8
LARGER_ENDPLATE
 10
65.61177681841598
 20
-0.7604249536940415
 30
0.0
  0
VERTEX
  5
A21
  8
LARGER_ENDPLATE
 10
66.11370437394571
 20
-0.1809806590956669
 30
0.0
  0
VERTEX
  5
A22
  8
LARGER_ENDPLATE
 10
66.58798266364788
 20
0.4225457252176739
 30
0.0
  0
VERTEX
  5
A23
  8
LARGER_ENDPLATE
 10
67.0336613535931
 20
1.049277954312629
 30
0.0
  0
VERTEX
  5
A24
  8
LARGER_ENDPLATE
 10
67.4497564009777
 20
1.698323366571003
 30
0.0
  0
VERTEX
  5
A25
  8
LARGER_ENDPLATE
 10
67.8352490297056
 20
2.36875969133348
 30
0.0
  0
VERTEX
  5
A26
  8
LARGER_ENDPLATE
 10
68.18908741034288
 20
3.059621382025625
 30
0.0
  0
VERTEX
  5
A27
  8
LARGER_ENDPLATE
 10
68.51019121887815
 20
3.769885950027628
 30
0.0
  0
VERTEX
  5
A28
  8
LARGER_ENDPLATE
 10
68.79745918838408
 20
4.498460857356349
 30
0.0
  0
VERTEX
  5
A29
  8
LARGER_ENDPLATE
 10
69.04977967554235
 20
5.244171608404713
 30
0.0
  0
VERTEX
  5
A2A
  8
LARGER_ENDPLATE
 10
69.26604413586732
 20
6.005751749814863
 30
0.0
  0
VERTEX
  5
A2B
  8
LARGER_ENDPLATE
 10
69.44516323755961
 20
6.781835527658586
 30
0.0
  0
VERTEX
  5
A2C
  8
LARGER_ENDPLATE
 10
69.58608515036663
 20
7.570953945805513
 30
0.0
  0
VERTEX
  5
A2D
  8
LARGER_ENDPLATE
 10
69.68781533546161
 20
8.371534902631538
 30
0.0
  0
VERTEX
  5
A2E
  8
LARGER_ENDPLATE
 10
69.74943695536551
 20
9.181907943711167
 30
0.0
  0
VERTEX
  5
A2F
  8
LARGER_ENDPLATE
 10
69.76820512788476
 20
9.924155311010963
 30
0.0
  0
VERTEX
  5
A30
  8
LARGER_ENDPLATE
 10
69.76820512788488
 20
112.4764188174659
 30
0.0
  0
VERTEX
  5
A31
  8
LARGER_ENDPLATE
 10
69.73826714738199
 20
113.4076763250296
 30
0.0
  0
VERTEX
  5
A32
  8
LARGER_ENDPLATE
 10
69.63964521812325
 20
114.4283926012179
 30
0.0
  0
VERTEX
  5
A33
  8
LARGER_ENDPLATE
 10
69.47625493171806
 20
115.438646832052
 30
0.0
  0
VERTEX
  5
A34
  8
LARGER_ENDPLATE
 10
69.24889994026817
 20
116.4353781341595
 30
0.0
  0
SEQEND
  5
ACA
  8
LARGER_ENDPLATE
  0
POLYLINE
  5
84
  8
LARGER_ENDPLATE
 66
     1
 10
0.0
 20
0.0
 30
0.0
 70
     1
  0
VERTEX
  5
A35
  8
LARGER_ENDPLATE
 10
131.7317948718607
 20
122.5999999995095
 30
0.0
  0
VERTEX
  5
A36
  8
LARGER_ENDPLATE
 10
131.9976297683326
 20
122.5865764926078
 30
0.0
  0
VERTEX
  5
A37
  8
LARGER_ENDPLATE
 10
132.2557855581581
 20
122.5471772404097
 30
0.0
  0
VERTEX
  5
A38
  8
LARGER_ENDPLATE
 10
132.5049553385766
 20
122.4831091456759
 30
0.0
  0
VERTEX
  5
A39
  8
LARGER_ENDPLATE
 10
132.7438322068273
 20
122.3956791111673
 30
0.0
  0
VERTEX
  5
A3A
  8
LARGER_ENDPLATE
 10
132.9711092601496
 20
122.2861940396444
 30
0.0
  0
VERTEX
  5
A3B
  8
LARGER_ENDPLATE
 10
133.1854795957827
 20
122.155960833868
 30
0.0
  0
VERTEX
  5
A3C
  8
LARGER_ENDPLATE
 10
133.3856363109658
 20
122.0062863965988
 30
0.0
  0
VERTEX
  5
A3D
  8
LARGER_ENDPLATE
 10
133.5702725029384
 20
121.8384776305976
 30
0.0
  0
VERTEX
  5
A3E
  8
LARGER_ENDPLATE
 10
133.7380812689396
 20
121.6538414386251
 30
0.0
  0
VERTEX
  5
A3F
  8
LARGER_ENDPLATE
 10
133.8877557062087
 20
121.4536847234419
 30
0.0
  0
VERTEX
  5
A40
  8
LARGER_ENDPLATE
 10
134.0179889119851
 20
121.2393143878088
 30
0.0
  0
VERTEX
  5
A41
  8
LARGER_ENDPLATE
 10
134.127473983508
 20
121.0120373344865
 30
0.0
  0
VERTEX
  5
A42
  8
LARGER_ENDPLATE
 10
134.2149040180167
 20
120.7731604662358
 30
0.0
  0
VERTEX
  5
A43
  8
LARGER_ENDPLATE
 10
134.2789721127505
 20
120.5239906858173
 30
0.0
  0
VERTEX
  5
A44
  8
LARGER_ENDPLATE
 10
134.3183713649486
 20
120.2658348959918
 30
0.0
  0
VERTEX
  5
A45
  8
LARGER_ENDPLATE
 10
134.3317948718503
 20
119.99999999952
 30
0.0
  0
VERTEX
  5
A46
  8
LARGER_ENDPLATE
 10
134.3183713649486
 20
119.7341651030481
 30
0.0
  0
VERTEX
  5
A47
  8
LARGER_ENDPLATE
 10
134.2789721127505
 20
119.4760093132226
 30
0.0
  0
VERTEX
  5
A48
  8
LARGER_ENDPLATE
 10
134.2149040180167
 20
119.2268395328041
 30
0.0
  0
VERTEX
  5
A49
  8
LARGER_ENDPLATE
 10
134.127473983508
 20
118.9879626645534
 30
0.0
  0
VERTEX
  5
A4A
  8
LARGER_ENDPLATE
 10
134.0179889119851
 20
118.7606856112311
 30
0.0
  0
VERTEX
  5
A4B
  8
LARGER_ENDPLATE
 10
133.8877557062087
 20
118.546315275598
 30
0.0
  0
VERTEX
  5
A4C
  8
LARGER_ENDPLATE
 10
133.7380812689396
 20
118.3461585604149
 30
0.0
  0
VERTEX
  5
A4D
  8
LARGER_ENDPLATE
 10
133.5702725029384
 20
118.1615223684423
 30
0.0
  0
VERTEX
  5
A4E
  8
LARGER_ENDPLATE
 10
133.3856363109658
 20
117.9937136024411
 30
0.0
  0
VERTEX
  5
A4F
  8
LARGER_ENDPLATE
 10
133.1854795957826
 20
117.8440391651719
 30
0.0
  0
VERTEX
  5
A50
  8
LARGER_ENDPLATE
 10
132.9711092601495
 20
117.7138059593955
 30
0.0
  0
VERTEX
  5
A51
  8
LARGER_ENDPLATE
 10
132.7438322068273
 20
117.6043208878726
 30
0.0
  0
VERTEX
  5
A52
  8
LARGER_ENDPLATE
 10
132.5049553385765
 20
117.516890853364
 30
0.0
  0
VERTEX
  5
A53
  8
LARGER_ENDPLATE
 10
132.255785558158
 20
117.4528227586302
 30
0.0
  0
VERTEX
  5
A54
  8
LARGER_ENDPLATE
 10
131.9976297683325
 20
117.4134235064321
 30
0.0
  0
VERTEX
  5
A55
  8
LARGER_ENDPLATE
 10
131.7317948718607
 20
117.3999999995303
 30
0.0
  0
VERTEX
  5
A56
  8
LARGER_ENDPLATE
 10
131.4659599753889
 20
117.4134235064321
 30
0.0
  0
VERTEX
  5
A57
  8
LARGER_ENDPLATE
 10
131.2078041855634
 20
117.4528227586302
 30
0.0
  0
VERTEX
  5
A58
  8
LARGER_ENDPLATE
 10
130.9586344051449
 20
117.5168908533639
 30
0.0
  0
VERTEX
  5
A59
  8
LARGER_ENDPLATE
 10
130.7197575368941
 20
117.6043208878726
 30
0.0
  0
VERTEX
  5
A5A
  8
LARGER_ENDPLATE
 10
130.4924804835719
 20
117.7138059593955
 30
0.0
  0
VERTEX
  5
A5B
  8
LARGER_ENDPLATE
 10
130.2781101479388
 20
117.8440391651719
 30
0.0
  0
VERTEX
  5
A5C
  8
LARGER_ENDPLATE
 10
130.0779534327557
 20
117.9937136024411
 30
0.0
  0
VERTEX
  5
A5D
  8
LARGER_ENDPLATE
 10
129.8933172407831
 20
118.1615223684423
 30
0.0
  0
VERTEX
  5
A5E
  8
LARGER_ENDPLATE
 10
129.7255084747819
 20
118.3461585604148
 30
0.0
  0
VERTEX
  5
A5F
  8
LARGER_ENDPLATE
 10
129.5758340375127
 20
118.546315275598
 30
0.0
  0
VERTEX
  5
A60
  8
LARGER_ENDPLATE
 10
129.4456008317364
 20
118.7606856112311
 30
0.0
  0
VERTEX
  5
A61
  8
LARGER_ENDPLATE
 10
129.3361157602135
 20
118.9879626645534
 30
0.0
  0
VERTEX
  5
A62
  8
LARGER_ENDPLATE
 10
129.2486857257048
 20
119.2268395328041
 30
0.0
  0
VERTEX
  5
A63
  8
LARGER_ENDPLATE
 10
129.184617630971
 20
119.4760093132226
 30
0.0
  0
VERTEX
  5
A64
  8
LARGER_ENDPLATE
 10
129.1452183787729
 20
119.7341651030481
 30
0.0
  0
VERTEX
  5
A65
  8
LARGER_ENDPLATE
 10
129.1317948718712
 20
119.99999999952
 30
0.0
  0
VERTEX
  5
A66
  8
LARGER_ENDPLATE
 10
129.1452183787729
 20
120.2658348959918
 30
0.0
  0
VERTEX
  5
A67
  8
LARGER_ENDPLATE
 10
129.184617630971
 20
120.5239906858173
 30
0.0
  0
VERTEX
  5
A68
  8
LARGER_ENDPLATE
 10
129.2486857257048
 20
120.7731604662358
 30
0.0
  0
VERTEX
  5
A69
  8
LARGER_ENDPLATE
 10
129.3361157602135
 20
121.0120373344865
 30
0.0
  0
VERTEX
  5
A6A
  8
LARGER_ENDPLATE
 10
129.4456008317364
 20
121.2393143878088
 30
0.0
  0
VERTEX
  5
A6B
  8
LARGER_ENDPLATE
 10
129.5758340375127
 20
121.4536847234419
 30
0.0
  0
VERTEX
  5
A6C
  8
LARGER_ENDPLATE
 10
129.7255084747819
 20
121.6538414386251
 30
0.0
  0
VERTEX
  5
A6D
  8
LARGER_ENDPLATE
 10
129.8933172407831
 20
121.8384776305976
 30
0.0
  0
VERTEX
  5
A6E
  8
LARGER_ENDPLATE
 10
130.0779534327557
 20
122.0062863965988
 30
0.0
  0
VERTEX
  5
A6F
  8
LARGER_ENDPLATE
 10
130.2781101479388
 20
122.155960833868
 30
0.0
  0
VERTEX
  5
A70
  8
LARGER_ENDPLATE
 10
130.4924804835719
 20
122.2861940396444
 30
0.0
  0
VERTEX
  5
A71
  8
LARGER_ENDPLATE
 10
130.7197575368941
 20
122.3956791111673
 30
0.0
  0
VERTEX
  5
A72
  8
LARGER_ENDPLATE
 10
130.9586344051449
 20
122.4831091456759
 30
0.0
  0
VERTEX
  5
A73
  8
LARGER_ENDPLATE
 10
131.2078041855634
 20
122.5471772404097
 30
0.0
  0
VERTEX
  5
A74
  8
LARGER_ENDPLATE
 10
131.4659599753889
 20
122.5865764926078
 30
0.0
  0
SEQEND
  5
ACB
  8
LARGER_ENDPLATE
  0
POLYLINE
  5
85
  8
LARGER_ENDPLATE
 66
     1
 10
0.0
 20
0.0
 30
0.0
 70
     1
  0
VERTEX
  5
A75
  8
LARGER_ENDPLATE
 10
131.7317948718607
 20
62.59999999942954
 30
0.0
  0
VERTEX
  5
A76
  8
LARGER_ENDPLATE
 10
131.9976297683326
 20
62.58657649252779
 30
0.0
  0
VERTEX
  5
A77
  8
LARGER_ENDPLATE
 10
132.2557855581581
 20
62.54717724032967
 30
0.0
  0
VERTEX
  5
A78
  8
LARGER_ENDPLATE
 10
132.5049553385766
 20
62.48310914559593
 30
0.0
  0
VERTEX
  5
A79
  8
LARGER_ENDPLATE
 10
132.7438322068273
 20
62.39567911108725
 30
0.0
  0
VERTEX
  5
A7A
  8
LARGER_ENDPLATE
 10
132.9711092601496
 20
62.28619403956436
 30
0.0
  0
VERTEX
  5
A7B
  8
LARGER_ENDPLATE
 10
133.1854795957827
 20
62.15596083378798
 30
0.0
  0
VERTEX
  5
A7C
  8
LARGER_ENDPLATE
 10
133.3856363109659
 20
62.00628639651882
 30
0.0
  0
VERTEX
  5
A7D
  8
LARGER_ENDPLATE
 10
133.5702725029384
 20
61.83847763051762
 30
0.0
  0
VERTEX
  5
A7E
  8
LARGER_ENDPLATE
 10
133.7380812689396
 20
61.65384143854507
 30
0.0
  0
VERTEX
  5
A7F
  8
LARGER_ENDPLATE
 10
133.8877557062088
 20
61.4536847233619
 30
0.0
  0
VERTEX
  5
A80
  8
LARGER_ENDPLATE
 10
134.0179889119851
 20
61.23931438772881
 30
0.0
  0
VERTEX
  5
A81
  8
LARGER_ENDPLATE
 10
134.127473983508
 20
61.01203733440654
 30
0.0
  0
VERTEX
  5
A82
  8
LARGER_ENDPLATE
 10
134.2149040180167
 20
60.7731604661558
 30
0.0
  0
VERTEX
  5
A83
  8
LARGER_ENDPLATE
 10
134.2789721127505
 20
60.52399068573731
 30
0.0
  0
VERTEX
  5
A84
  8
LARGER_ENDPLATE
 10
134.3183713649486
 20
60.26583489591178
 30
0.0
  0
VERTEX
  5
A85
  8
LARGER_ENDPLATE
 10
134.3317948718503
 20
59.99999999943992
 30
0.0
  0
VERTEX
  5
A86
  8
LARGER_ENDPLATE
 10
134.3183713649486
 20
59.73416510296808
 30
0.0
  0
VERTEX
  5
A87
  8
LARGER_ENDPLATE
 10
134.2789721127505
 20
59.47600931314256
 30
0.0
  0
VERTEX
  5
A88
  8
LARGER_ENDPLATE
 10
134.2149040180167
 20
59.22683953272407
 30
0.0
  0
VERTEX
  5
A89
  8
LARGER_ENDPLATE
 10
134.127473983508
 20
58.98796266447333
 30
0.0
  0
VERTEX
  5
A8A
  8
LARGER_ENDPLATE
 10
134.0179889119851
 20
58.76068561115106
 30
0.0
  0
VERTEX
  5
A8B
  8
LARGER_ENDPLATE
 10
133.8877557062087
 20
58.54631527551798
 30
0.0
  0
VERTEX
  5
A8C
  8
LARGER_ENDPLATE
 10
133.7380812689396
 20
58.34615856033481
 30
0.0
  0
VERTEX
  5
A8D
  8
LARGER_ENDPLATE
 10
133.5702725029384
 20
58.16152236836226
 30
0.0
  0
VERTEX
  5
A8E
  8
LARGER_ENDPLATE
 10
133.3856363109658
 20
57.99371360236105
 30
0.0
  0
VERTEX
  5
A8F
  8
LARGER_ENDPLATE
 10
133.1854795957827
 20
57.84403916509189
 30
0.0
  0
VERTEX
  5
A90
  8
LARGER_ENDPLATE
 10
132.9711092601496
 20
57.71380595931551
 30
0.0
  0
VERTEX
  5
A91
  8
LARGER_ENDPLATE
 10
132.7438322068273
 20
57.60432088779262
 30
0.0
  0
VERTEX
  5
A92
  8
LARGER_ENDPLATE
 10
132.5049553385766
 20
57.51689085328394
 30
0.0
  0
VERTEX
  5
A93
  8
LARGER_ENDPLATE
 10
132.2557855581581
 20
57.45282275855018
 30
0.0
  0
VERTEX
  5
A94
  8
LARGER_ENDPLATE
 10
131.9976297683326
 20
57.41342350635207
 30
0.0
  0
VERTEX
  5
A95
  8
LARGER_ENDPLATE
 10
131.7317948718607
 20
57.39999999945033
 30
0.0
  0
VERTEX
  5
A96
  8
LARGER_ENDPLATE
 10
131.4659599753889
 20
57.41342350635208
 30
0.0
  0
VERTEX
  5
A97
  8
LARGER_ENDPLATE
 10
131.2078041855634
 20
57.4528227585502
 30
0.0
  0
VERTEX
  5
A98
  8
LARGER_ENDPLATE
 10
130.9586344051449
 20
57.51689085328395
 30
0.0
  0
VERTEX
  5
A99
  8
LARGER_ENDPLATE
 10
130.7197575368941
 20
57.60432088779262
 30
0.0
  0
VERTEX
  5
A9A
  8
LARGER_ENDPLATE
 10
130.4924804835719
 20
57.71380595931551
 30
0.0
  0
VERTEX
  5
A9B
  8
LARGER_ENDPLATE
 10
130.2781101479388
 20
57.84403916509189
 30
0.0
  0
VERTEX
  5
A9C
  8
LARGER_ENDPLATE
 10
130.0779534327557
 20
57.99371360236105
 30
0.0
  0
VERTEX
  5
A9D
  8
LARGER_ENDPLATE
 10
129.8933172407831
 20
58.16152236836226
 30
0.0
  0
VERTEX
  5
A9E
  8
LARGER_ENDPLATE
 10
129.7255084747819
 20
58.3461585603348
 30
0.0
  0
VERTEX
  5
A9F
  8
LARGER_ENDPLATE
 10
129.5758340375127
 20
58.54631527551797
 30
0.0
  0
VERTEX
  5
AA0
  8
LARGER_ENDPLATE
 10
129.4456008317364
 20
58.76068561115105
 30
0.0
  0
VERTEX
  5
AA1
  8
LARGER_ENDPLATE
 10
129.3361157602135
 20
58.98796266447332
 30
0.0
  0
VERTEX
  5
AA2
  8
LARGER_ENDPLATE
 10
129.2486857257048
 20
59.22683953272405
 30
0.0
  0
VERTEX
  5
AA3
  8
LARGER_ENDPLATE
 10
129.184617630971
 20
59.47600931314254
 30
0.0
  0
VERTEX
  5
AA4
  8
LARGER_ENDPLATE
 10
129.1452183787729
 20
59.73416510296807
 30
0.0
  0
VERTEX
  5
AA5
  8
LARGER_ENDPLATE
 10
129.1317948718712
 20
59.99999999943992
 30
0.0
  0
VERTEX
  5
AA6
  8
LARGER_ENDPLATE
 10
129.1452183787729
 20
60.26583489591177
 30
0.0
  0
VERTEX
  5
AA7
  8
LARGER_ENDPLATE
 10
129.184617630971
 20
60.5239906857373
 30
0.0
  0
VERTEX
  5
AA8
  8
LARGER_ENDPLATE
 10
129.2486857257048
 20
60.77316046615579
 30
0.0
  0
VERTEX
  5
AA9
  8
LARGER_ENDPLATE
 10
129.3361157602135
 20
61.01203733440653
 30
0.0
  0
VERTEX
  5
AAA
  8
LARGER_ENDPLATE
 10
129.4456008317364
 20
61.2393143877288
 30
0.0
  0
VERTEX
  5
AAB
  8
LARGER_ENDPLATE
 10
129.5758340375127
 20
61.45368472336188
 30
0.0
  0
VERTEX
  5
AAC
  8
LARGER_ENDPLATE
 10
129.7255084747819
 20
61.65384143854506
 30
0.0
  0
VERTEX
  5
AAD
  8
LARGER_ENDPLATE
 10
129.8933172407831
 20
61.8384776305176
 30
0.0
  0
VERTEX
  5
AAE
  8
LARGER_ENDPLATE
 10
130.0779534327557
 20
62.00628639651882
 30
0.0
  0
VERTEX
  5
AAF
  8
LARGER_ENDPLATE
 10
130.2781101479388
 20
62.15596083378797
 30
0.0
  0
VERTEX
  5
AB0
  8
LARGER_ENDPLATE
 10
130.4924804835719
 20
62.28619403956435
 30
0.0
  0
VERTEX
  5
AB1
  8
LARGER_ENDPLATE
 10
130.7197575368941
 20
62.39567911108724
 30
0.0
  0
VERTEX
  5
AB2
  8
LARGER_ENDPLATE
 10
130.9586344051449
 20
62.48310914559592
 30
0.0
  0
VERTEX
  5
AB3
  8
LARGER_ENDPLATE
 10
131.2078041855634
 20
62.54717724032967
 30
0.0
  0
VERTEX
  5
AB4
  8
LARGER_ENDPLATE
 10
131.4659599753889
 20
62.58657649252779
 30
0.0
  0
SEQEND
  5
ACC
  8
LARGER_ENDPLATE
  0
ENDSEC
  0
EOF
