  0
SECTION
  2
HEADER
  9
$ACADVER
  1
AC1009
  9
$DWGCODEPAGE
  3
ansi_1252
  9
$INSBASE
 10
0.0
 20
0.0
 30
0.0
  9
$EXTMIN
 10
0.3802
 20
0.0
 30
0.0
  9
$EXTMAX
 10
4.619790246961921
 20
8.854867256637165
 30
0.0
  9
$LIMMIN
 10
0.0
 20
0.0
  9
$LIMMAX
 10
12.0
 20
9.0
  9
$ORTHOMODE
 70
     0
  9
$REGENMODE
 70
     1
  9
$FILLMODE
 70
     1
  9
$QTEXTMODE
 70
     0
  9
$MIRRTEXT
 70
     1
  9
$DRAGMODE
 70
     2
  9
$LTSCALE
 40
1.0
  9
$OSMODE
 70
    37
  9
$ATTMODE
 70
     1
  9
$TEXTSIZE
 40
0.2
  9
$TRACEWID
 40
0.05
  9
$TEXTSTYLE
  7
STANDARD
  9
$CLAYER
  8
0
  9
$CELTYPE
  6
BYLAYER
  9
$CECOLOR
 62
   256
  9
$DIMSCALE
 40
1.0
  9
$DIMASZ
 40
0.18
  9
$DIMEXO
 40
0.0625
  9
$DIMDLI
 40
0.38
  9
$DIMRND
 40
0.0
  9
$DIMDLE
 40
0.0
  9
$DIMEXE
 40
0.18
  9
$DIMTP
 40
0.0
  9
$DIMTM
 40
0.0
  9
$DIMTXT
 40
0.18
  9
$DIMCEN
 40
0.09
  9
$DIMTSZ
 40
0.0
  9
$DIMTOL
 70
     0
  9
$DIMLIM
 70
     0
  9
$DIMTIH
 70
     1
  9
$DIMTOH
 70
     1
  9
$DIMSE1
 70
     0
  9
$DIMSE2
 70
     0
  9
$DIMTAD
 70
     0
  9
$DIMZIN
 70
     0
  9
$DIMBLK
  1

  9
$DIMASO
 70
     1
  9
$DIMSHO
 70
     1
  9
$DIMPOST
  1

  9
$DIMAPOST
  1

  9
$DIMALT
 70
     0
  9
$DIMALTD
 70
     2
  9
$DIMALTF
 40
25.4
  9
$DIMLFAC
 40
1.0
  9
$DIMTOFL
 70
     0
  9
$DIMTVP
 40
0.0
  9
$DIMTIX
 70
     0
  9
$DIMSOXD
 70
     0
  9
$DIMSAH
 70
     0
  9
$DIMBLK1
  1

  9
$DIMBLK2
  1

  9
$DIMSTYLE
  2
STANDARD
  9
$DIMCLRD
 70
     0
  9
$DIMCLRE
 70
     0
  9
$DIMCLRT
 70
     0
  9
$DIMTFAC
 40
1.0
  9
$DIMGAP
 40
0.09
  9
$LUNITS
 70
     2
  9
$LUPREC
 70
     4
  9
$SKETCHINC
 40
0.1
  9
$FILLETRAD
 40
0.5
  9
$AUNITS
 70
     0
  9
$AUPREC
 70
     0
  9
$MENU
  1
.
  9
$ELEVATION
 40
0.0
  9
$PELEVATION
 40
0.0
  9
$THICKNESS
 40
0.0
  9
$LIMCHECK
 70
     0
  9
$CHAMFERA
 40
0.0
  9
$CHAMFERB
 40
0.0
  9
$SKPOLY
 70
     0
  9
$TDCREATE
 40
2454910.5
  9
$TDUPDATE
 40
2457624.490410868
  9
$TDINDWG
 40
0.0000000116
  9
$TDUSRTIMER
 40
0.0000000116
  9
$USRTIMER
 70
     1
  9
$ANGBASE
 50
0.0
  9
$ANGDIR
 70
     0
  9
$PDMODE
 70
     0
  9
$PDSIZE
 40
0.0
  9
$PLINEWID
 40
0.0
  9
$COORDS
 70
     1
  9
$SPLFRAME
 70
     0
  9
$SPLINETYPE
 70
     6
  9
$SPLINESEGS
 70
     8
  9
$ATTDIA
 70
     0
  9
$ATTREQ
 70
     1
  9
$HANDLING
 70
     1
  9
$HANDSEED
  5
17E
  9
$SURFTAB1
 70
     6
  9
$SURFTAB2
 70
     6
  9
$SURFTYPE
 70
     6
  9
$SURFU
 70
     6
  9
$SURFV
 70
     6
  9
$UCSNAME
  2

  9
$UCSORG
 10
0.0
 20
0.0
 30
0.0
  9
$UCSXDIR
 10
1.0
 20
0.0
 30
0.0
  9
$UCSYDIR
 10
0.0
 20
1.0
 30
0.0
  9
$PUCSNAME
  2

  9
$PUCSORG
 10
0.0
 20
0.0
 30
0.0
  9
$PUCSXDIR
 10
1.0
 20
0.0
 30
0.0
  9
$PUCSYDIR
 10
0.0
 20
1.0
 30
0.0
  9
$USERI1
 70
     0
  9
$USERI2
 70
     0
  9
$USERI3
 70
     0
  9
$USERI4
 70
     0
  9
$USERI5
 70
     0
  9
$USERR1
 40
0.0
  9
$USERR2
 40
0.0
  9
$USERR3
 40
0.0
  9
$USERR4
 40
0.0
  9
$USERR5
 40
0.0
  9
$WORLDVIEW
 70
     1
  9
$SHADEDGE
 70
     3
  9
$SHADEDIF
 70
    70
  9
$TILEMODE
 70
     1
  9
$MAXACTVP
 70
    64
  9
$PLIMCHECK
 70
     0
  9
$PEXTMIN
 10
1.000000000000000E+20
 20
1.000000000000000E+20
 30
1.000000000000000E+20
  9
$PEXTMAX
 10
-1.000000000000000E+20
 20
-1.000000000000000E+20
 30
-1.000000000000000E+20
  9
$PLIMMIN
 10
0.0
 20
0.0
  9
$PLIMMAX
 10
12.0
 20
9.0
  9
$UNITMODE
 70
     0
  9
$VISRETAIN
 70
     1
  9
$PLINEGEN
 70
     0
  9
$PSLTSCALE
 70
     1
  0
ENDSEC
  0
SECTION
  2
TABLES
  0
TABLE
  2
VPORT
 70
     1
  0
VPORT
  2
*ACTIVE
 70
     0
 10
0.0
 20
0.0
 11
1.0
 21
1.0
 12
10.42990654205607
 22
4.5
 13
0.0
 23
0.0
 14
0.5
 24
0.5
 15
0.5
 25
0.5
 16
0.0
 26
0.0
 36
1.0
 17
0.0
 27
0.0
 37
0.0
 40
9.0
 41
1.972972972850329
 42
50.0
 43
0.0
 44
0.0
 50
0.0
 51
0.0
 71
     0
 72
   100
 73
     1
 74
     3
 75
     0
 76
     0
 77
     0
 78
     0
  0
ENDTAB
  0
TABLE
  2
LTYPE
 70
     2
  0
LTYPE
  2
CONTINUOUS
 70
     0
  3
Solid line
 72
    65
 73
     0
 40
0.0
  0
LTYPE
  2
CONTINUOUS2
 70
     0
  3
Solid Line
 72
    65
 73
     0
 40
0.0
  0
ENDTAB
  0
TABLE
  2
LAYER
 70
     1
  0
LAYER
  2
0
 70
     0
 62
     7
  6
CONTINUOUS
  0
ENDTAB
  0
TABLE
  2
STYLE
 70
     1
  0
STYLE
  2
STANDARD
 70
     0
 40
0.0
 41
1.0
 50
0.0
 71
     0
 42
0.2
  3
txt
  4

  0
ENDTAB
  0
TABLE
  2
VIEW
 70
     0
  0
ENDTAB
  0
TABLE
  2
UCS
 70
     0
  0
ENDTAB
  0
TABLE
  2
APPID
 70
     1
  0
APPID
  2
ACAD
 70
     0
  0
ENDTAB
  0
TABLE
  2
DIMSTYLE
 70
     1
  0
DIMSTYLE
  2
STANDARD
 70
     0
  3

  4

  5

  6

  7

 40
1.0
 41
0.18
 42
0.0625
 43
0.38
 44
0.18
 45
0.0
 46
0.0
 47
0.0
 48
0.0
140
0.18
141
0.09
142
0.0
143
25.4
144
1.0
145
0.0
146
1.0
147
0.09
 71
     0
 72
     0
 73
     1
 74
     1
 75
     0
 76
     0
 77
     0
 78
     0
170
     0
171
     2
172
     0
173
     0
174
     0
175
     0
176
     0
177
     0
178
     0
  0
ENDTAB
  0
ENDSEC
  0
SECTION
  2
BLOCKS
  0
BLOCK
  8
0
  2
$MODEL_SPACE
 70
     0
 10
0.0
 20
0.0
 30
0.0
  3
$MODEL_SPACE
  1

  0
ENDBLK
  5
21
  8
0
  0
BLOCK
 67
     1
  8
0
  2
$PAPER_SPACE
 70
     0
 10
0.0
 20
0.0
 30
0.0
  3
$PAPER_SPACE
  1

  0
ENDBLK
  5
1D
 67
     1
  8
0
  0
ENDSEC
  0
SECTION
  2
ENTITIES
  0
POLYLINE
  5
6F
  8
0
 66
     1
 10
0.0
 20
0.0
 30
0.0
 70
     1
  0
VERTEX
  5
8A
  8
0
 10
4.374999999999996
 20
4.936888860797093
 30
0.0
  0
VERTEX
  5
8B
  8
0
 10
4.374999999999996
 20
5.361888860797092
 30
0.0
 42
0.1384488083066021
  0
VERTEX
  5
8C
  8
0
 10
4.34501489025422
 20
5.475982632122182
 30
0.0
 42
-0.1098991253099421
  0
VERTEX
  5
8D
  8
0
 10
4.019699999999998
 20
6.706242997609987
 30
0.0
  0
VERTEX
  5
8E
  8
0
 10
4.019440741793977
 20
6.73453896879622
 30
0.0
  0
VERTEX
  5
8F
  8
0
 10
4.018665857265609
 20
6.762717796447509
 30
0.0
  0
VERTEX
  5
90
  8
0
 10
4.017379681549445
 20
6.790774721678712
 30
0.0
  0
VERTEX
  5
91
  8
0
 10
4.015586549780032
 20
6.818704985604686
 30
0.0
  0
VERTEX
  5
92
  8
0
 10
4.013290797091917
 20
6.846503829340289
 30
0.0
  0
VERTEX
  5
93
  8
0
 10
4.010496758619651
 20
6.874166494000377
 30
0.0
  0
VERTEX
  5
94
  8
0
 10
4.00720876949778
 20
6.90168822069981
 30
0.0
  0
VERTEX
  5
95
  8
0
 10
4.003431164860853
 20
6.929064250553446
 30
0.0
  0
VERTEX
  5
96
  8
0
 10
3.999168279843418
 20
6.956289824676141
 30
0.0
  0
VERTEX
  5
97
  8
0
 10
3.994424449580023
 20
6.983360184182752
 30
0.0
  0
VERTEX
  5
98
  8
0
 10
3.989204009205216
 20
7.010270570188137
 30
0.0
  0
VERTEX
  5
99
  8
0
 10
3.983511293853545
 20
7.037016223807155
 30
0.0
  0
VERTEX
  5
9A
  8
0
 10
3.977350638659559
 20
7.063592386154662
 30
0.0
  0
VERTEX
  5
9B
  8
0
 10
3.970726378757805
 20
7.089994298345517
 30
0.0
  0
VERTEX
  5
9C
  8
0
 10
3.963642849282832
 20
7.116217201494577
 30
0.0
  0
VERTEX
  5
9D
  8
0
 10
3.956104385369188
 20
7.1422563367167
 30
0.0
  0
VERTEX
  5
9E
  8
0
 10
3.948115322151421
 20
7.168106945126744
 30
0.0
  0
VERTEX
  5
9F
  8
0
 10
3.939679994764079
 20
7.193764267839565
 30
0.0
  0
VERTEX
  5
A0
  8
0
 10
3.93080273834171
 20
7.219223545970022
 30
0.0
  0
VERTEX
  5
A1
  8
0
 10
3.921487888018863
 20
7.244480020632972
 30
0.0
  0
VERTEX
  5
A2
  8
0
 10
3.911739778930086
 20
7.269528932943272
 30
0.0
  0
VERTEX
  5
A3
  8
0
 10
3.901562746209926
 20
7.294365524015781
 30
0.0
  0
VERTEX
  5
A4
  8
0
 10
3.890961124992933
 20
7.318985034965356
 30
0.0
  0
VERTEX
  5
A5
  8
0
 10
3.879939250413654
 20
7.343382706906855
 30
0.0
  0
VERTEX
  5
A6
  8
0
 10
3.868501457606636
 20
7.367553780955134
 30
0.0
  0
VERTEX
  5
A7
  8
0
 10
3.85665208170643
 20
7.391493498225053
 30
0.0
  0
VERTEX
  5
A8
  8
0
 10
3.844395457847581
 20
7.415197099831468
 30
0.0
  0
VERTEX
  5
A9
  8
0
 10
3.83173592116464
 20
7.438659826889237
 30
0.0
  0
VERTEX
  5
AA
  8
0
 10
3.818677806792153
 20
7.46187692051322
 30
0.0
  0
VERTEX
  5
AB
  8
0
 10
3.805225449864669
 20
7.484843621818269
 30
0.0
  0
VERTEX
  5
AC
  8
0
 10
3.791383185516737
 20
7.507555171919247
 30
0.0
  0
VERTEX
  5
AD
  8
0
 10
3.777155348882903
 20
7.530006811931009
 30
0.0
  0
VERTEX
  5
AE
  8
0
 10
3.762546275097718
 20
7.552193782968413
 30
0.0
  0
VERTEX
  5
AF
  8
0
 10
3.747560299295728
 20
7.574111326146317
 30
0.0
  0
VERTEX
  5
B0
  8
0
 10
3.732201756611481
 20
7.59575468257958
 30
0.0
  0
VERTEX
  5
B1
  8
0
 10
3.716474982179527
 20
7.617119093383057
 30
0.0
  0
VERTEX
  5
B2
  8
0
 10
3.700384311134412
 20
7.638199799671606
 30
0.0
  0
VERTEX
  5
B3
  8
0
 10
3.683934078610686
 20
7.658992042560085
 30
0.0
  0
VERTEX
  5
B4
  8
0
 10
3.667128619742896
 20
7.679491063163352
 30
0.0
  0
VERTEX
  5
B5
  8
0
 10
3.649972269665591
 20
7.699692102596266
 30
0.0
  0
VERTEX
  5
B6
  8
0
 10
3.632469363513318
 20
7.719590401973683
 30
0.0
  0
VERTEX
  5
B7
  8
0
 10
3.614624236420626
 20
7.73918120241046
 30
0.0
  0
VERTEX
  5
B8
  8
0
 10
3.596441223522064
 20
7.758459745021455
 30
0.0
  0
VERTEX
  5
B9
  8
0
 10
3.577924659952177
 20
7.777421270921527
 30
0.0
  0
VERTEX
  5
BA
  8
0
 10
3.559078880845516
 20
7.796061021225533
 30
0.0
  0
VERTEX
  5
BB
  8
0
 10
3.53990822133663
 20
7.81437423704833
 30
0.0
  0
VERTEX
  5
BC
  8
0
 10
3.520417016560064
 20
7.832356159504775
 30
0.0
  0
VERTEX
  5
BD
  8
0
 10
3.500609601650368
 20
7.850002029709728
 30
0.0
  0
VERTEX
  5
BE
  8
0
 10
3.48049031174209
 20
7.867307088778045
 30
0.0
  0
VERTEX
  5
BF
  8
0
 10
3.460063481969778
 20
7.884266577824582
 30
0.0
  0
VERTEX
  5
C0
  8
0
 10
3.43933344746798
 20
7.9008757379642
 30
0.0
  0
VERTEX
  5
C1
  8
0
 10
3.418304543371244
 20
7.917129810311755
 30
0.0
  0
VERTEX
  5
C2
  8
0
 10
3.396981104814119
 20
7.933024035982104
 30
0.0
  0
VERTEX
  5
C3
  8
0
 10
3.375367466931153
 20
7.948553656090105
 30
0.0
  0
VERTEX
  5
C4
  8
0
 10
3.353467964856893
 20
7.963713911750617
 30
0.0
  0
VERTEX
  5
C5
  8
0
 10
3.331286933725888
 20
7.978500044078496
 30
0.0
  0
VERTEX
  5
C6
  8
0
 10
3.308828708672687
 20
7.992907294188599
 30
0.0
  0
VERTEX
  5
C7
  8
0
 10
3.286097624831836
 20
8.006930903195787
 30
0.0
  0
VERTEX
  5
C8
  8
0
 10
3.263098017337885
 20
8.020566112214915
 30
0.0
  0
VERTEX
  5
C9
  8
0
 10
3.239834221325381
 20
8.03380816236084
 30
0.0
  0
VERTEX
  5
CA
  8
0
 10
3.216310571928873
 20
8.046652294748421
 30
0.0
  0
VERTEX
  5
CB
  8
0
 10
3.192531404282909
 20
8.059093750492515
 30
0.0
  0
VERTEX
  5
CC
  8
0
 10
3.168501053522037
 20
8.07112777070798
 30
0.0
  0
VERTEX
  5
CD
  8
0
 10
3.144223854780805
 20
8.082749596509673
 30
0.0
 42
-0.2914214989671219
  0
VERTEX
  5
CE
  8
0
 10
3.000056778778993
 20
8.30922901511517
 30
0.0
  0
VERTEX
  5
CF
  8
0
 10
3.000033010691952
 20
8.489188204291311
 30
0.0
 42
0.4185457274087162
  0
VERTEX
  5
D0
  8
0
 10
2.746308069593499
 20
8.739127433628319
 30
0.0
  0
VERTEX
  5
D1
  8
0
 10
2.2499
 20
8.739127433628319
 30
0.0
 42
0.4079483602256884
  0
VERTEX
  5
D2
  8
0
 10
1.999957446389278
 20
8.494486528193534
 30
0.0
  0
VERTEX
  5
D3
  8
0
 10
1.999925325515473
 20
8.309823475695815
 30
0.0
 42
-0.2879046557924655
  0
VERTEX
  5
D4
  8
0
 10
1.857019706879224
 20
8.083350701694485
 30
0.0
  0
VERTEX
  5
D5
  8
0
 10
1.832858227700069
 20
8.071801336300222
 30
0.0
  0
VERTEX
  5
D6
  8
0
 10
1.80893448606865
 20
8.059840968417411
 30
0.0
  0
VERTEX
  5
D7
  8
0
 10
1.785253050342887
 20
8.04747417352364
 30
0.0
  0
VERTEX
  5
D8
  8
0
 10
1.761818488880698
 20
8.034705527096484
 30
0.0
  0
VERTEX
  5
D9
  8
0
 10
1.738635370040004
 20
8.021539604613537
 30
0.0
  0
VERTEX
  5
DA
  8
0
 10
1.715708262178723
 20
8.007980981552379
 30
0.0
  0
VERTEX
  5
DB
  8
0
 10
1.693041733654774
 20
7.994034233390593
 30
0.0
  0
VERTEX
  5
DC
  8
0
 10
1.670640352826077
 20
7.979703935605765
 30
0.0
  0
VERTEX
  5
DD
  8
0
 10
1.648508688050552
 20
7.964994663675478
 30
0.0
  0
VERTEX
  5
DE
  8
0
 10
1.626651307686118
 20
7.949910993077316
 30
0.0
  0
VERTEX
  5
DF
  8
0
 10
1.605072780090693
 20
7.934457499288861
 30
0.0
  0
VERTEX
  5
E0
  8
0
 10
1.583777673622198
 20
7.918638757787701
 30
0.0
  0
VERTEX
  5
E1
  8
0
 10
1.562770556638552
 20
7.902459344051417
 30
0.0
  0
VERTEX
  5
E2
  8
0
 10
1.542055997497673
 20
7.885923833557594
 30
0.0
  0
VERTEX
  5
E3
  8
0
 10
1.521638564557482
 20
7.869036801783816
 30
0.0
  0
VERTEX
  5
E4
  8
0
 10
1.501522826175897
 20
7.851802824207667
 30
0.0
  0
VERTEX
  5
E5
  8
0
 10
1.481713350710839
 20
7.834226476306731
 30
0.0
  0
VERTEX
  5
E6
  8
0
 10
1.462214706520226
 20
7.81631233355859
 30
0.0
  0
VERTEX
  5
E7
  8
0
 10
1.443031461961977
 20
7.798064971440832
 30
0.0
  0
VERTEX
  5
E8
  8
0
 10
1.424168185394012
 20
7.779488965431037
 30
0.0
  0
VERTEX
  5
E9
  8
0
 10
1.405629445174251
 20
7.760588891006792
 30
0.0
  0
VERTEX
  5
EA
  8
0
 10
1.387419809660611
 20
7.741369323645678
 30
0.0
  0
VERTEX
  5
EB
  8
0
 10
1.369543847211014
 20
7.721834838825282
 30
0.0
  0
VERTEX
  5
EC
  8
0
 10
1.352006126183378
 20
7.701990012023187
 30
0.0
  0
VERTEX
  5
ED
  8
0
 10
1.334811214935623
 20
7.681839418716977
 30
0.0
  0
VERTEX
  5
EE
  8
0
 10
1.317963681825668
 20
7.661387634384234
 30
0.0
  0
VERTEX
  5
EF
  8
0
 10
1.301468095211431
 20
7.640639234502544
 30
0.0
  0
VERTEX
  5
F0
  8
0
 10
1.285329023450834
 20
7.61959879454949
 30
0.0
  0
VERTEX
  5
F1
  8
0
 10
1.269551034901794
 20
7.598270890002657
 30
0.0
  0
VERTEX
  5
F2
  8
0
 10
1.254138697922232
 20
7.576660096339629
 30
0.0
  0
VERTEX
  5
F3
  8
0
 10
1.239096580870065
 20
7.554770989037991
 30
0.0
  0
VERTEX
  5
F4
  8
0
 10
1.224429252103215
 20
7.532608143575323
 30
0.0
  0
VERTEX
  5
F5
  8
0
 10
1.2101412799796
 20
7.510176135429212
 30
0.0
  0
VERTEX
  5
F6
  8
0
 10
1.196237232857139
 20
7.487479540077242
 30
0.0
  0
VERTEX
  5
F7
  8
0
 10
1.182721679093752
 20
7.464522932996996
 30
0.0
  0
VERTEX
  5
F8
  8
0
 10
1.169599187047359
 20
7.441310889666059
 30
0.0
  0
VERTEX
  5
F9
  8
0
 10
1.156874325075877
 20
7.417847985562014
 30
0.0
  0
VERTEX
  5
FA
  8
0
 10
1.144551661537228
 20
7.394138796162445
 30
0.0
  0
VERTEX
  5
FB
  8
0
 10
1.132635764789329
 20
7.370187896944937
 30
0.0
  0
VERTEX
  5
FC
  8
0
 10
1.121131203190101
 20
7.345999863387073
 30
0.0
  0
VERTEX
  5
FD
  8
0
 10
1.110042545097463
 20
7.321579270966437
 30
0.0
  0
VERTEX
  5
FE
  8
0
 10
1.099374358869334
 20
7.296930695160613
 30
0.0
  0
VERTEX
  5
FF
  8
0
 10
1.089131212863633
 20
7.272058711447187
 30
0.0
  0
VERTEX
  5
100
  8
0
 10
1.07931767543828
 20
7.246967895303739
 30
0.0
  0
VERTEX
  5
101
  8
0
 10
1.069938314951194
 20
7.221662822207857
 30
0.0
  0
VERTEX
  5
102
  8
0
 10
1.060997699760295
 20
7.196148067637123
 30
0.0
  0
VERTEX
  5
103
  8
0
 10
1.052500398223501
 20
7.17042820706912
 30
0.0
  0
VERTEX
  5
104
  8
0
 10
1.044450978698732
 20
7.144507815981434
 30
0.0
  0
VERTEX
  5
105
  8
0
 10
1.036854009543908
 20
7.118391469851648
 30
0.0
  0
VERTEX
  5
106
  8
0
 10
1.029714059116947
 20
7.092083744157347
 30
0.0
  0
VERTEX
  5
107
  8
0
 10
1.023035695775769
 20
7.065589214376113
 30
0.0
  0
VERTEX
  5
108
  8
0
 10
1.016823487878293
 20
7.038912455985532
 30
0.0
  0
VERTEX
  5
109
  8
0
 10
1.011082003782439
 20
7.012058044463187
 30
0.0
  0
VERTEX
  5
10A
  8
0
 10
1.005815811846126
 20
6.985030555286661
 30
0.0
  0
VERTEX
  5
10B
  8
0
 10
1.001029480427274
 20
6.95783456393354
 30
0.0
  0
VERTEX
  5
10C
  8
0
 10
0.9967275778838012
 20
6.930474645881407
 30
0.0
  0
VERTEX
  5
10D
  8
0
 10
0.9929146725736272
 20
6.902955376607847
 30
0.0
  0
VERTEX
  5
10E
  8
0
 10
0.9895953328546715
 20
6.875281331590441
 30
0.0
  0
VERTEX
  5
10F
  8
0
 10
0.9867741270848535
 20
6.847457086306775
 30
0.0
  0
VERTEX
  5
110
  8
0
 10
0.9844556236220923
 20
6.819487216234434
 30
0.0
  0
VERTEX
  5
111
  8
0
 10
0.9826443908243074
 20
6.791376296851
 30
0.0
  0
VERTEX
  5
112
  8
0
 10
0.9813449970494181
 20
6.763128903634059
 30
0.0
  0
VERTEX
  5
113
  8
0
 10
0.9805620106553437
 20
6.734749612061194
 30
0.0
  0
VERTEX
  5
114
  8
0
 10
0.9803000000000035
 20
6.706242997609987
 30
0.0
 42
-0.1102473477779098
  0
VERTEX
  5
115
  8
0
 10
0.6531299533631387
 20
5.472402783303217
 30
0.0
 42
0.1204149517516172
  0
VERTEX
  5
116
  8
0
 10
0.6250000000000038
 20
5.357172767288183
 30
0.0
  0
VERTEX
  5
117
  8
0
 10
0.6250000000000038
 20
4.936888860797093
 30
0.0
  0
SEQEND
  5
16A
  8
0
  0
POLYLINE
  5
70
  8
0
 66
     1
 10
0.0
 20
0.0
 30
0.0
 70
     1
  0
VERTEX
  5
118
  8
0
 10
2.5
 20
8.5
 30
0.0
 42
0.4142135623730951
  0
VERTEX
  5
119
  8
0
 10
2.4375
 20
8.4375
 30
0.0
 42
0.4142135623730951
  0
VERTEX
  5
11A
  8
0
 10
2.5
 20
8.375
 30
0.0
 42
0.4142135623730951
  0
VERTEX
  5
11B
  8
0
 10
2.5625
 20
8.4375
 30
0.0
 42
0.4142135623730951
  0
SEQEND
  5
16B
  8
0
  0
POLYLINE
  5
71
  8
0
 66
     1
 10
0.0
 20
0.0
 30
0.0
 70
     1
  0
VERTEX
  5
11C
  8
0
 10
2.5
 20
5.212959999999997
 30
0.0
 42
0.4142135623730951
  0
VERTEX
  5
11D
  8
0
 10
2.4375
 20
5.150459999999998
 30
0.0
 42
0.4142135623730951
  0
VERTEX
  5
11E
  8
0
 10
2.5
 20
5.087959999999998
 30
0.0
 42
0.4142135623730951
  0
VERTEX
  5
11F
  8
0
 10
2.5625
 20
5.150459999999998
 30
0.0
 42
0.4142135623730951
  0
SEQEND
  5
16C
  8
0
  0
POLYLINE
  5
72
  8
0
 66
     1
 10
0.0
 20
0.0
 30
0.0
 70
     1
  0
VERTEX
  5
120
  8
0
 10
3.1769
 20
6.748959999999998
 30
0.0
 42
0.4142135623730951
  0
VERTEX
  5
121
  8
0
 10
3.1144
 20
6.686459999999999
 30
0.0
 42
0.4142135623730951
  0
VERTEX
  5
122
  8
0
 10
3.1769
 20
6.623959999999999
 30
0.0
 42
0.4142135623730951
  0
VERTEX
  5
123
  8
0
 10
3.2394
 20
6.686459999999999
 30
0.0
 42
0.4142135623730951
  0
SEQEND
  5
16D
  8
0
  0
POLYLINE
  5
73
  8
0
 66
     1
 10
0.0
 20
0.0
 30
0.0
 70
     1
  0
VERTEX
  5
124
  8
0
 10
1.9481
 20
6.748959999999998
 30
0.0
 42
0.4142135623730951
  0
VERTEX
  5
125
  8
0
 10
1.8856
 20
6.686459999999999
 30
0.0
 42
0.4142135623730951
  0
VERTEX
  5
126
  8
0
 10
1.9481
 20
6.623959999999999
 30
0.0
 42
0.4142135623730951
  0
VERTEX
  5
127
  8
0
 10
2.0106
 20
6.686459999999999
 30
0.0
 42
0.4142135623730951
  0
SEQEND
  5
16E
  8
0
  0
POLYLINE
  5
74
  8
0
 66
     1
 10
0.0
 20
0.0
 30
0.0
 70
     1
  0
VERTEX
  5
128
  8
0
 10
2.46875
 20
7.927654867256633
 30
0.0
  0
VERTEX
  5
129
  8
0
 10
2.53125
 20
7.927654867256633
 30
0.0
  0
VERTEX
  5
12A
  8
0
 10
2.53125
 20
8.854867256637165
 30
0.0
  0
VERTEX
  5
12B
  8
0
 10
2.46875
 20
8.854867256637165
 30
0.0
  0
SEQEND
  5
16F
  8
0
  0
POLYLINE
  5
75
  8
0
 66
     1
 10
0.0
 20
0.0
 30
0.0
 70
     1
  0
VERTEX
  5
12C
  8
0
 10
0.625
 20
0.25
 30
0.0
 42
0.4142135623730951
  0
VERTEX
  5
12D
  8
0
 10
0.875
 20
0.0
 30
0.0
  0
VERTEX
  5
12E
  8
0
 10
4.125
 20
0.0
 30
0.0
 42
0.4142135623730951
  0
VERTEX
  5
12F
  8
0
 10
4.375
 20
0.25
 30
0.0
  0
VERTEX
  5
130
  8
0
 10
4.375
 20
3.25
 30
0.0
 42
0.4142135623730951
  0
VERTEX
  5
131
  8
0
 10
4.125
 20
3.5
 30
0.0
  0
VERTEX
  5
132
  8
0
 10
0.875
 20
3.5
 30
0.0
 42
0.4142135623730951
  0
VERTEX
  5
133
  8
0
 10
0.625
 20
3.25
 30
0.0
  0
SEQEND
  5
170
  8
0
  0
POLYLINE
  5
76
  8
0
 66
     1
 10
0.0
 20
0.0
 30
0.0
 70
     1
  0
VERTEX
  5
134
  8
0
 10
2.5
 20
7.981242997609989
 30
0.0
 42
0.4142135623730951
  0
VERTEX
  5
135
  8
0
 10
1.225
 20
6.706242997609989
 30
0.0
 42
0.4142135623730951
  0
VERTEX
  5
136
  8
0
 10
2.5
 20
5.431242997609989
 30
0.0
 42
0.4142135623730951
  0
VERTEX
  5
137
  8
0
 10
3.775
 20
6.706242997609989
 30
0.0
 42
0.4142135623730951
  0
SEQEND
  5
171
  8
0
  0
POLYLINE
  5
77
  8
0
 66
     1
 10
0.0
 20
0.0
 30
0.0
 70
     1
  0
VERTEX
  5
138
  8
0
 10
1.009313225746155
 20
0.883461538461538
 30
0.0
 42
0.4142135623730951
  0
VERTEX
  5
139
  8
0
 10
0.8843132257461552
 20
0.7584615384615362
 30
0.0
 42
0.4142135623730951
  0
VERTEX
  5
13A
  8
0
 10
1.009313225746155
 20
0.6334615384615359
 30
0.0
 42
0.4142135623730951
  0
VERTEX
  5
13B
  8
0
 10
1.134313225746155
 20
0.7584615384615362
 30
0.0
 42
0.4142135623730951
  0
SEQEND
  5
172
  8
0
  0
POLYLINE
  5
78
  8
0
 66
     1
 10
0.0
 20
0.0
 30
0.0
 70
     1
  0
VERTEX
  5
13C
  8
0
 10
1.009313225746155
 20
1.383461538461538
 30
0.0
 42
0.4142135623730951
  0
VERTEX
  5
13D
  8
0
 10
0.8843132257461552
 20
1.258461538461536
 30
0.0
 42
0.4142135623730951
  0
VERTEX
  5
13E
  8
0
 10
1.009313225746155
 20
1.133461538461535
 30
0.0
 42
0.4142135623730951
  0
VERTEX
  5
13F
  8
0
 10
1.134313225746155
 20
1.258461538461536
 30
0.0
 42
0.4142135623730951
  0
SEQEND
  5
173
  8
0
  0
POLYLINE
  5
79
  8
0
 66
     1
 10
0.0
 20
0.0
 30
0.0
 70
     1
  0
VERTEX
  5
140
  8
0
 10
1.009313225746155
 20
1.883461538461539
 30
0.0
 42
0.4142135623730951
  0
VERTEX
  5
141
  8
0
 10
0.8843132257461552
 20
1.758461538461537
 30
0.0
 42
0.4142135623730951
  0
VERTEX
  5
142
  8
0
 10
1.009313225746155
 20
1.633461538461535
 30
0.0
 42
0.4142135623730951
  0
VERTEX
  5
143
  8
0
 10
1.134313225746155
 20
1.758461538461537
 30
0.0
 42
0.4142135623730951
  0
SEQEND
  5
174
  8
0
  0
POLYLINE
  5
7A
  8
0
 66
     1
 10
0.0
 20
0.0
 30
0.0
 70
     1
  0
VERTEX
  5
144
  8
0
 10
1.009313225746155
 20
2.383461538461541
 30
0.0
 42
0.4142135623730951
  0
VERTEX
  5
145
  8
0
 10
0.8843132257461552
 20
2.258461538461539
 30
0.0
 42
0.4142135623730951
  0
VERTEX
  5
146
  8
0
 10
1.009313225746155
 20
2.133461538461537
 30
0.0
 42
0.4142135623730951
  0
VERTEX
  5
147
  8
0
 10
1.134313225746155
 20
2.258461538461539
 30
0.0
 42
0.4142135623730951
  0
SEQEND
  5
175
  8
0
  0
POLYLINE
  5
7B
  8
0
 66
     1
 10
0.0
 20
0.0
 30
0.0
 70
     1
  0
VERTEX
  5
148
  8
0
 10
1.009313225746155
 20
2.883461538461543
 30
0.0
 42
0.4142135623730951
  0
VERTEX
  5
149
  8
0
 10
0.8843132257461552
 20
2.75846153846154
 30
0.0
 42
0.4142135623730951
  0
VERTEX
  5
14A
  8
0
 10
1.009313225746155
 20
2.633461538461539
 30
0.0
 42
0.4142135623730951
  0
VERTEX
  5
14B
  8
0
 10
1.134313225746155
 20
2.75846153846154
 30
0.0
 42
0.4142135623730951
  0
SEQEND
  5
176
  8
0
  0
POLYLINE
  5
7C
  8
0
 66
     1
 10
0.0
 20
0.0
 30
0.0
 70
     1
  0
VERTEX
  5
14C
  8
0
 10
3.990686774253845
 20
0.883461538461538
 30
0.0
 42
0.4142135623730951
  0
VERTEX
  5
14D
  8
0
 10
3.865686774253845
 20
0.7584615384615362
 30
0.0
 42
0.4142135623730951
  0
VERTEX
  5
14E
  8
0
 10
3.990686774253845
 20
0.6334615384615359
 30
0.0
 42
0.4142135623730951
  0
VERTEX
  5
14F
  8
0
 10
4.115686774253845
 20
0.7584615384615362
 30
0.0
 42
0.4142135623730951
  0
SEQEND
  5
177
  8
0
  0
POLYLINE
  5
7D
  8
0
 66
     1
 10
0.0
 20
0.0
 30
0.0
 70
     1
  0
VERTEX
  5
150
  8
0
 10
3.990686774253845
 20
1.383461538461538
 30
0.0
 42
0.4142135623730951
  0
VERTEX
  5
151
  8
0
 10
3.865686774253845
 20
1.258461538461536
 30
0.0
 42
0.4142135623730951
  0
VERTEX
  5
152
  8
0
 10
3.990686774253845
 20
1.133461538461535
 30
0.0
 42
0.4142135623730951
  0
VERTEX
  5
153
  8
0
 10
4.115686774253845
 20
1.258461538461536
 30
0.0
 42
0.4142135623730951
  0
SEQEND
  5
178
  8
0
  0
POLYLINE
  5
7E
  8
0
 66
     1
 10
0.0
 20
0.0
 30
0.0
 70
     1
  0
VERTEX
  5
154
  8
0
 10
3.990686774253845
 20
1.883461538461539
 30
0.0
 42
0.4142135623730951
  0
VERTEX
  5
155
  8
0
 10
3.865686774253845
 20
1.758461538461537
 30
0.0
 42
0.4142135623730951
  0
VERTEX
  5
156
  8
0
 10
3.990686774253845
 20
1.633461538461535
 30
0.0
 42
0.4142135623730951
  0
VERTEX
  5
157
  8
0
 10
4.115686774253845
 20
1.758461538461537
 30
0.0
 42
0.4142135623730951
  0
SEQEND
  5
179
  8
0
  0
POLYLINE
  5
7F
  8
0
 66
     1
 10
0.0
 20
0.0
 30
0.0
 70
     1
  0
VERTEX
  5
158
  8
0
 10
3.990686774253845
 20
2.383461538461541
 30
0.0
 42
0.4142135623730951
  0
VERTEX
  5
159
  8
0
 10
3.865686774253845
 20
2.258461538461539
 30
0.0
 42
0.4142135623730951
  0
VERTEX
  5
15A
  8
0
 10
3.990686774253845
 20
2.133461538461537
 30
0.0
 42
0.4142135623730951
  0
VERTEX
  5
15B
  8
0
 10
4.115686774253845
 20
2.258461538461539
 30
0.0
 42
0.4142135623730951
  0
SEQEND
  5
17A
  8
0
  0
POLYLINE
  5
80
  8
0
 66
     1
 10
0.0
 20
0.0
 30
0.0
 70
     1
  0
VERTEX
  5
15C
  8
0
 10
3.990686774253845
 20
2.883461538461543
 30
0.0
 42
0.4142135623730951
  0
VERTEX
  5
15D
  8
0
 10
3.865686774253845
 20
2.75846153846154
 30
0.0
 42
0.4142135623730951
  0
VERTEX
  5
15E
  8
0
 10
3.990686774253845
 20
2.633461538461539
 30
0.0
 42
0.4142135623730951
  0
VERTEX
  5
15F
  8
0
 10
4.115686774253845
 20
2.75846153846154
 30
0.0
 42
0.4142135623730951
  0
SEQEND
  5
17B
  8
0
  0
POLYLINE
  5
81
  8
0
 66
     1
 10
0.0
 20
0.0
 30
0.0
 70
     1
  0
VERTEX
  5
160
  8
0
 10
0.3802
 20
1.997399999999999
 30
0.0
  0
VERTEX
  5
161
  8
0
 10
4.619790246961921
 20
1.997399999999999
 30
0.0
  0
VERTEX
  5
162
  8
0
 10
4.619790246961921
 20
2.507399999999999
 30
0.0
  0
VERTEX
  5
163
  8
0
 10
0.3802
 20
2.507399999999999
 30
0.0
  0
SEQEND
  5
17C
  8
0
  0
POLYLINE
  5
82
  8
0
 66
     1
 10
0.0
 20
0.0
 30
0.0
 70
     1
  0
VERTEX
  5
164
  8
0
 10
0.4019223449107141
 20
0.4958
 30
0.0
  0
VERTEX
  5
165
  8
0
 10
4.598077655089286
 20
0.4958
 30
0.0
  0
VERTEX
  5
166
  8
0
 10
4.598077655089286
 20
1.0058
 30
0.0
  0
VERTEX
  5
167
  8
0
 10
0.4019223449107141
 20
1.0058
 30
0.0
  0
SEQEND
  5
17D
  8
0
  0
ENDSEC
  0
EOF
