999
dxfrw 0.6.3
  0
SECTION
  2
HEADER
  9
$ACADVER
  1
AC1021
  9
$DWGCODEPAGE
  3
ANSI_1252
  9
$INSBASE
 10
0
 20
0
 30
0
  9
$EXTMIN
 10
3.58260044336
 20
8.734504849699999
 30
0
  9
$EXTMAX
 10
749.204334922
 20
503.920576356
 30
0
  9
$LIMMIN
 10
0
 20
0
  9
$LIMMAX
 10
420
 20
297
  9
$ORTHOMODE
 70
    0
  9
$REGENMODE
 70
    1
  9
$FILLMODE
 70
    1
  9
$QTEXTMODE
 70
    0
  9
$MIRRTEXT
 70
    0
  9
$LTSCALE
 40
1
  9
$ATTMODE
 70
    0
  9
$TEXTSIZE
 40
2.5
  9
$TRACEWID
 40
15.68
  9
$TEXTSTYLE
  7
Standard
  9
$CLAYER
  8
0
  9
$CELTYPE
  6
BYLAYER
  9
$CECOLOR
 62
  256
  9
$CELTSCALE
 40
1
  9
$DISPSILH
 70
    0
  9
$DIMSCALE
 40
1
  9
$DIMASZ
 40
2.5
  9
$DIMEXO
 40
0.625
  9
$DIMDLI
 40
3.75
  9
$DIMRND
 40
0
  9
$DIMDLE
 40
0
  9
$DIMEXE
 40
1.25
  9
$DIMTP
 40
0
  9
$DIMTM
 40
0
  9
$DIMTXT
 40
2.5
  9
$DIMCEN
 40
2.5
  9
$DIMTSZ
 40
0
  9
$DIMTOL
 70
    0
  9
$DIMLIM
 70
    0
  9
$DIMTIH
 70
    1
  9
$DIMTOH
 70
    0
  9
$DIMSE1
 70
    0
  9
$DIMSE2
 70
    0
  9
$DIMTAD
 70
    1
  9
$DIMZIN
 70
    8
  9
$DIMBLK
  1

  9
$DIMASO
 70
    1
  9
$DIMSHO
 70
    1
  9
$DIMPOST
  1

  9
$DIMAPOST
  1

  9
$DIMALT
 70
    0
  9
$DIMALTD
 70
    3
  9
$DIMALTF
 40
0.03937
  9
$DIMLFAC
 40
1
  9
$DIMTOFL
 70
    1
  9
$DIMTVP
 40
0
  9
$DIMTIX
 70
    0
  9
$DIMSOXD
 70
    0
  9
$DIMSAH
 70
    0
  9
$DIMBLK1
  1

  9
$DIMBLK2
  1

  9
$DIMSTYLE
  2
ISO-25
  9
$DIMCLRD
 70
    0
  9
$DIMCLRE
 70
    0
  9
$DIMCLRT
 70
    0
  9
$DIMTFAC
 40
1
  9
$DIMGAP
 40
0.625
  9
$DIMJUST
 70
    0
  9
$DIMSD1
 70
    0
  9
$DIMSD2
 70
    0
  9
$DIMTOLJ
 70
    0
  9
$DIMTZIN
 70
    8
  9
$DIMALTZ
 70
    0
  9
$DIMALTTZ
 70
    0
  9
$DIMUPT
 70
    0
  9
$DIMDEC
 70
    2
  9
$DIMTDEC
 70
    2
  9
$DIMALTU
 70
    2
  9
$DIMALTTD
 70
    3
  9
$DIMTXSTY
  7
STANDARD
  9
$DIMAUNIT
 70
    0
  9
$DIMADEC
 70
    1
  9
$DIMALTRND
 40
0
  9
$DIMAZIN
 70
    0
  9
$DIMDSEP
 70
   44
  9
$DIMATFIT
 70
    3
  9
$DIMFRAC
 70
    0
  9
$DIMLDRBLK
  1
STANDARD
  9
$DIMLUNIT
 70
    2
  9
$DIMLWD
 70
   -2
  9
$DIMLWE
 70
   -2
  9
$DIMTMOVE
 70
    0
  9
$DIMFXL
 40
1
  9
$DIMFXLON
 70
    0
  9
$DIMJOGANG
 40
0.7854
  9
$DIMTFILL
 70
    0
  9
$DIMTFILLCLR
 70
    0
  9
$DIMARCSYM
 70
    0
  9
$DIMLTYPE
  6

  9
$DIMLTEX1
  6

  9
$DIMLTEX2
  6

  9
$LUNITS
 70
    2
  9
$LUPREC
 70
    4
  9
$SKETCHINC
 40
1
  9
$FILLETRAD
 40
0
  9
$AUNITS
 70
    0
  9
$AUPREC
 70
    0
  9
$MENU
  1
.
  9
$ELEVATION
 40
0
  9
$PELEVATION
 40
0
  9
$THICKNESS
 40
0
  9
$LIMCHECK
 70
    0
  9
$CHAMFERA
 40
0
  9
$CHAMFERB
 40
0
  9
$CHAMFERC
 40
0
  9
$CHAMFERD
 40
0
  9
$SKPOLY
 70
    0
  9
$USRTIMER
 70
    1
  9
$ANGBASE
 50
0
  9
$ANGDIR
 70
    0
  9
$PDMODE
 70
   34
  9
$PDSIZE
 40
0
  9
$PLINEWID
 40
0
  9
$SPLFRAME
 70
    0
  9
$SPLINETYPE
 70
    2
  9
$SPLINESEGS
 70
    8
  9
$HANDSEED
  5
20000
  9
$SURFTAB1
 70
    6
  9
$SURFTAB2
 70
    6
  9
$SURFTYPE
 70
    6
  9
$SURFU
 70
    6
  9
$SURFV
 70
    6
  9
$UCSBASE
  2

  9
$UCSNAME
  2

  9
$UCSORG
 10
0
 20
0
 30
0
  9
$UCSXDIR
 10
1
 20
0
 30
0
  9
$UCSYDIR
 10
0
 20
1
 30
0
  9
$UCSORTHOREF
  2

  9
$UCSORTHOVIEW
 70
    0
  9
$UCSORGTOP
 10
0
 20
0
 30
0
  9
$UCSORGBOTTOM
 10
0
 20
0
 30
0
  9
$UCSORGLEFT
 10
0
 20
0
 30
0
  9
$UCSORGRIGHT
 10
0
 20
0
 30
0
  9
$UCSORGFRONT
 10
0
 20
0
 30
0
  9
$UCSORGBACK
 10
0
 20
0
 30
0
  9
$PUCSBASE
  2

  9
$PUCSNAME
  2

  9
$PUCSORG
 10
0
 20
0
 30
0
  9
$PUCSXDIR
 10
1
 20
0
 30
0
  9
$PUCSYDIR
 10
0
 20
1
 30
0
  9
$PUCSORTHOREF
  2

  9
$PUCSORTHOVIEW
 70
    0
  9
$PUCSORGTOP
 10
0
 20
0
 30
0
  9
$PUCSORGBOTTOM
 10
0
 20
0
 30
0
  9
$PUCSORGLEFT
 10
0
 20
0
 30
0
  9
$PUCSORGRIGHT
 10
0
 20
0
 30
0
  9
$PUCSORGFRONT
 10
0
 20
0
 30
0
  9
$PUCSORGBACK
 10
0
 20
0
 30
0
  9
$USERI1
 70
    0
  9
$USERI2
 70
    0
  9
$USERI3
 70
    0
  9
$USERI4
 70
    0
  9
$USERI5
 70
    0
  9
$USERR1
 40
0
  9
$USERR2
 40
0
  9
$USERR3
 40
0
  9
$USERR4
 40
0
  9
$USERR5
 40
0
  9
$WORLDVIEW
 70
    1
  9
$SHADEDGE
 70
    3
  9
$SHADEDIF
 70
   70
  9
$TILEMODE
 70
    1
  9
$MAXACTVP
 70
   64
  9
$PINSBASE
 10
0
 20
0
 30
0
  9
$PLIMCHECK
 70
    0
  9
$PEXTMIN
 10
0
 20
0
 30
0
  9
$PEXTMAX
 10
0
 20
0
 30
0
  9
$GRIDMODE
 70
    0
  9
$SNAPSTYLE
 70
    0
  9
$PLIMMIN
 10
0
 20
0
  9
$PLIMMAX
 10
420
 20
297
  9
$UNITMODE
 70
    0
  9
$VISRETAIN
 70
    1
  9
$PLINEGEN
 70
    0
  9
$PSLTSCALE
 70
    1
  9
$TREEDEPTH
 70
 3020
  9
$CMLSTYLE
  2
Standard
  9
$CMLJUST
 70
    0
  9
$CMLSCALE
 40
20
  9
$PROXYGRAPHICS
 70
    1
  9
$MEASUREMENT
 70
    1
  9
$CELWEIGHT
370
   -1
  9
$ENDCAPS
280
    0
  9
$JOINSTYLE
280
    0
  9
$LWDISPLAY
290
    0
  9
$INSUNITS
 70
    4
  9
$HYPERLINKBASE
  1

  9
$STYLESHEET
  1

  9
$XEDIT
290
    1
  9
$CEPSNTYPE
380
    0
  9
$PSTYLEMODE
290
    1
  9
$EXTNAMES
290
    1
  9
$PSVPSCALE
 40
0
  9
$OLESTARTUP
290
    0
  9
$SORTENTS
280
  127
  9
$INDEXCTL
280
    0
  9
$HIDETEXT
280
    1
  9
$XCLIPFRAME
290
    0
  9
$HALOGAP
280
    0
  9
$OBSCOLOR
 70
  257
  9
$OBSLTYPE
280
    0
  9
$INTERSECTIONDISPLAY
280
    0
  9
$INTERSECTIONCOLOR
 70
  257
  9
$DIMASSOC
280
    1
  9
$PROJECTNAME
  1

  9
$CAMERADISPLAY
290
    0
  9
$LENSLENGTH
 40
50
  9
$CAMERAHEIGHT
 40
0
  9
$STEPSPERSEC
 40
2
  9
$STEPSIZE
 40
50
  9
$3DDWFPREC
 40
2
  9
$PSOLWIDTH
 40
5
  9
$PSOLHEIGHT
 40
80
  9
$LOFTANG1
 40
1.570796326794897
  9
$LOFTANG2
 40
1.570796326794897
  9
$LOFTMAG1
 40
0
  9
$LOFTMAG2
 40
0
  9
$LOFTPARAM
 70
    7
  9
$LOFTNORMALS
280
    1
  9
$LATITUDE
 40
1
  9
$LONGITUDE
 40
1
  9
$NORTHDIRECTION
 40
0
  9
$TIMEZONE
 70
-8000
  9
$LIGHTGLYPHDISPLAY
280
    1
  9
$TILEMODELIGHTSYNCH
280
    1
  9
$SOLIDHIST
280
    1
  9
$SHOWHIST
280
    1
  9
$DWFFRAME
280
    2
  9
$DGNFRAME
280
    0
  9
$REALWORLDSCALE
290
    1
  9
$INTERFERECOLOR
 62
    1
  9
$CSHADOW
280
    0
  9
$SHADOWPLANELOCATION
 40
0
  0
ENDSEC
  0
SECTION
  2
CLASSES
  0
ENDSEC
  0
SECTION
  2
TABLES
  0
TABLE
  2
VPORT
  5
8
330
0
100
AcDbSymbolTable
 70
    1
  0
VPORT
  5
31
330
2
100
AcDbSymbolTableRecord
100
AcDbViewportTableRecord
  2
*ACTIVE
 70
    0
 10
0
 20
0
 11
1
 21
1
 12
452.7891541486993
 22
333.6539562211481
 13
0
 23
0
 14
10
 24
10
 15
10
 25
10
 16
0
 26
0
 36
1
 17
0
 27
0
 37
0
 40
632.6229814000977
 41
1.904648390941597
 42
50
 43
0
 44
0
 50
0
 51
0
 71
    0
 72
  100
 73
    1
 74
    3
 75
    0
 76
    0
 77
    0
 78
    0
281
    0
 65
    1
110
0
120
0
130
0
111
1
121
0
131
0
112
0
122
1
132
0
 79
    0
146
0
348
10020
 60
    7
 61
    5
292
1
282
    1
141
0
142
0
 63
  250
421
3358443
  0
ENDTAB
  0
TABLE
  2
LTYPE
  5
5
330
0
100
AcDbSymbolTable
 70
    4
  0
LTYPE
  5
14
330
5
100
AcDbSymbolTableRecord
100
AcDbLinetypeTableRecord
  2
ByBlock
 70
    0
  3

 72
   65
 73
    0
 40
0
  0
LTYPE
  5
15
330
5
100
AcDbSymbolTableRecord
100
AcDbLinetypeTableRecord
  2
ByLayer
 70
    0
  3

 72
   65
 73
    0
 40
0
  0
LTYPE
  5
16
330
5
100
AcDbSymbolTableRecord
100
AcDbLinetypeTableRecord
  2
Continuous
 70
    0
  3
Solid line
 72
   65
 73
    0
 40
0
  0
LTYPE
  5
32
330
5
100
AcDbSymbolTableRecord
100
AcDbLinetypeTableRecord
  2
DOT
 70
    0
  3
Dot . . . . . . . . . . . . . . . . . . . . . .
 72
   65
 73
    2
 40
6.35
 49
0
 74
    0
 49
-6.35
 74
    0
  0
LTYPE
  5
33
330
5
100
AcDbSymbolTableRecord
100
AcDbLinetypeTableRecord
  2
DOTTINY
 70
    0
  3
Dot (.15x) .....................................
 72
   65
 73
    2
 40
0.9525
 49
0
 74
    0
 49
-0.9525
 74
    0
  0
LTYPE
  5
34
330
5
100
AcDbSymbolTableRecord
100
AcDbLinetypeTableRecord
  2
DOT2
 70
    0
  3
Dot (.5x) .....................................
 72
   65
 73
    2
 40
3.175
 49
0
 74
    0
 49
-3.175
 74
    0
  0
LTYPE
  5
35
330
5
100
AcDbSymbolTableRecord
100
AcDbLinetypeTableRecord
  2
DOTX2
 70
    0
  3
Dot (2x) .  .  .  .  .  .  .  .  .  .  .  .  .
 72
   65
 73
    2
 40
12.7
 49
0
 74
    0
 49
-12.7
 74
    0
  0
LTYPE
  5
36
330
5
100
AcDbSymbolTableRecord
100
AcDbLinetypeTableRecord
  2
DASHED
 70
    0
  3
Dashed _ _ _ _ _ _ _ _ _ _ _ _ _ _ _ _ _
 72
   65
 73
    2
 40
19.05
 49
12.7
 74
    0
 49
-6.35
 74
    0
  0
LTYPE
  5
37
330
5
100
AcDbSymbolTableRecord
100
AcDbLinetypeTableRecord
  2
DASHEDTINY
 70
    0
  3
Dashed (.15x) _ _ _ _ _ _ _ _ _ _ _ _ _ _ _ _ _
 72
   65
 73
    2
 40
2.8575
 49
1.905
 74
    0
 49
-0.9525
 74
    0
  0
LTYPE
  5
38
330
5
100
AcDbSymbolTableRecord
100
AcDbLinetypeTableRecord
  2
DASHED2
 70
    0
  3
Dashed (.5x) _ _ _ _ _ _ _ _ _ _ _ _ _ _ _ _ _
 72
   65
 73
    2
 40
9.524999999999999
 49
6.35
 74
    0
 49
-3.175
 74
    0
  0
LTYPE
  5
39
330
5
100
AcDbSymbolTableRecord
100
AcDbLinetypeTableRecord
  2
DASHEDX2
 70
    0
  3
Dashed (2x) ____  ____  ____  ____  ____  ___
 72
   65
 73
    2
 40
38.09999999999999
 49
25.4
 74
    0
 49
-12.7
 74
    0
  0
LTYPE
  5
3A
330
5
100
AcDbSymbolTableRecord
100
AcDbLinetypeTableRecord
  2
DASHDOT
 70
    0
  3
Dash dot __ . __ . __ . __ . __ . __ . __ . __
 72
   65
 73
    4
 40
25.4
 49
12.7
 74
    0
 49
-6.35
 74
    0
 49
0
 74
    0
 49
-6.35
 74
    0
  0
LTYPE
  5
3B
330
5
100
AcDbSymbolTableRecord
100
AcDbLinetypeTableRecord
  2
DASHDOTTINY
 70
    0
  3
Dash dot (.15x) _._._._._._._._._._._._._._._.
 72
   65
 73
    4
 40
3.81
 49
1.905
 74
    0
 49
-0.9525
 74
    0
 49
0
 74
    0
 49
-0.9525
 74
    0
  0
LTYPE
  5
3C
330
5
100
AcDbSymbolTableRecord
100
AcDbLinetypeTableRecord
  2
DASHDOT2
 70
    0
  3
Dash dot (.5x) _._._._._._._._._._._._._._._.
 72
   65
 73
    4
 40
12.7
 49
6.35
 74
    0
 49
-3.175
 74
    0
 49
0
 74
    0
 49
-3.175
 74
    0
  0
LTYPE
  5
3D
330
5
100
AcDbSymbolTableRecord
100
AcDbLinetypeTableRecord
  2
DASHDOTX2
 70
    0
  3
Dash dot (2x) ____  .  ____  .  ____  .  ___
 72
   65
 73
    4
 40
50.8
 49
25.4
 74
    0
 49
-12.7
 74
    0
 49
0
 74
    0
 49
-12.7
 74
    0
  0
LTYPE
  5
3E
330
5
100
AcDbSymbolTableRecord
100
AcDbLinetypeTableRecord
  2
DIVIDE
 70
    0
  3
Divide ____ . . ____ . . ____ . . ____ . . ____
 72
   65
 73
    6
 40
31.75
 49
12.7
 74
    0
 49
-6.35
 74
    0
 49
0
 74
    0
 49
-6.35
 74
    0
 49
0
 74
    0
 49
-6.35
 74
    0
  0
LTYPE
  5
3F
330
5
100
AcDbSymbolTableRecord
100
AcDbLinetypeTableRecord
  2
DIVIDETINY
 70
    0
  3
Divide (.15x) __..__..__..__..__..__..__..__.._
 72
   65
 73
    6
 40
4.7625
 49
1.905
 74
    0
 49
-0.9525
 74
    0
 49
0
 74
    0
 49
-0.9525
 74
    0
 49
0
 74
    0
 49
-0.9525
 74
    0
  0
LTYPE
  5
40
330
5
100
AcDbSymbolTableRecord
100
AcDbLinetypeTableRecord
  2
DIVIDE2
 70
    0
  3
Divide (.5x) __..__..__..__..__..__..__..__.._
 72
   65
 73
    6
 40
15.875
 49
6.35
 74
    0
 49
-3.175
 74
    0
 49
0
 74
    0
 49
-3.175
 74
    0
 49
0
 74
    0
 49
-3.175
 74
    0
  0
LTYPE
  5
41
330
5
100
AcDbSymbolTableRecord
100
AcDbLinetypeTableRecord
  2
DIVIDEX2
 70
    0
  3
Divide (2x) ________  .  .  ________  .  .  _
 72
   65
 73
    6
 40
63.5
 49
25.4
 74
    0
 49
-12.7
 74
    0
 49
0
 74
    0
 49
-12.7
 74
    0
 49
0
 74
    0
 49
-12.7
 74
    0
  0
LTYPE
  5
42
330
5
100
AcDbSymbolTableRecord
100
AcDbLinetypeTableRecord
  2
BORDER
 70
    0
  3
Border __ __ . __ __ . __ __ . __ __ . __ __ .
 72
   65
 73
    6
 40
44.45
 49
12.7
 74
    0
 49
-6.35
 74
    0
 49
12.7
 74
    0
 49
-6.35
 74
    0
 49
0
 74
    0
 49
-6.35
 74
    0
  0
LTYPE
  5
43
330
5
100
AcDbSymbolTableRecord
100
AcDbLinetypeTableRecord
  2
BORDERTINY
 70
    0
  3
Border (.15x) __.__.__.__.__.__.__.__.__.__.__.
 72
   65
 73
    6
 40
6.6675
 49
1.905
 74
    0
 49
-0.9525
 74
    0
 49
1.905
 74
    0
 49
-0.9525
 74
    0
 49
0
 74
    0
 49
-0.9525
 74
    0
  0
LTYPE
  5
44
330
5
100
AcDbSymbolTableRecord
100
AcDbLinetypeTableRecord
  2
BORDER2
 70
    0
  3
Border (.5x) __.__.__.__.__.__.__.__.__.__.__.
 72
   65
 73
    6
 40
22.225
 49
6.35
 74
    0
 49
-3.175
 74
    0
 49
6.35
 74
    0
 49
-3.175
 74
    0
 49
0
 74
    0
 49
-3.175
 74
    0
  0
LTYPE
  5
45
330
5
100
AcDbSymbolTableRecord
100
AcDbLinetypeTableRecord
  2
BORDERX2
 70
    0
  3
Border (2x) ____  ____  .  ____  ____  .  ___
 72
   65
 73
    6
 40
88.89999999999999
 49
25.4
 74
    0
 49
-12.7
 74
    0
 49
25.4
 74
    0
 49
-12.7
 74
    0
 49
0
 74
    0
 49
-12.7
 74
    0
  0
LTYPE
  5
46
330
5
100
AcDbSymbolTableRecord
100
AcDbLinetypeTableRecord
  2
CENTER
 70
    0
  3
Center ____ _ ____ _ ____ _ ____ _ ____ _ ____
 72
   65
 73
    4
 40
50.8
 49
31.75
 74
    0
 49
-6.35
 74
    0
 49
6.35
 74
    0
 49
-6.35
 74
    0
  0
LTYPE
  5
47
330
5
100
AcDbSymbolTableRecord
100
AcDbLinetypeTableRecord
  2
CENTERTINY
 70
    0
  3
Center (.15x) ___ _ ___ _ ___ _ ___ _ ___ _ ___
 72
   65
 73
    4
 40
7.62
 49
4.7625
 74
    0
 49
-0.9525
 74
    0
 49
0.9525
 74
    0
 49
-0.9525
 74
    0
  0
LTYPE
  5
48
330
5
100
AcDbSymbolTableRecord
100
AcDbLinetypeTableRecord
  2
CENTER2
 70
    0
  3
Center (.5x) ___ _ ___ _ ___ _ ___ _ ___ _ ___
 72
   65
 73
    4
 40
28.575
 49
19.05
 74
    0
 49
-3.175
 74
    0
 49
3.175
 74
    0
 49
-3.175
 74
    0
  0
LTYPE
  5
49
330
5
100
AcDbSymbolTableRecord
100
AcDbLinetypeTableRecord
  2
CENTERX2
 70
    0
  3
Center (2x) ________  __  ________  __  _____
 72
   65
 73
    4
 40
101.6
 49
63.5
 74
    0
 49
-12.7
 74
    0
 49
12.7
 74
    0
 49
-12.7
 74
    0
  0
ENDTAB
  0
TABLE
  2
LAYER
  5
2
330
0
100
AcDbSymbolTable
 70
    1
  0
LAYER
  5
10
330
2
100
AcDbSymbolTableRecord
100
AcDbLayerTableRecord
  2
0
 70
    0
 62
    9
  6
CONTINUOUS
370
    0
390
F
  0
ENDTAB
  0
TABLE
  2
STYLE
  5
3
330
0
100
AcDbSymbolTable
 70
    3
  0
STYLE
  5
4A
330
2
100
AcDbSymbolTableRecord
100
AcDbTextStyleTableRecord
  2
Standard
 70
    0
 40
0
 41
1
 50
0
 71
    0
 42
1
  3
txt
  4

  0
ENDTAB
  0
TABLE
  2
VIEW
  5
6
330
0
100
AcDbSymbolTable
 70
    0
  0
ENDTAB
  0
TABLE
  2
UCS
  5
7
330
0
100
AcDbSymbolTable
 70
    0
  0
ENDTAB
  0
TABLE
  2
APPID
  5
9
330
0
100
AcDbSymbolTable
 70
    1
  0
APPID
  5
12
330
9
100
AcDbSymbolTableRecord
100
AcDbRegAppTableRecord
  2
ACAD
 70
    0
  0
APPID
  5
4B
330
9
100
AcDbSymbolTableRecord
100
AcDbRegAppTableRecord
  2
LibreCad
 70
    0
  0
ENDTAB
  0
TABLE
  2
DIMSTYLE
  5
A
330
0
100
AcDbSymbolTable
 70
    1
100
AcDbDimStyleTable
 71
    1
  0
DIMSTYLE
105
4C
330
A
100
AcDbSymbolTableRecord
100
AcDbDimStyleTableRecord
  2
Standard
 70
    0
 40
1
 41
2.5
 42
0.625
 43
0.38
 44
1.25
 45
0
 46
0
 47
0
 48
0
 49
1
140
2.5
141
0.09
142
0
143
25.4
144
1
145
0
146
1
147
0.625
148
0
 71
    0
 72
    0
 73
    1
 74
    1
 75
    0
 76
    0
 77
    0
 78
    1
 79
    0
170
    0
171
    2
172
    0
173
    0
174
    0
175
    0
176
    0
177
    0
178
    0
179
    1
271
    2
272
    4
273
    2
274
    2
275
    0
276
    0
277
    2
278
    0
279
    0
280
    0
281
    0
282
    0
283
    1
284
    0
285
    0
286
    0
288
    0
289
    3
340
standard
341

371
   -2
372
   -2
  0
ENDTAB
  0
TABLE
  2
BLOCK_RECORD
  5
1
330
0
100
AcDbSymbolTable
 70
    2
  0
BLOCK_RECORD
  5
1F
330
1
100
AcDbSymbolTableRecord
100
AcDbBlockTableRecord
  2
*Model_Space
 70
    0
280
    1
281
    0
  0
BLOCK_RECORD
  5
1E
330
1
100
AcDbSymbolTableRecord
100
AcDbBlockTableRecord
  2
*Paper_Space
 70
    0
280
    1
281
    0
  0
ENDTAB
  0
ENDSEC
  0
SECTION
  2
BLOCKS
  0
BLOCK
  5
20
330
1F
100
AcDbEntity
  8
0
100
AcDbBlockBegin
  2
*Model_Space
 70
    0
 10
0
 20
0
 30
0
  3
*Model_Space
  1

  0
ENDBLK
  5
21
330
1F
100
AcDbEntity
  8
0
100
AcDbBlockEnd
  0
BLOCK
  5
1C
330
1B
100
AcDbEntity
  8
0
100
AcDbBlockBegin
  2
*Paper_Space
 70
    0
 10
0
 20
0
 30
0
  3
*Paper_Space
  1

  0
ENDBLK
  5
1D
330
1F
100
AcDbEntity
  8
0
100
AcDbBlockEnd
  0
ENDSEC
  0
SECTION
  2
ENTITIES
  0
LINE
  5
4D
100
AcDbEntity
  8
0
  6
ByLayer
 62
   19
420
2500134
370
   -3
100
AcDbLine
 10
218.579275465
 20
398.049469914
 11
221.556685241
 21
393.048529827
  0
ARC
  5
4E
100
AcDbEntity
  8
0
  6
ByLayer
 62
   19
420
2500134
370
   -3
100
AcDbCircle
 10
215.928654129
 20
385.914767871
 40
3.00000257004
100
AcDbArc
 50
270.000220929
 51
331.419037407
  0
ELLIPSE
  5
4F
100
AcDbEntity
  8
0
  6
ByLayer
 62
   19
420
2500134
370
   -3
100
AcDbEllipse
 10
76.9085532813
 20
400.175000588
 30
0
 11
-0.0543008750596
 21
1.99926271785
 31
0
 40
0.999999332778
 41
1.09129323519
 42
1.59795397513
  0
ARC
  5
50
100
AcDbEntity
  8
0
  6
ByLayer
 62
   19
420
2500134
370
   -3
100
AcDbCircle
 10
84.185581748
 20
401.954070344
 40
6.00000809234
100
AcDbArc
 50
32.4746091833
 51
90.00022107620001
  0
ARC
  5
51
100
AcDbEntity
  8
0
  6
ByLayer
 62
   19
420
2500134
370
   -3
100
AcDbCircle
 10
216.001543495
 20
396.514768149
 40
3.00000255765
100
AcDbArc
 50
30.7682582885
 51
90.0002209295
  0
ARC
  5
52
100
AcDbEntity
  8
0
  6
ByLayer
 62
   19
420
2500134
370
   -3
100
AcDbCircle
 10
218.978953266
 20
391.513828072
 40
3.000002564
100
AcDbArc
 50
331.419037199
 51
30.7682580811
  0
LINE
  5
53
100
AcDbEntity
  8
0
  6
ByLayer
 62
   19
420
2500134
370
   -3
100
AcDbLine
 10
87.8886838407
 20
400.584269511
 11
87.8876258505
 21
400.582437
  0
LINE
  5
54
100
AcDbEntity
  8
0
  6
ByLayer
 62
   19
420
2500134
370
   -3
100
AcDbLine
 10
80.9672646106
 20
404.584057993
 11
78.6578758532
 21
400.584049132
  0
LINE
  5
55
100
AcDbEntity
  8
0
  6
ByLayer
 62
   19
420
2500134
370
   -3
100
AcDbLine
 10
78.65108569269999
 20
400.584233556
 11
80.9604698059
 21
404.584242543
  0
LINE
  5
56
100
AcDbEntity
  8
0
  6
ByLayer
 62
   19
420
2500134
370
   -3
100
AcDbLine
 10
78.65580315459999
 20
400.57606274
 11
78.65108569269999
 21
400.584233556
  0
LINE
  5
57
100
AcDbEntity
  8
0
  6
ByLayer
 62
   19
420
2500134
370
   -3
100
AcDbLine
 10
78.6578758532
 20
400.584049132
 11
78.6625933247
 21
400.575878316
  0
LINE
  5
58
100
AcDbEntity
  8
0
  6
ByLayer
 62
   19
420
2500134
370
   -3
100
AcDbLine
 10
85.5792688799
 20
404.58426052
 11
87.8886838407
 21
400.584269511
  0
LINE
  5
59
100
AcDbEntity
  8
0
  6
ByLayer
 62
   19
420
2500134
370
   -3
100
AcDbLine
 10
80.9604698059
 20
404.584242543
 11
85.5792688799
 21
404.58426052
  0
LINE
  5
5A
100
AcDbEntity
  8
0
  6
ByLayer
 62
   19
420
2500134
370
   -3
100
AcDbLine
 10
78.66153533240001
 20
400.574045806
 11
78.6625933247
 21
400.575878316
  0
LINE
  5
5B
100
AcDbEntity
  8
0
  6
ByLayer
 62
   19
420
2500134
370
   -3
100
AcDbLine
 10
78.65580315459999
 20
400.57606274
 11
78.6547451645
 21
400.57423023
  0
LINE
  5
5C
100
AcDbEntity
  8
0
  6
ByLayer
 62
   19
420
2500134
370
   -3
100
AcDbLine
 10
199.472811924
 20
399.514703815
 11
216.001531927
 21
399.514768148
  0
LINE
  5
5D
100
AcDbEntity
  8
0
  6
ByLayer
 62
   19
420
2500134
370
   -3
100
AcDbLine
 10
182.249597176
 20
395.914636781
 11
106.113200437
 21
395.914340445
  0
ELLIPSE
  5
5E
100
AcDbEntity
  8
0
  6
ByLayer
 62
   19
420
2500134
370
   -3
100
AcDbEllipse
 10
106.113123318
 20
415.914340436
 30
0
 11
-0.543008750641
 21
-19.9926271785
 31
0
 40
0.999999332778
 41
5.30633224987
 42
6.31034295552
  0
LINE
  5
5F
100
AcDbEntity
  8
0
  6
ByLayer
 62
   19
420
2500134
370
   -3
100
AcDbLine
 10
80.1158923804
 20
407.954239254
 11
84.17875731460001
 21
407.954255068
  0
LINE
  5
60
100
AcDbEntity
  8
0
  6
ByLayer
 62
   19
420
2500134
370
   -3
100
AcDbLine
 10
75.1598111258
 20
401.145514201
 11
78.3671579368
 21
406.924752868
  0
LINE
  5
61
100
AcDbEntity
  8
0
  6
ByLayer
 62
   19
420
2500134
370
   -3
100
AcDbLine
 10
74.90858781839999
 20
391.563957337
 11
74.9085546148
 21
400.174992804
  0
LINE
  5
62
100
AcDbEntity
  8
0
  6
ByLayer
 62
   19
420
2500134
370
   -3
100
AcDbLine
 10
78.5311659634
 20
384.426146718
 11
75.3036750741
 21
390.075872496
  0
LINE
  5
63
100
AcDbEntity
  8
0
  6
ByLayer
 62
   19
420
2500134
370
   -3
100
AcDbLine
 10
215.928665696
 20
382.914767872
 11
81.1360882754
 21
382.914243237
  0
LINE
  5
64
100
AcDbEntity
  8
0
  6
ByLayer
 62
   19
420
2500134
370
   -3
100
AcDbLine
 10
221.6133809
 20
390.078626812
 11
218.563081768
 21
384.47956662
  0
LINE
  5
65
100
AcDbEntity
  8
0
  6
ByLayer
 62
   19
420
2500134
370
   -3
100
AcDbLine
 10
87.8923433124
 20
400.574266184
 11
87.8876258505
 21
400.582437
  0
LINE
  5
66
100
AcDbEntity
  8
0
  6
ByLayer
 62
   19
420
2500134
370
   -3
100
AcDbLine
 10
85.58296156900001
 20
396.574261302
 11
87.8923433124
 21
400.574266184
  0
LINE
  5
67
100
AcDbEntity
  8
0
  6
ByLayer
 62
   19
420
2500134
370
   -3
100
AcDbLine
 10
80.9641577555
 20
396.574243325
 11
85.58296156900001
 21
396.574261302
  0
LINE
  5
68
100
AcDbEntity
  8
0
  6
ByLayer
 62
   19
420
2500134
370
   -3
100
AcDbLine
 10
78.6547451645
 20
400.57423023
 11
80.9641577555
 21
396.574243325
  0
LINE
  5
69
100
AcDbEntity
  8
0
  6
ByLayer
 62
   19
420
2500134
370
   -3
100
AcDbLine
 10
215.453891733
 20
396.320326797
 11
218.340652667
 21
391.320305368
  0
LINE
  5
6A
100
AcDbEntity
  8
0
  6
ByLayer
 62
   19
420
2500134
370
   -3
100
AcDbLine
 10
218.340652667
 20
391.320305368
 11
215.453892136
 21
386.320311379
  0
LINE
  5
6B
100
AcDbEntity
  8
0
  6
ByLayer
 62
   19
420
2500134
370
   -3
100
AcDbLine
 10
215.453892136
 20
386.320311379
 11
209.680371004
 21
386.320339012
  0
LINE
  5
6C
100
AcDbEntity
  8
0
  6
ByLayer
 62
   19
420
2500134
370
   -3
100
AcDbLine
 10
209.680371004
 20
386.320339012
 11
206.793609959
 21
391.320360635
  0
LINE
  5
6D
100
AcDbEntity
  8
0
  6
ByLayer
 62
   19
420
2500134
370
   -3
100
AcDbLine
 10
206.793609959
 20
391.320360635
 11
209.680370379
 21
396.320354431
  0
LINE
  5
6E
100
AcDbEntity
  8
0
  6
ByLayer
 62
   19
420
2500134
370
   -3
100
AcDbLine
 10
209.680370379
 20
396.320354238
 11
215.453891733
 21
396.320326604
  0
LINE
  5
6F
100
AcDbEntity
  8
0
  6
ByLayer
 62
   19
420
2500134
370
   -3
100
AcDbLine
 10
87.4400388591
 20
389.394515874
 11
85.41929682519999
 21
392.894514837
  0
LINE
  5
70
100
AcDbEntity
  8
0
  6
ByLayer
 62
   19
420
2500134
370
   -3
100
AcDbLine
 10
85.4193277601
 20
385.89450801
 11
87.4400388591
 21
389.394515874
  0
LINE
  5
71
100
AcDbEntity
  8
0
  6
ByLayer
 62
   19
420
2500134
370
   -3
100
AcDbLine
 10
81.3778785703
 20
385.89449911
 11
85.41932776
 21
385.89451484
  0
LINE
  5
72
100
AcDbEntity
  8
0
  6
ByLayer
 62
   19
420
2500134
370
   -3
100
AcDbLine
 10
79.35714047970001
 20
389.394484414
 11
81.3778785703
 21
385.89449228
  0
LINE
  5
73
100
AcDbEntity
  8
0
  6
ByLayer
 62
   19
420
2500134
370
   -3
100
AcDbLine
 10
81.3778555219
 20
392.894499107
 11
79.35714047970001
 21
389.394484414
  0
LINE
  5
74
100
AcDbEntity
  8
0
  6
ByLayer
 62
   19
420
2500134
370
   -3
100
AcDbLine
 10
85.41929682519999
 20
392.894514837
 11
81.3778555219
 21
392.894499107
  0
ARC
  5
75
100
AcDbEntity
  8
0
  6
ByLayer
 62
   19
420
2500134
370
   -3
100
AcDbCircle
 10
106.119968787
 20
415.914154509
 40
20.0000269745
100
AcDbArc
 50
212.474609183
 51
269.99153044
  0
LINE
  5
76
100
AcDbEntity
  8
0
  6
ByLayer
 62
   19
420
2500134
370
   -3
100
AcDbLine
 10
80.9709525881
 20
396.574058774
 11
78.66153533240001
 21
400.574045806
  0
LINE
  5
77
100
AcDbEntity
  8
0
  6
ByLayer
 62
   19
420
2500134
370
   -3
100
AcDbLine
 10
209.687424631
 20
396.320162834
 11
206.800658406
 21
391.320169196
  0
LINE
  5
78
100
AcDbEntity
  8
0
  6
ByLayer
 62
   19
420
2500134
370
   -3
100
AcDbLine
 10
206.800658406
 20
391.320169196
 11
209.687425282
 21
386.320147415
  0
LINE
  5
79
100
AcDbEntity
  8
0
  6
ByLayer
 62
   19
420
2500134
370
   -3
100
AcDbLine
 10
79.3639320918
 20
389.39429995
 11
81.38465119769999
 21
392.894314533
  0
ELLIPSE
  5
7A
100
AcDbEntity
  8
0
  6
ByLayer
 62
   19
420
2500134
370
   -3
100
AcDbEllipse
 10
84.1788
 20
401.954
 30
0
 11
3.67381906147e-016
 21
6
 31
0
 40
1
 41
-0.977384381117
 42
0
  0
ELLIPSE
  5
7B
100
AcDbEntity
  8
0
  6
ByLayer
 62
   19
420
2500134
370
   -3
100
AcDbEllipse
 10
80.1159
 20
405.954
 30
0
 11
1.22460635382e-016
 21
2
 31
0
 40
1
 41
0
 42
1.06465084372
  0
ELLIPSE
  5
7C
100
AcDbEntity
  8
0
  6
ByLayer
 62
   19
420
2500134
370
   -3
100
AcDbEllipse
 10
77.90860000000001
 20
391.564
 30
0
 11
1.83690953073e-016
 21
3
 31
0
 40
1
 41
1.57079632679
 42
2.12930168743
  0
ELLIPSE
  5
7D
100
AcDbEntity
  8
0
  6
ByLayer
 62
   19
420
2500134
370
   -3
100
AcDbEllipse
 10
81.1361
 20
385.914
 30
0
 11
1.83690953073e-016
 21
3
 31
0
 40
1
 41
2.09439510239
 42
3.14159265359
  0
ELLIPSE
  5
7E
100
AcDbEntity
  8
0
  6
ByLayer
 62
   19
420
2500134
370
   -3
100
AcDbEllipse
 10
182.249
 20
435.915
 30
0
 11
2.44921270764e-015
 21
40
 31
0
 40
1
 41
3.14159265359
 42
3.56047167407
  0
ELLIPSE
  5
7F
100
AcDbEntity
  8
0
  6
ByLayer
 62
   19
420
2500134
370
   -3
100
AcDbEllipse
 10
199.473
 20
396.515
 30
0
 11
1.83690953073e-016
 21
3
 31
0
 40
1
 41
0
 42
0.436332312999
  0
ENDSEC
  0
SECTION
  2
OBJECTS
  0
DICTIONARY
  5
C
330
0
100
AcDbDictionary
281
    1
  3
ACAD_GROUP
350
D
  0
DICTIONARY
  5
D
330
C
100
AcDbDictionary
281
    1
  0
ENDSEC
  0
EOF
