  0
SECTION
  2
HEADER
  9
$ACADVER
  1
AC1014
  9
$HANDSEED
  5
FFFF
  9
$MEASUREMENT
 70
     1
  0
ENDSEC
  0
SECTION
  2
TABLES
  0
TABLE
  2
VPORT
  5
8
330
0
100
AcDbSymbolTable
 70
     4
  0
VPORT
  5
2E
330
8
100
AcDbSymbolTableRecord
100
AcDbViewportTableRecord
  2
*ACTIVE
 70
     0
 10
0.0
 20
0.0
 11
1.0
 21
1.0
 12
210.0
 22
148.5
 13
0.0
 23
0.0
 14
10.0
 24
10.0
 15
10.0
 25
10.0
 16
0.0
 26
0.0
 36
1.0
 17
0.0
 27
0.0
 37
0.0
 40
341.0
 41
1.24
 42
50.0
 43
0.0
 44
0.0
 50
0.0
 51
0.0
 71
     0
 72
   100
 73
     1
 74
     3
 75
     0
 76
     0
 77
     0
 78
     0
  0
ENDTAB
  0
TABLE
  2
LTYPE
  5
5
330
0
100
AcDbSymbolTable
 70
     1
  0
LTYPE
  5
14
330
5
100
AcDbSymbolTableRecord
100
AcDbLinetypeTableRecord
  2
BYBLOCK
 70
     0
  3

 72
    65
 73
     0
 40
0.0
  0
LTYPE
  5
15
330
5
100
AcDbSymbolTableRecord
100
AcDbLinetypeTableRecord
  2
BYLAYER
 70
     0
  3

 72
    65
 73
     0
 40
0.0
  0
LTYPE
  5
16
330
5
100
AcDbSymbolTableRecord
100
AcDbLinetypeTableRecord
  2
CONTINUOUS
 70
     0
  3
Solid line
 72
    65
 73
     0
 40
0.0
  0
ENDTAB
  0
TABLE
  2
LAYER
  5
2
100
AcDbSymbolTable
 70
2
  0
LAYER
  5
50
100
AcDbSymbolTableRecord
100
AcDbLayerTableRecord
  2
0
 70
0
  6
CONTINUOUS
  0
LAYER
  5
51
100
AcDbSymbolTableRecord
100
AcDbLayerTableRecord
  2
Layer_1
 70
0
  6
CONTINUOUS
  0
ENDTAB
  0
TABLE
  2
STYLE
  5
3
330
0
100
AcDbSymbolTable
 70
     1
  0
STYLE
  5
11
330
3
100
AcDbSymbolTableRecord
100
AcDbTextStyleTableRecord
  2
STANDARD
 70
     0
 40
0.0
 41
1.0
 50
0.0
 71
     0
 42
2.5
  3
txt
  4

  0
ENDTAB
  0
TABLE
  2
VIEW
  5
6
330
0
100
AcDbSymbolTable
 70
     0
  0
ENDTAB
  0
TABLE
  2
UCS
  5
7
330
0
100
AcDbSymbolTable
 70
     0
  0
ENDTAB
  0
TABLE
  2
APPID
  5
9
330
0
100
AcDbSymbolTable
 70
     2
  0
APPID
  5
12
330
9
100
AcDbSymbolTableRecord
100
AcDbRegAppTableRecord
  2
ACAD
 70
     0
  0
ENDTAB
  0
TABLE
  2
DIMSTYLE
  5
A
330
0
100
AcDbSymbolTable
 70
     1
  0
DIMSTYLE
105
27
330
A
100
AcDbSymbolTableRecord
100
AcDbDimStyleTableRecord
  2
ISO-25
 70
     0
  3

  4

  5

  6

  7

 40
1.0
 41
2.5
 42
0.625
 43
3.75
 44
1.25
 45
0.0
 46
0.0
 47
0.0
 48
0.0
140
2.5
141
2.5
142
0.0
143
0.03937007874016
144
1.0
145
0.0
146
1.0
147
0.625
 71
     0
 72
     0
 73
     0
 74
     0
 75
     0
 76
     0
 77
     1
 78
     8
170
     0
171
     3
172
     1
173
     0
174
     0
175
     0
176
     0
177
     0
178
     0
270
     2
271
     2
272
     2
273
     2
274
     3
340
11
275
     0
280
     0
281
     0
282
     0
283
     0
284
     8
285
     0
286
     0
287
     3
288
     0
  0
ENDTAB
  0
TABLE
  2
BLOCK_RECORD
  5
1
330
0
100
AcDbSymbolTable
 70
     1
  0
BLOCK_RECORD
  5
1F
330
1
100
AcDbSymbolTableRecord
100
AcDbBlockTableRecord
  2
*MODEL_SPACE
  0
BLOCK_RECORD
  5
1B
330
1
100
AcDbSymbolTableRecord
100
AcDbBlockTableRecord
  2
*PAPER_SPACE
  0
ENDTAB
  0
ENDSEC
  0
SECTION
  2
BLOCKS
  0
BLOCK
  5
20
330
1F
100
AcDbEntity
  8
0
100
AcDbBlockBegin
  2
*MODEL_SPACE
 70
     0
 10
0.0
 20
0.0
 30
0.0
  3
*MODEL_SPACE
  1

  0
ENDBLK
  5
21
330
1F
100
AcDbEntity
  8
0
100
AcDbBlockEnd
  0
BLOCK
  5
1C
330
1B
100
AcDbEntity
 67
     1
  8
0
100
AcDbBlockBegin
  2
*PAPER_SPACE
  1

  0
ENDBLK
  5
1D
330
1B
100
AcDbEntity
 67
     1
  8
0
100
AcDbBlockEnd
  0
ENDSEC
  0
SECTION
  2
ENTITIES
  0
SPLINE
  5
100
100
AcDbEntity
  8
Layer_1
 62
7
100
AcDbSpline
 70
8
 71
3
 72
8
 73
4
 74
0
 40
0
 40
0
 40
0
 40
0
 40
1
 40
1
 40
1
 40
1
 10
-85.069346
 20
38.886208
 30
0.0
 10
-84.114845
 20
41.281841
 30
0.0
 10
-81.987761
 20
45.288303
 30
0.0
 10
-86.212003
 20
45.513608
 30
0.0
  0
SPLINE
  5
101
100
AcDbEntity
  8
Layer_1
 62
7
100
AcDbSpline
 70
8
 71
3
 72
8
 73
4
 74
0
 40
0
 40
0
 40
0
 40
0
 40
1
 40
1
 40
1
 40
1
 10
-86.212003
 20
45.513608
 30
0.0
 10
-92.019624
 20
47.665781
 30
0.0
 10
-97.026631
 20
51.487649
 30
0.0
 10
-102.003005
 20
55.095548
 30
0.0
  0
SPLINE
  5
102
100
AcDbEntity
  8
Layer_1
 62
7
100
AcDbSpline
 70
8
 71
3
 72
8
 73
4
 74
0
 40
0
 40
0
 40
0
 40
0
 40
1
 40
1
 40
1
 40
1
 10
-102.003005
 20
55.095548
 30
0.0
 10
-103.529882
 20
56.263389
 30
0.0
 10
-105.051443
 20
57.438184
 30
0.0
 10
-106.576072
 20
58.608997
 30
0.0
  0
SPLINE
  5
103
100
AcDbEntity
  8
Layer_1
 62
7
100
AcDbSpline
 70
8
 71
3
 72
8
 73
4
 74
0
 40
0
 40
0
 40
0
 40
0
 40
1
 40
1
 40
1
 40
1
 10
-106.576072
 20
58.608997
 30
0.0
 10
-107.878654
 20
56.591087
 30
0.0
 10
-109.714483
 20
54.817913
 30
0.0
 10
-110.404474
 20
52.479945
 30
0.0
  0
SPLINE
  5
104
100
AcDbEntity
  8
Layer_1
 62
7
100
AcDbSpline
 70
8
 71
3
 72
8
 73
4
 74
0
 40
0
 40
0
 40
0
 40
0
 40
1
 40
1
 40
1
 40
1
 10
-110.404474
 20
52.479945
 30
0.0
 10
-110.177874
 20
49.181533
 30
0.0
 10
-106.841781
 20
47.419103
 30
0.0
 10
-104.657603
 20
45.377686
 30
0.0
  0
SPLINE
  5
105
100
AcDbEntity
  8
Layer_1
 62
7
100
AcDbSpline
 70
8
 71
3
 72
8
 73
4
 74
0
 40
0
 40
0
 40
0
 40
0
 40
1
 40
1
 40
1
 40
1
 10
-104.657603
 20
45.377686
 30
0.0
 10
-99.484195
 20
41.319655
 30
0.0
 10
-94.298347
 20
37.192187
 30
0.0
 10
-88.572298
 20
33.933417
 30
0.0
  0
SPLINE
  5
106
100
AcDbEntity
  8
Layer_1
 62
7
100
AcDbSpline
 70
8
 71
3
 72
8
 73
4
 74
0
 40
0
 40
0
 40
0
 40
0
 40
1
 40
1
 40
1
 40
1
 10
-88.572298
 20
33.933417
 30
0.0
 10
-86.609081
 20
33.299090
 30
0.0
 10
-85.957438
 20
37.652549
 30
0.0
 10
-85.069346
 20
38.886208
 30
0.0
  0
SPLINE
  5
107
100
AcDbEntity
  8
Layer_1
 62
7
100
AcDbSpline
 70
8
 71
3
 72
8
 73
4
 74
0
 40
0
 40
0
 40
0
 40
0
 40
1
 40
1
 40
1
 40
1
 10
-101.908098
 20
40.760785
 30
0.0
 10
-105.786278
 20
43.710830
 30
0.0
 10
-109.845776
 20
46.860195
 30
0.0
 10
-112.220244
 20
51.206052
 30
0.0
  0
SPLINE
  5
108
100
AcDbEntity
  8
Layer_1
 62
7
100
AcDbSpline
 70
8
 71
3
 72
8
 73
4
 74
0
 40
0
 40
0
 40
0
 40
0
 40
1
 40
1
 40
1
 40
1
 10
-112.220244
 20
51.206052
 30
0.0
 10
-112.940124
 20
54.184215
 30
0.0
 10
-116.063391
 20
56.022921
 30
0.0
 10
-118.783426
 20
56.798656
 30
0.0
  0
SPLINE
  5
109
100
AcDbEntity
  8
Layer_1
 62
7
100
AcDbSpline
 70
8
 71
3
 72
8
 73
4
 74
0
 40
0
 40
0
 40
0
 40
0
 40
1
 40
1
 40
1
 40
1
 10
-118.783426
 20
56.798656
 30
0.0
 10
-120.229988
 20
55.097796
 30
0.0
 10
-121.536913
 20
53.120292
 30
0.0
 10
-123.203236
 20
51.532131
 30
0.0
  0
SPLINE
  5
10a
100
AcDbEntity
  8
Layer_1
 62
7
100
AcDbSpline
 70
8
 71
3
 72
8
 73
4
 74
0
 40
0
 40
0
 40
0
 40
0
 40
1
 40
1
 40
1
 40
1
 10
-123.203236
 20
51.532131
 30
0.0
 10
-124.122817
 20
50.755005
 30
0.0
 10
-124.820295
 20
49.997235
 30
0.0
 10
-123.338433
 20
49.429297
 30
0.0
  0
SPLINE
  5
10b
100
AcDbEntity
  8
Layer_1
 62
7
100
AcDbSpline
 70
8
 71
3
 72
8
 73
4
 74
0
 40
0
 40
0
 40
0
 40
0
 40
1
 40
1
 40
1
 40
1
 10
-123.338433
 20
49.429297
 30
0.0
 10
-118.072690
 20
45.311297
 30
0.0
 10
-112.354375
 20
41.589574
 30
0.0
 10
-105.818472
 20
39.869797
 30
0.0
  0
SPLINE
  5
10c
100
AcDbEntity
  8
Layer_1
 62
7
100
AcDbSpline
 70
8
 71
3
 72
8
 73
4
 74
0
 40
0
 40
0
 40
0
 40
0
 40
1
 40
1
 40
1
 40
1
 10
-105.818472
 20
39.869797
 30
0.0
 10
-104.380197
 20
39.799731
 30
0.0
 10
-100.113569
 20
37.515484
 30
0.0
 10
-100.038245
 20
39.251758
 30
0.0
  0
SPLINE
  5
10d
100
AcDbEntity
  8
Layer_1
 62
7
100
AcDbSpline
 70
8
 71
3
 72
8
 73
4
 74
0
 40
0
 40
0
 40
0
 40
0
 40
1
 40
1
 40
1
 40
1
 10
-100.038245
 20
39.251758
 30
0.0
 10
-100.595000
 20
39.831183
 30
0.0
 10
-101.259960
 20
40.291260
 30
0.0
 10
-101.908060
 20
40.760785
 30
0.0
  0
SPLINE
  5
10e
100
AcDbEntity
  8
Layer_1
 62
7
100
AcDbSpline
 70
8
 71
3
 72
8
 73
4
 74
0
 40
0
 40
0
 40
0
 40
0
 40
1
 40
1
 40
1
 40
1
 10
-72.019962
 20
48.461252
 30
0.0
 10
-68.742772
 20
50.908339
 30
0.0
 10
-64.813633
 20
52.252755
 30
0.0
 10
-60.759374
 20
52.617734
 30
0.0
  0
SPLINE
  5
10f
100
AcDbEntity
  8
Layer_1
 62
7
100
AcDbSpline
 70
8
 71
3
 72
8
 73
4
 74
0
 40
0
 40
0
 40
0
 40
0
 40
1
 40
1
 40
1
 40
1
 10
-60.759374
 20
52.617734
 30
0.0
 10
-59.296791
 20
52.828465
 30
0.0
 10
-57.834208
 20
53.039139
 30
0.0
 10
-56.371626
 20
53.249851
 30
0.0
  0
SPLINE
  5
110
100
AcDbEntity
  8
Layer_1
 62
7
100
AcDbSpline
 70
8
 71
3
 72
8
 73
4
 74
0
 40
0
 40
0
 40
0
 40
0
 40
1
 40
1
 40
1
 40
1
 10
-56.371626
 20
53.249851
 30
0.0
 10
-55.337592
 20
63.576837
 30
0.0
 10
-54.205050
 20
73.942685
 30
0.0
 10
-54.409171
 20
84.333202
 30
0.0
  0
SPLINE
  5
111
100
AcDbEntity
  8
Layer_1
 62
7
100
AcDbSpline
 70
8
 71
3
 72
8
 73
4
 74
0
 40
0
 40
0
 40
0
 40
0
 40
1
 40
1
 40
1
 40
1
 10
-54.409171
 20
84.333202
 30
0.0
 10
-55.278079
 20
87.258292
 30
0.0
 10
-59.845412
 20
86.759410
 30
0.0
 10
-62.376909
 20
87.692403
 30
0.0
  0
SPLINE
  5
112
100
AcDbEntity
  8
Layer_1
 62
7
100
AcDbSpline
 70
8
 71
3
 72
8
 73
4
 74
0
 40
0
 40
0
 40
0
 40
0
 40
1
 40
1
 40
1
 40
1
 10
-62.376909
 20
87.692403
 30
0.0
 10
-64.960566
 20
87.888085
 30
0.0
 10
-69.268647
 20
89.428753
 30
0.0
 10
-70.635065
 20
86.478518
 30
0.0
  0
SPLINE
  5
113
100
AcDbEntity
  8
Layer_1
 62
7
100
AcDbSpline
 70
8
 71
3
 72
8
 73
4
 74
0
 40
0
 40
0
 40
0
 40
0
 40
1
 40
1
 40
1
 40
1
 10
-70.635065
 20
86.478518
 30
0.0
 10
-70.931121
 20
78.862290
 30
0.0
 10
-73.037480
 20
71.462089
 30
0.0
 10
-74.776459
 20
64.078423
 30
0.0
  0
SPLINE
  5
114
100
AcDbEntity
  8
Layer_1
 62
7
100
AcDbSpline
 70
8
 71
3
 72
8
 73
4
 74
0
 40
0
 40
0
 40
0
 40
0
 40
1
 40
1
 40
1
 40
1
 10
-74.776459
 20
64.078423
 30
0.0
 10
-76.596134
 20
56.901336
 30
0.0
 10
-78.654468
 20
49.770902
 30
0.0
 10
-81.404088
 20
42.889318
 30
0.0
  0
SPLINE
  5
115
100
AcDbEntity
  8
Layer_1
 62
7
100
AcDbSpline
 70
8
 71
3
 72
8
 73
4
 74
0
 40
0
 40
0
 40
0
 40
0
 40
1
 40
1
 40
1
 40
1
 10
-81.404088
 20
42.889318
 30
0.0
 10
-78.132364
 20
44.495804
 30
0.0
 10
-75.055332
 20
46.449591
 30
0.0
 10
-72.019962
 20
48.461252
 30
0.0
  0
SPLINE
  5
116
100
AcDbEntity
  8
Layer_1
 62
7
100
AcDbSpline
 70
8
 71
3
 72
8
 73
4
 74
0
 40
0
 40
0
 40
0
 40
0
 40
1
 40
1
 40
1
 40
1
 10
-64.036698
 20
58.141719
 30
0.0
 10
-67.126741
 20
59.252277
 30
0.0
 10
-67.512923
 20
63.883942
 30
0.0
 10
-64.783801
 20
65.637189
 30
0.0
  0
SPLINE
  5
117
100
AcDbEntity
  8
Layer_1
 62
7
100
AcDbSpline
 70
8
 71
3
 72
8
 73
4
 74
0
 40
0
 40
0
 40
0
 40
0
 40
1
 40
1
 40
1
 40
1
 10
-64.783801
 20
65.637189
 30
0.0
 10
-61.655772
 20
68.322954
 30
0.0
 10
-56.277747
 20
63.880913
 30
0.0
 10
-58.412014
 20
60.312924
 30
0.0
  0
SPLINE
  5
118
100
AcDbEntity
  8
Layer_1
 62
7
100
AcDbSpline
 70
8
 71
3
 72
8
 73
4
 74
0
 40
0
 40
0
 40
0
 40
0
 40
1
 40
1
 40
1
 40
1
 10
-58.412014
 20
60.312924
 30
0.0
 10
-59.395508
 20
58.227025
 30
0.0
 10
-61.898678
 20
57.169922
 30
0.0
 10
-64.036698
 20
58.141719
 30
0.0
  0
SPLINE
  5
119
100
AcDbEntity
  8
Layer_1
 62
7
100
AcDbSpline
 70
8
 71
3
 72
8
 73
4
 74
0
 40
0
 40
0
 40
0
 40
0
 40
1
 40
1
 40
1
 40
1
 10
-60.511876
 20
59.526845
 30
0.0
 10
-57.014963
 20
61.429502
 30
0.0
 10
-60.575922
 20
66.909672
 30
0.0
 10
-63.885365
 20
64.985489
 30
0.0
  0
SPLINE
  5
11a
100
AcDbEntity
  8
Layer_1
 62
7
100
AcDbSpline
 70
8
 71
3
 72
8
 73
4
 74
0
 40
0
 40
0
 40
0
 40
0
 40
1
 40
1
 40
1
 40
1
 10
-63.885365
 20
64.985489
 30
0.0
 10
-67.254872
 20
63.667515
 30
0.0
 10
-64.977215
 20
58.058795
 30
0.0
 10
-61.748717
 20
58.970204
 30
0.0
  0
SPLINE
  5
11b
100
AcDbEntity
  8
Layer_1
 62
7
100
AcDbSpline
 70
8
 71
3
 72
8
 73
4
 74
0
 40
0
 40
0
 40
0
 40
0
 40
1
 40
1
 40
1
 40
1
 10
-61.748717
 20
58.970204
 30
0.0
 10
-61.317729
 20
59.112259
 30
0.0
 10
-60.911069
 20
59.314189
 30
0.0
 10
-60.511876
 20
59.526845
 30
0.0
  0
SPLINE
  5
11c
100
AcDbEntity
  8
Layer_1
 62
7
100
AcDbSpline
 70
8
 71
3
 72
8
 73
4
 74
0
 40
0
 40
0
 40
0
 40
0
 40
1
 40
1
 40
1
 40
1
 10
-63.456054
 20
76.156656
 30
0.0
 10
-66.352492
 20
78.395546
 30
0.0
 10
-64.161018
 20
83.412649
 30
0.0
 10
-60.700890
 20
83.370053
 30
0.0
  0
SPLINE
  5
11d
100
AcDbEntity
  8
Layer_1
 62
7
100
AcDbSpline
 70
8
 71
3
 72
8
 73
4
 74
0
 40
0
 40
0
 40
0
 40
0
 40
1
 40
1
 40
1
 40
1
 10
-60.700890
 20
83.370053
 30
0.0
 10
-57.116766
 20
83.761569
 30
0.0
 10
-54.695359
 20
78.906448
 30
0.0
 10
-57.234076
 20
76.315895
 30
0.0
  0
SPLINE
  5
11e
100
AcDbEntity
  8
Layer_1
 62
7
100
AcDbSpline
 70
8
 71
3
 72
8
 73
4
 74
0
 40
0
 40
0
 40
0
 40
0
 40
1
 40
1
 40
1
 40
1
 10
-57.234076
 20
76.315895
 30
0.0
 10
-58.762001
 20
74.388931
 30
0.0
 10
-61.828460
 20
74.297167
 30
0.0
 10
-63.456054
 20
76.156599
 30
0.0
  0
LWPOLYLINE
  5
11f
100
AcDbEntity
  8
Layer_1
 62
7
100
AcDbPolyline
 90
1
 70
1
 10
-101.908060
 20
40.760785
 30
0.0
  0
SPLINE
  5
120
100
AcDbEntity
  8
Layer_1
 62
7
100
AcDbSpline
 70
8
 71
3
 72
8
 73
4
 74
0
 40
0
 40
0
 40
0
 40
0
 40
1
 40
1
 40
1
 40
1
 10
-57.688381
 20
77.557365
 30
0.0
 10
-56.568069
 20
81.074757
 30
0.0
 10
-59.884427
 20
83.513309
 30
0.0
 10
-62.297280
 20
81.834814
 30
0.0
  0
SPLINE
  5
121
100
AcDbEntity
  8
Layer_1
 62
7
100
AcDbSpline
 70
8
 71
3
 72
8
 73
4
 74
0
 40
0
 40
0
 40
0
 40
0
 40
1
 40
1
 40
1
 40
1
 10
-62.297280
 20
81.834814
 30
0.0
 10
-64.288844
 20
80.286125
 30
0.0
 10
-63.842483
 20
76.209996
 30
0.0
 10
-60.621185
 20
76.132006
 30
0.0
  0
SPLINE
  5
122
100
AcDbEntity
  8
Layer_1
 62
7
100
AcDbSpline
 70
8
 71
3
 72
8
 73
4
 74
0
 40
0
 40
0
 40
0
 40
0
 40
1
 40
1
 40
1
 40
1
 10
-60.621185
 20
76.132006
 30
0.0
 10
-59.280827
 20
75.997818
 30
0.0
 10
-58.317126
 20
76.587587
 30
0.0
 10
-57.688381
 20
77.557365
 30
0.0
  0
SPLINE
  5
123
100
AcDbEntity
  8
Layer_1
 62
7
100
AcDbSpline
 70
8
 71
3
 72
8
 73
4
 74
0
 40
0
 40
0
 40
0
 40
0
 40
1
 40
1
 40
1
 40
1
 10
-80.355766
 20
51.133719
 30
0.0
 10
-80.108078
 20
53.411566
 30
0.0
 10
-76.891314
 20
57.273515
 30
0.0
 10
-80.518605
 20
58.177343
 30
0.0
  0
SPLINE
  5
124
100
AcDbEntity
  8
Layer_1
 62
7
100
AcDbSpline
 70
8
 71
3
 72
8
 73
4
 74
0
 40
0
 40
0
 40
0
 40
0
 40
1
 40
1
 40
1
 40
1
 10
-80.518605
 20
58.177343
 30
0.0
 10
-85.827574
 20
60.171973
 30
0.0
 10
-91.084193
 20
62.384497
 30
0.0
 10
-95.914587
 20
65.393197
 30
0.0
  0
SPLINE
  5
125
100
AcDbEntity
  8
Layer_1
 62
7
100
AcDbSpline
 70
8
 71
3
 72
8
 73
4
 74
0
 40
0
 40
0
 40
0
 40
0
 40
1
 40
1
 40
1
 40
1
 10
-95.914587
 20
65.393197
 30
0.0
 10
-98.157629
 20
66.559095
 30
0.0
 10
-101.252168
 20
69.628793
 30
0.0
 10
-102.138736
 20
65.620902
 30
0.0
  0
SPLINE
  5
126
100
AcDbEntity
  8
Layer_1
 62
7
100
AcDbSpline
 70
8
 71
3
 72
8
 73
4
 74
0
 40
0
 40
0
 40
0
 40
0
 40
1
 40
1
 40
1
 40
1
 10
-102.138736
 20
65.620902
 30
0.0
 10
-102.874276
 20
63.401386
 30
0.0
 10
-105.759246
 20
60.878728
 30
0.0
 10
-104.943811
 20
58.777551
 30
0.0
  0
SPLINE
  5
127
100
AcDbEntity
  8
Layer_1
 62
7
100
AcDbSpline
 70
8
 71
3
 72
8
 73
4
 74
0
 40
0
 40
0
 40
0
 40
0
 40
1
 40
1
 40
1
 40
1
 10
-104.943811
 20
58.777551
 30
0.0
 10
-99.349721
 20
54.451201
 30
0.0
 10
-93.492551
 20
50.390922
 30
0.0
 10
-87.227234
 20
47.093043
 30
0.0
  0
SPLINE
  5
128
100
AcDbEntity
  8
Layer_1
 62
7
100
AcDbSpline
 70
8
 71
3
 72
8
 73
4
 74
0
 40
0
 40
0
 40
0
 40
0
 40
1
 40
1
 40
1
 40
1
 10
-87.227234
 20
47.093043
 30
0.0
 10
-84.429913
 20
44.816416
 30
0.0
 10
-81.130892
 20
46.702385
 30
0.0
 10
-80.725412
 20
50.061605
 30
0.0
  0
LWPOLYLINE
  5
129
100
AcDbEntity
  8
Layer_1
 62
7
100
AcDbPolyline
 90
1
 70
1
 10
-63.456054
 20
76.156599
 30
0.0
  0
SPLINE
  5
12a
100
AcDbEntity
  8
Layer_1
 62
7
100
AcDbSpline
 70
8
 71
3
 72
8
 73
4
 74
0
 40
0
 40
0
 40
0
 40
0
 40
1
 40
1
 40
1
 40
1
 10
-6.294148
 20
59.890928
 30
0.0
 10
-8.119290
 20
74.563334
 30
0.0
 10
-9.993543
 20
89.235701
 30
0.0
 10
-12.254874
 20
103.847032
 30
0.0
  0
SPLINE
  5
12b
100
AcDbEntity
  8
Layer_1
 62
7
100
AcDbSpline
 70
8
 71
3
 72
8
 73
4
 74
0
 40
0
 40
0
 40
0
 40
0
 40
1
 40
1
 40
1
 40
1
 10
-12.254874
 20
103.847032
 30
0.0
 10
-13.758204
 20
103.750410
 30
0.0
 10
-14.910177
 20
102.226772
 30
0.0
 10
-16.165572
 20
101.380095
 30
0.0
  0
SPLINE
  5
12c
100
AcDbEntity
  8
Layer_1
 62
7
100
AcDbSpline
 70
8
 71
3
 72
8
 73
4
 74
0
 40
0
 40
0
 40
0
 40
0
 40
1
 40
1
 40
1
 40
1
 10
-16.165572
 20
101.380095
 30
0.0
 10
-16.867050
 20
100.686351
 30
0.0
 10
-16.042414
 20
99.384702
 30
0.0
 10
-16.116861
 20
98.441175
 30
0.0
  0
SPLINE
  5
12d
100
AcDbEntity
  8
Layer_1
 62
7
100
AcDbSpline
 70
8
 71
3
 72
8
 73
4
 74
0
 40
0
 40
0
 40
0
 40
0
 40
1
 40
1
 40
1
 40
1
 10
-16.116861
 20
98.441175
 30
0.0
 10
-14.322427
 20
86.103538
 30
0.0
 10
-12.833270
 20
73.717133
 30
0.0
 10
-10.701232
 20
61.432092
 30
0.0
  0
SPLINE
  5
12e
100
AcDbEntity
  8
Layer_1
 62
7
100
AcDbSpline
 70
8
 71
3
 72
8
 73
4
 74
0
 40
0
 40
0
 40
0
 40
0
 40
1
 40
1
 40
1
 40
1
 10
-10.701232
 20
61.432092
 30
0.0
 10
-9.872919
 20
56.428381
 30
0.0
 10
-7.619304
 20
53.469992
 30
0.0
 10
-5.181780
 20
49.093579
 30
0.0
  0
SPLINE
  5
12f
100
AcDbEntity
  8
Layer_1
 62
7
100
AcDbSpline
 70
8
 71
3
 72
8
 73
4
 74
0
 40
0
 40
0
 40
0
 40
0
 40
1
 40
1
 40
1
 40
1
 10
-5.181780
 20
49.093579
 30
0.0
 10
-5.461415
 20
53.228934
 30
0.0
 10
-5.847978
 20
55.770108
 30
0.0
 10
-6.294186
 20
59.890928
 30
0.0
  0
LWPOLYLINE
  5
130
100
AcDbEntity
  8
Layer_1
 62
7
100
AcDbPolyline
 90
3
 70
0
 10
-80.725412
 20
50.061605
 30
0.0
 10
-80.543866
 20
50.580774
 30
0.0
 10
-80.355652
 20
51.133719
 30
0.0
  0
SPLINE
  5
131
100
AcDbEntity
  8
Layer_1
 62
7
100
AcDbSpline
 70
8
 71
3
 72
8
 73
4
 74
0
 40
0
 40
0
 40
0
 40
0
 40
1
 40
1
 40
1
 40
1
 10
-134.372841
 20
55.309937
 30
0.0
 10
-131.431845
 20
64.620605
 30
0.0
 10
-132.370172
 20
75.216768
 30
0.0
 10
-137.561449
 20
83.577279
 30
0.0
  0
SPLINE
  5
132
100
AcDbEntity
  8
Layer_1
 62
7
100
AcDbSpline
 70
8
 71
3
 72
8
 73
4
 74
0
 40
0
 40
0
 40
0
 40
0
 40
1
 40
1
 40
1
 40
1
 10
-137.561449
 20
83.577279
 30
0.0
 10
-139.366837
 20
86.546260
 30
0.0
 10
-141.009023
 20
89.810687
 30
0.0
 10
-143.740526
 20
92.036698
 30
0.0
  0
SPLINE
  5
133
100
AcDbEntity
  8
Layer_1
 62
7
100
AcDbSpline
 70
8
 71
3
 72
8
 73
4
 74
0
 40
0
 40
0
 40
0
 40
0
 40
1
 40
1
 40
1
 40
1
 10
-143.740526
 20
92.036698
 30
0.0
 10
-147.724357
 20
92.867755
 30
0.0
 10
-151.897317
 20
92.215140
 30
0.0
 10
-155.892426
 20
91.675339
 30
0.0
  0
SPLINE
  5
134
100
AcDbEntity
  8
Layer_1
 62
7
100
AcDbSpline
 70
8
 71
3
 72
8
 73
4
 74
0
 40
0
 40
0
 40
0
 40
0
 40
1
 40
1
 40
1
 40
1
 10
-155.892426
 20
91.675339
 30
0.0
 10
-159.054421
 20
91.937257
 30
0.0
 10
-159.632513
 20
88.208410
 30
0.0
 10
-156.438304
 20
87.716235
 30
0.0
  0
SPLINE
  5
135
100
AcDbEntity
  8
Layer_1
 62
7
100
AcDbSpline
 70
8
 71
3
 72
8
 73
4
 74
0
 40
0
 40
0
 40
0
 40
0
 40
1
 40
1
 40
1
 40
1
 10
-156.438304
 20
87.716235
 30
0.0
 10
-152.918892
 20
86.448990
 30
0.0
 10
-156.318708
 20
82.818403
 30
0.0
 10
-157.879760
 20
81.308729
 30
0.0
  0
SPLINE
  5
136
100
AcDbEntity
  8
Layer_1
 62
7
100
AcDbSpline
 70
8
 71
3
 72
8
 73
4
 74
0
 40
0
 40
0
 40
0
 40
0
 40
1
 40
1
 40
1
 40
1
 10
-157.879760
 20
81.308729
 30
0.0
 10
-161.654994
 20
77.582816
 30
0.0
 10
-165.630214
 20
72.816563
 30
0.0
 10
-165.261978
 20
67.176620
 30
0.0
  0
SPLINE
  5
137
100
AcDbEntity
  8
Layer_1
 62
7
100
AcDbSpline
 70
8
 71
3
 72
8
 73
4
 74
0
 40
0
 40
0
 40
0
 40
0
 40
1
 40
1
 40
1
 40
1
 10
-165.261978
 20
67.176620
 30
0.0
 10
-164.330719
 20
62.350855
 30
0.0
 10
-161.505909
 20
57.916434
 30
0.0
 10
-157.832516
 20
54.697212
 30
0.0
  0
SPLINE
  5
138
100
AcDbEntity
  8
Layer_1
 62
7
100
AcDbSpline
 70
8
 71
3
 72
8
 73
4
 74
0
 40
0
 40
0
 40
0
 40
0
 40
1
 40
1
 40
1
 40
1
 10
-157.832516
 20
54.697212
 30
0.0
 10
-153.786048
 20
51.709429
 30
0.0
 10
-148.634357
 20
51.024944
 30
0.0
 10
-143.793542
 20
50.340306
 30
0.0
  0
SPLINE
  5
139
100
AcDbEntity
  8
Layer_1
 62
7
100
AcDbSpline
 70
8
 71
3
 72
8
 73
4
 74
0
 40
0
 40
0
 40
0
 40
0
 40
1
 40
1
 40
1
 40
1
 10
-143.793542
 20
50.340306
 30
0.0
 10
-141.217468
 20
50.149273
 30
0.0
 10
-138.633126
 20
50.152835
 30
0.0
 10
-136.052156
 20
50.087417
 30
0.0
  0
SPLINE
  5
13a
100
AcDbEntity
  8
Layer_1
 62
7
100
AcDbSpline
 70
8
 71
3
 72
8
 73
4
 74
0
 40
0
 40
0
 40
0
 40
0
 40
1
 40
1
 40
1
 40
1
 10
-136.052156
 20
50.087417
 30
0.0
 10
-135.492372
 20
51.828244
 30
0.0
 10
-134.932606
 20
53.569052
 30
0.0
 10
-134.372841
 20
55.309879
 30
0.0
  0
LWPOLYLINE
  5
13b
100
AcDbEntity
  8
Layer_1
 62
7
100
AcDbPolyline
 90
1
 70
1
 10
-6.294186
 20
59.890928
 30
0.0
  0
SPLINE
  5
13c
100
AcDbEntity
  8
Layer_1
 62
7
100
AcDbSpline
 70
8
 71
3
 72
8
 73
4
 74
0
 40
0
 40
0
 40
0
 40
0
 40
1
 40
1
 40
1
 40
1
 10
-127.011369
 20
51.708820
 30
0.0
 10
-125.620509
 20
52.108089
 30
0.0
 10
-121.794602
 20
53.836419
 30
0.0
 10
-122.727633
 20
55.151079
 30
0.0
  0
SPLINE
  5
13d
100
AcDbEntity
  8
Layer_1
 62
7
100
AcDbSpline
 70
8
 71
3
 72
8
 73
4
 74
0
 40
0
 40
0
 40
0
 40
0
 40
1
 40
1
 40
1
 40
1
 10
-122.727633
 20
55.151079
 30
0.0
 10
-125.950093
 20
54.737579
 30
0.0
 10
-129.338841
 20
54.639739
 30
0.0
 10
-132.360894
 20
53.361979
 30
0.0
  0
SPLINE
  5
13e
100
AcDbEntity
  8
Layer_1
 62
7
100
AcDbSpline
 70
8
 71
3
 72
8
 73
4
 74
0
 40
0
 40
0
 40
0
 40
0
 40
1
 40
1
 40
1
 40
1
 10
-132.360894
 20
53.361979
 30
0.0
 10
-133.904783
 20
52.486060
 30
0.0
 10
-135.058946
 20
49.002958
 30
0.0
 10
-132.080574
 20
50.451348
 30
0.0
  0
SPLINE
  5
13f
100
AcDbEntity
  8
Layer_1
 62
7
100
AcDbSpline
 70
8
 71
3
 72
8
 73
4
 74
0
 40
0
 40
0
 40
0
 40
0
 40
1
 40
1
 40
1
 40
1
 10
-132.080574
 20
50.451348
 30
0.0
 10
-130.377389
 20
50.812956
 30
0.0
 10
-128.687788
 20
51.238971
 30
0.0
 10
-127.011369
 20
51.708820
 30
0.0
  0
SPLINE
  5
140
100
AcDbEntity
  8
Layer_1
 62
7
100
AcDbSpline
 70
8
 71
3
 72
8
 73
4
 74
0
 40
0
 40
0
 40
0
 40
0
 40
1
 40
1
 40
1
 40
1
 10
-11.356742
 20
55.699604
 30
0.0
 10
-19.397366
 20
69.910695
 30
0.0
 10
-29.504630
 20
82.824271
 30
0.0
 10
-39.826834
 20
95.428589
 30
0.0
  0
SPLINE
  5
141
100
AcDbEntity
  8
Layer_1
 62
7
100
AcDbSpline
 70
8
 71
3
 72
8
 73
4
 74
0
 40
0
 40
0
 40
0
 40
0
 40
1
 40
1
 40
1
 40
1
 10
-39.826834
 20
95.428589
 30
0.0
 10
-41.575224
 20
97.539405
 30
0.0
 10
-43.353637
 20
99.624961
 30
0.0
 10
-45.126982
 20
101.714765
 30
0.0
  0
SPLINE
  5
142
100
AcDbEntity
  8
Layer_1
 62
7
100
AcDbSpline
 70
8
 71
3
 72
8
 73
4
 74
0
 40
0
 40
0
 40
0
 40
0
 40
1
 40
1
 40
1
 40
1
 10
-45.126982
 20
101.714765
 30
0.0
 10
-48.463418
 20
99.013647
 30
0.0
 10
-52.200666
 20
96.736086
 30
0.0
 10
-55.079445
 20
93.524694
 30
0.0
  0
SPLINE
  5
143
100
AcDbEntity
  8
Layer_1
 62
7
100
AcDbSpline
 70
8
 71
3
 72
8
 73
4
 74
0
 40
0
 40
0
 40
0
 40
0
 40
1
 40
1
 40
1
 40
1
 10
-55.079445
 20
93.524694
 30
0.0
 10
-56.618133
 20
91.581022
 30
0.0
 10
-56.999533
 20
87.182492
 30
0.0
 10
-53.476997
 20
87.376478
 30
0.0
  0
SPLINE
  5
144
100
AcDbEntity
  8
Layer_1
 62
7
100
AcDbSpline
 70
8
 71
3
 72
8
 73
4
 74
0
 40
0
 40
0
 40
0
 40
0
 40
1
 40
1
 40
1
 40
1
 10
-53.476997
 20
87.376478
 30
0.0
 10
-52.309461
 20
87.281780
 30
0.0
 10
-51.298820
 20
87.067830
 30
0.0
 10
-51.831496
 20
85.679123
 30
0.0
  0
SPLINE
  5
145
100
AcDbEntity
  8
Layer_1
 62
7
100
AcDbSpline
 70
8
 71
3
 72
8
 73
4
 74
0
 40
0
 40
0
 40
0
 40
0
 40
1
 40
1
 40
1
 40
1
 10
-51.831496
 20
85.679123
 30
0.0
 10
-52.122294
 20
81.660106
 30
0.0
 10
-52.413074
 20
77.641128
 30
0.0
 10
-52.703834
 20
73.622149
 30
0.0
  0
SPLINE
  5
146
100
AcDbEntity
  8
Layer_1
 62
7
100
AcDbSpline
 70
8
 71
3
 72
8
 73
4
 74
0
 40
0
 40
0
 40
0
 40
0
 40
1
 40
1
 40
1
 40
1
 10
-52.703834
 20
73.622149
 30
0.0
 10
-49.167182
 20
69.320297
 30
0.0
 10
-45.630512
 20
65.018426
 30
0.0
 10
-42.093803
 20
60.716555
 30
0.0
  0
SPLINE
  5
147
100
AcDbEntity
  8
Layer_1
 62
7
100
AcDbSpline
 70
8
 71
3
 72
8
 73
4
 74
0
 40
0
 40
0
 40
0
 40
0
 40
1
 40
1
 40
1
 40
1
 10
-42.093803
 20
60.716555
 30
0.0
 10
-34.041044
 20
59.252829
 30
0.0
 10
-26.111215
 20
57.161768
 30
0.0
 10
-18.406576
 20
54.390679
 30
0.0
  0
SPLINE
  5
148
100
AcDbEntity
  8
Layer_1
 62
7
100
AcDbSpline
 70
8
 71
3
 72
8
 73
4
 74
0
 40
0
 40
0
 40
0
 40
0
 40
1
 40
1
 40
1
 40
1
 10
-18.406576
 20
54.390679
 30
0.0
 10
-14.989463
 20
53.269891
 30
0.0
 10
-11.737704
 20
51.739071
 30
0.0
 10
-8.536714
 20
50.119497
 30
0.0
  0
SPLINE
  5
149
100
AcDbEntity
  8
Layer_1
 62
7
100
AcDbSpline
 70
8
 71
3
 72
8
 73
4
 74
0
 40
0
 40
0
 40
0
 40
0
 40
1
 40
1
 40
1
 40
1
 10
-8.536714
 20
50.119497
 30
0.0
 10
-9.297552
 20
52.056368
 30
0.0
 10
-10.398527
 20
53.855126
 30
0.0
 10
-11.356742
 20
55.699604
 30
0.0
  0
SPLINE
  5
14a
100
AcDbEntity
  8
Layer_1
 62
7
100
AcDbSpline
 70
8
 71
3
 72
8
 73
4
 74
0
 40
0
 40
0
 40
0
 40
0
 40
1
 40
1
 40
1
 40
1
 10
-126.456595
 20
55.928147
 30
0.0
 10
-124.505189
 20
56.076490
 30
0.0
 10
-118.546616
 20
57.193544
 30
0.0
 10
-122.128968
 20
59.529054
 30
0.0
  0
SPLINE
  5
14b
100
AcDbEntity
  8
Layer_1
 62
7
100
AcDbSpline
 70
8
 71
3
 72
8
 73
4
 74
0
 40
0
 40
0
 40
0
 40
0
 40
1
 40
1
 40
1
 40
1
 10
-122.128968
 20
59.529054
 30
0.0
 10
-125.099873
 20
59.955851
 30
0.0
 10
-128.427108
 20
59.528712
 30
0.0
 10
-131.184405
 20
58.419316
 30
0.0
  0
SPLINE
  5
14c
100
AcDbEntity
  8
Layer_1
 62
7
100
AcDbSpline
 70
8
 71
3
 72
8
 73
4
 74
0
 40
0
 40
0
 40
0
 40
0
 40
1
 40
1
 40
1
 40
1
 10
-131.184405
 20
58.419316
 30
0.0
 10
-133.031245
 20
56.096664
 30
0.0
 10
-131.546717
 20
54.405862
 30
0.0
 10
-128.899090
 20
55.536365
 30
0.0
  0
SPLINE
  5
14d
100
AcDbEntity
  8
Layer_1
 62
7
100
AcDbSpline
 70
8
 71
3
 72
8
 73
4
 74
0
 40
0
 40
0
 40
0
 40
0
 40
1
 40
1
 40
1
 40
1
 10
-128.899090
 20
55.536365
 30
0.0
 10
-128.084322
 20
55.663067
 30
0.0
 10
-127.270658
 20
55.796912
 30
0.0
 10
-126.456595
 20
55.928147
 30
0.0
  0
SPLINE
  5
14e
100
AcDbEntity
  8
Layer_1
 62
7
100
AcDbSpline
 70
8
 71
3
 72
8
 73
4
 74
0
 40
0
 40
0
 40
0
 40
0
 40
1
 40
1
 40
1
 40
1
 10
-108.158993
 20
59.517091
 30
0.0
 10
-106.649433
 20
61.592722
 30
0.0
 10
-104.357966
 20
64.290259
 30
0.0
 10
-107.509236
 20
66.088179
 30
0.0
  0
SPLINE
  5
14f
100
AcDbEntity
  8
Layer_1
 62
7
100
AcDbSpline
 70
8
 71
3
 72
8
 73
4
 74
0
 40
0
 40
0
 40
0
 40
0
 40
1
 40
1
 40
1
 40
1
 10
-107.509236
 20
66.088179
 30
0.0
 10
-110.856873
 20
69.752237
 30
0.0
 10
-114.309724
 20
73.317978
 30
0.0
 10
-117.717864
 20
76.925343
 30
0.0
  0
SPLINE
  5
150
100
AcDbEntity
  8
Layer_1
 62
7
100
AcDbSpline
 70
8
 71
3
 72
8
 73
4
 74
0
 40
0
 40
0
 40
0
 40
0
 40
1
 40
1
 40
1
 40
1
 10
-117.717864
 20
76.925343
 30
0.0
 10
-119.849902
 20
73.778054
 30
0.0
 10
-122.545992
 20
70.931984
 30
0.0
 10
-123.960949
 20
67.365139
 30
0.0
  0
SPLINE
  5
151
100
AcDbEntity
  8
Layer_1
 62
7
100
AcDbSpline
 70
8
 71
3
 72
8
 73
4
 74
0
 40
0
 40
0
 40
0
 40
0
 40
1
 40
1
 40
1
 40
1
 10
-123.960949
 20
67.365139
 30
0.0
 10
-124.862719
 20
63.959761
 30
0.0
 10
-121.401868
 20
61.624878
 30
0.0
 10
-119.086816
 20
59.809432
 30
0.0
  0
SPLINE
  5
152
100
AcDbEntity
  8
Layer_1
 62
7
100
AcDbSpline
 70
8
 71
3
 72
8
 73
4
 74
0
 40
0
 40
0
 40
0
 40
0
 40
1
 40
1
 40
1
 40
1
 10
-119.086816
 20
59.809432
 30
0.0
 10
-116.613555
 20
58.470998
 30
0.0
 10
-113.937392
 20
55.202952
 30
0.0
 10
-111.115172
 20
55.827487
 30
0.0
  0
SPLINE
  5
153
100
AcDbEntity
  8
Layer_1
 62
7
100
AcDbSpline
 70
8
 71
3
 72
8
 73
4
 74
0
 40
0
 40
0
 40
0
 40
0
 40
1
 40
1
 40
1
 40
1
 10
-111.115172
 20
55.827487
 30
0.0
 10
-110.012082
 20
56.956276
 30
0.0
 10
-109.073755
 20
58.234855
 30
0.0
 10
-108.158993
 20
59.517091
 30
0.0
  0
SPLINE
  5
154
100
AcDbEntity
  8
Layer_1
 62
7
100
AcDbSpline
 70
8
 71
3
 72
8
 73
4
 74
0
 40
0
 40
0
 40
0
 40
0
 40
1
 40
1
 40
1
 40
1
 10
-76.447659
 20
64.686194
 30
0.0
 10
-76.166595
 20
67.092990
 30
0.0
 10
-73.395487
 20
71.185883
 30
0.0
 10
-77.668383
 20
70.647663
 30
0.0
  0
SPLINE
  5
155
100
AcDbEntity
  8
Layer_1
 62
7
100
AcDbSpline
 70
8
 71
3
 72
8
 73
4
 74
0
 40
0
 40
0
 40
0
 40
0
 40
1
 40
1
 40
1
 40
1
 10
-77.668383
 20
70.647663
 30
0.0
 10
-84.249091
 20
72.685746
 30
0.0
 10
-90.162420
 20
76.295531
 30
0.0
 10
-96.116022
 20
79.678316
 30
0.0
  0
SPLINE
  5
156
100
AcDbEntity
  8
Layer_1
 62
7
100
AcDbSpline
 70
8
 71
3
 72
8
 73
4
 74
0
 40
0
 40
0
 40
0
 40
0
 40
1
 40
1
 40
1
 40
1
 10
-96.116022
 20
79.678316
 30
0.0
 10
-97.206748
 20
76.459570
 30
0.0
 10
-98.706650
 20
73.348686
 30
0.0
 10
-99.482747
 20
70.049322
 30
0.0
  0
SPLINE
  5
157
100
AcDbEntity
  8
Layer_1
 62
7
100
AcDbSpline
 70
8
 71
3
 72
8
 73
4
 74
0
 40
0
 40
0
 40
0
 40
0
 40
1
 40
1
 40
1
 40
1
 10
-99.482747
 20
70.049322
 30
0.0
 10
-98.520113
 20
67.263869
 30
0.0
 10
-95.020075
 20
66.518633
 30
0.0
 10
-92.786501
 20
64.912413
 30
0.0
  0
SPLINE
  5
158
100
AcDbEntity
  8
Layer_1
 62
7
100
AcDbSpline
 70
8
 71
3
 72
8
 73
4
 74
0
 40
0
 40
0
 40
0
 40
0
 40
1
 40
1
 40
1
 40
1
 10
-92.786501
 20
64.912413
 30
0.0
 10
-88.303750
 20
62.512799
 30
0.0
 10
-83.603505
 20
60.388228
 30
0.0
 10
-78.675556
 20
59.096219
 30
0.0
  0
SPLINE
  5
159
100
AcDbEntity
  8
Layer_1
 62
7
100
AcDbSpline
 70
8
 71
3
 72
8
 73
4
 74
0
 40
0
 40
0
 40
0
 40
0
 40
1
 40
1
 40
1
 40
1
 10
-78.675556
 20
59.096219
 30
0.0
 10
-77.091110
 20
59.529607
 30
0.0
 10
-77.189218
 20
63.268436
 30
0.0
 10
-76.447659
 20
64.686194
 30
0.0
  0
SPLINE
  5
15a
100
AcDbEntity
  8
Layer_1
 62
7
100
AcDbSpline
 70
8
 71
3
 72
8
 73
4
 74
0
 40
0
 40
0
 40
0
 40
0
 40
1
 40
1
 40
1
 40
1
 10
-124.805531
 20
60.949689
 30
0.0
 10
-122.241896
 20
61.050673
 30
0.0
 10
-126.385805
 20
63.893295
 30
0.0
 10
-126.296994
 20
65.299376
 30
0.0
  0
SPLINE
  5
15b
100
AcDbEntity
  8
Layer_1
 62
7
100
AcDbSpline
 70
8
 71
3
 72
8
 73
4
 74
0
 40
0
 40
0
 40
0
 40
0
 40
1
 40
1
 40
1
 40
1
 10
-126.296994
 20
65.299376
 30
0.0
 10
-128.883450
 20
67.389370
 30
0.0
 10
-131.927812
 20
65.216432
 30
0.0
 10
-130.796147
 20
62.054665
 30
0.0
  0
SPLINE
  5
15c
100
AcDbEntity
  8
Layer_1
 62
7
100
AcDbSpline
 70
8
 71
3
 72
8
 73
4
 74
0
 40
0
 40
0
 40
0
 40
0
 40
1
 40
1
 40
1
 40
1
 10
-130.796147
 20
62.054665
 30
0.0
 10
-131.148076
 20
58.509041
 30
0.0
 10
-126.644713
 20
61.513188
 30
0.0
 10
-124.805531
 20
60.949689
 30
0.0
  0
SPLINE
  5
15d
100
AcDbEntity
  8
Layer_1
 62
7
100
AcDbSpline
 70
8
 71
3
 72
8
 73
4
 74
0
 40
0
 40
0
 40
0
 40
0
 40
1
 40
1
 40
1
 40
1
 10
-16.004790
 20
83.506851
 30
0.0
 10
-16.867164
 20
89.625845
 30
0.0
 10
-17.729501
 20
95.744838
 30
0.0
 10
-18.591894
 20
101.863831
 30
0.0
  0
SPLINE
  5
15e
100
AcDbEntity
  8
Layer_1
 62
7
100
AcDbSpline
 70
8
 71
3
 72
8
 73
4
 74
0
 40
0
 40
0
 40
0
 40
0
 40
1
 40
1
 40
1
 40
1
 10
-18.591894
 20
101.863831
 30
0.0
 10
-15.337049
 20
104.290249
 30
0.0
 10
-11.549966
 20
106.608863
 30
0.0
 10
-10.017470
 20
110.545202
 30
0.0
  0
SPLINE
  5
15f
100
AcDbEntity
  8
Layer_1
 62
7
100
AcDbSpline
 70
8
 71
3
 72
8
 73
4
 74
0
 40
0
 40
0
 40
0
 40
0
 40
1
 40
1
 40
1
 40
1
 10
-10.017470
 20
110.545202
 30
0.0
 10
-8.885576
 20
114.350344
 30
0.0
 10
-13.811449
 20
115.386188
 30
0.0
 10
-16.500376
 20
114.330971
 30
0.0
  0
SPLINE
  5
160
100
AcDbEntity
  8
Layer_1
 62
7
100
AcDbSpline
 70
8
 71
3
 72
8
 73
4
 74
0
 40
0
 40
0
 40
0
 40
0
 40
1
 40
1
 40
1
 40
1
 10
-16.500376
 20
114.330971
 30
0.0
 10
-20.668992
 20
113.465415
 30
0.0
 10
-23.993865
 20
110.695297
 30
0.0
 10
-26.796329
 20
107.642325
 30
0.0
  0
SPLINE
  5
161
100
AcDbEntity
  8
Layer_1
 62
7
100
AcDbSpline
 70
8
 71
3
 72
8
 73
4
 74
0
 40
0
 40
0
 40
0
 40
0
 40
1
 40
1
 40
1
 40
1
 10
-26.796329
 20
107.642325
 30
0.0
 10
-28.141697
 20
106.960716
 30
0.0
 10
-27.071335
 20
105.989757
 30
0.0
 10
-26.561766
 20
105.086005
 30
0.0
  0
SPLINE
  5
162
100
AcDbEntity
  8
Layer_1
 62
7
100
AcDbSpline
 70
8
 71
3
 72
8
 73
4
 74
0
 40
0
 40
0
 40
0
 40
0
 40
1
 40
1
 40
1
 40
1
 10
-26.561766
 20
105.086005
 30
0.0
 10
-21.707788
 20
97.542453
 30
0.0
 10
-18.882578
 20
88.479454
 30
0.0
 10
-19.477662
 20
79.470747
 30
0.0
  0
SPLINE
  5
163
100
AcDbEntity
  8
Layer_1
 62
7
100
AcDbSpline
 70
8
 71
3
 72
8
 73
4
 74
0
 40
0
 40
0
 40
0
 40
0
 40
1
 40
1
 40
1
 40
1
 10
-19.477662
 20
79.470747
 30
0.0
 10
-19.843060
 20
76.802413
 30
0.0
 10
-20.997528
 20
73.851702
 30
0.0
 10
-18.909991
 20
71.530783
 30
0.0
  0
SPLINE
  5
164
100
AcDbEntity
  8
Layer_1
 62
7
100
AcDbSpline
 70
8
 71
3
 72
8
 73
4
 74
0
 40
0
 40
0
 40
0
 40
0
 40
1
 40
1
 40
1
 40
1
 10
-18.909991
 20
71.530783
 30
0.0
 10
-17.295732
 20
69.111490
 30
0.0
 10
-15.869306
 20
66.475427
 30
0.0
 10
-13.750927
 20
64.459137
 30
0.0
  0
SPLINE
  5
165
100
AcDbEntity
  8
Layer_1
 62
7
100
AcDbSpline
 70
8
 71
3
 72
8
 73
4
 74
0
 40
0
 40
0
 40
0
 40
0
 40
1
 40
1
 40
1
 40
1
 10
-13.750927
 20
64.459137
 30
0.0
 10
-13.608605
 20
67.070759
 30
0.0
 10
-14.299243
 20
70.033701
 30
0.0
 10
-14.550437
 20
72.775986
 30
0.0
  0
SPLINE
  5
166
100
AcDbEntity
  8
Layer_1
 62
7
100
AcDbSpline
 70
8
 71
3
 72
8
 73
4
 74
0
 40
0
 40
0
 40
0
 40
0
 40
1
 40
1
 40
1
 40
1
 10
-14.550437
 20
72.775986
 30
0.0
 10
-15.013104
 20
76.355900
 30
0.0
 10
-15.501375
 20
79.932462
 30
0.0
 10
-16.004676
 20
83.506851
 30
0.0
  0
LWPOLYLINE
  5
167
100
AcDbEntity
  8
Layer_1
 62
7
100
AcDbPolyline
 90
1
 70
1
 10
-134.372841
 20
55.309879
 30
0.0
  0
SPLINE
  5
168
100
AcDbEntity
  8
Layer_1
 62
7
100
AcDbSpline
 70
8
 71
3
 72
8
 73
4
 74
0
 40
0
 40
0
 40
0
 40
0
 40
1
 40
1
 40
1
 40
1
 10
-103.410533
 20
79.619661
 30
0.0
 10
-105.710764
 20
82.074367
 30
0.0
 10
-108.010308
 20
84.557154
 30
0.0
 10
-109.855891
 20
87.380974
 30
0.0
  0
SPLINE
  5
169
100
AcDbEntity
  8
Layer_1
 62
7
100
AcDbSpline
 70
8
 71
3
 72
8
 73
4
 74
0
 40
0
 40
0
 40
0
 40
0
 40
1
 40
1
 40
1
 40
1
 10
-109.855891
 20
87.380974
 30
0.0
 10
-111.971184
 20
84.511663
 30
0.0
 10
-114.571909
 20
81.893412
 30
0.0
 10
-115.931260
 20
78.563510
 30
0.0
  0
SPLINE
  5
16a
100
AcDbEntity
  8
Layer_1
 62
7
100
AcDbSpline
 70
8
 71
3
 72
8
 73
4
 74
0
 40
0
 40
0
 40
0
 40
0
 40
1
 40
1
 40
1
 40
1
 10
-115.931260
 20
78.563510
 30
0.0
 10
-116.216972
 20
75.678921
 30
0.0
 10
-113.166553
 20
73.909938
 30
0.0
 10
-111.600300
 20
71.861491
 30
0.0
  0
SPLINE
  5
16b
100
AcDbEntity
  8
Layer_1
 62
7
100
AcDbSpline
 70
8
 71
3
 72
8
 73
4
 74
0
 40
0
 40
0
 40
0
 40
0
 40
1
 40
1
 40
1
 40
1
 10
-111.600300
 20
71.861491
 30
0.0
 10
-109.279857
 20
69.499539
 30
0.0
 10
-106.856412
 20
67.241809
 30
0.0
 10
-104.484058
 20
64.932492
 30
0.0
  0
SPLINE
  5
16c
100
AcDbEntity
  8
Layer_1
 62
7
100
AcDbSpline
 70
8
 71
3
 72
8
 73
4
 74
0
 40
0
 40
0
 40
0
 40
0
 40
1
 40
1
 40
1
 40
1
 10
-104.484058
 20
64.932492
 30
0.0
 10
-102.818421
 20
68.447998
 30
0.0
 10
-101.152784
 20
71.963561
 30
0.0
 10
-99.487167
 20
75.479105
 30
0.0
  0
SPLINE
  5
16d
100
AcDbEntity
  8
Layer_1
 62
7
100
AcDbSpline
 70
8
 71
3
 72
8
 73
4
 74
0
 40
0
 40
0
 40
0
 40
0
 40
1
 40
1
 40
1
 40
1
 10
-99.487167
 20
75.479105
 30
0.0
 10
-100.794949
 20
76.859278
 30
0.0
 10
-102.102751
 20
78.239488
 30
0.0
 10
-103.410533
 20
79.619661
 30
0.0
  0
SPLINE
  5
16e
100
AcDbEntity
  8
Layer_1
 62
7
100
AcDbSpline
 70
8
 71
3
 72
8
 73
4
 74
0
 40
0
 40
0
 40
0
 40
0
 40
1
 40
1
 40
1
 40
1
 10
-123.941004
 20
71.469042
 30
0.0
 10
-123.152925
 20
72.898192
 30
0.0
 10
-119.681138
 20
76.653709
 30
0.0
 10
-123.433950
 20
75.674406
 30
0.0
  0
SPLINE
  5
16f
100
AcDbEntity
  8
Layer_1
 62
7
100
AcDbSpline
 70
8
 71
3
 72
8
 73
4
 74
0
 40
0
 40
0
 40
0
 40
0
 40
1
 40
1
 40
1
 40
1
 10
-123.433950
 20
75.674406
 30
0.0
 10
-126.004748
 20
75.189831
 30
0.0
 10
-129.345489
 20
75.472152
 30
0.0
 10
-131.349244
 20
74.099047
 30
0.0
  0
SPLINE
  5
170
100
AcDbEntity
  8
Layer_1
 62
7
100
AcDbSpline
 70
8
 71
3
 72
8
 73
4
 74
0
 40
0
 40
0
 40
0
 40
0
 40
1
 40
1
 40
1
 40
1
 10
-131.349244
 20
74.099047
 30
0.0
 10
-131.079934
 20
71.657789
 30
0.0
 10
-131.597218
 20
66.238617
 30
0.0
 10
-127.567724
 20
67.644659
 30
0.0
  0
SPLINE
  5
171
100
AcDbEntity
  8
Layer_1
 62
7
100
AcDbSpline
 70
8
 71
3
 72
8
 73
4
 74
0
 40
0
 40
0
 40
0
 40
0
 40
1
 40
1
 40
1
 40
1
 10
-127.567724
 20
67.644659
 30
0.0
 10
-125.918242
 20
68.379094
 30
0.0
 10
-124.976048
 20
70.082602
 30
0.0
 10
-123.941004
 20
71.469042
 30
0.0
  0
SPLINE
  5
172
100
AcDbEntity
  8
Layer_1
 62
7
100
AcDbSpline
 70
8
 71
3
 72
8
 73
4
 74
0
 40
0
 40
0
 40
0
 40
0
 40
1
 40
1
 40
1
 40
1
 10
-73.613190
 20
77.499643
 30
0.0
 10
-72.524578
 20
80.500457
 30
0.0
 10
-73.127377
 20
83.959479
 30
0.0
 10
-76.324386
 20
85.315877
 30
0.0
  0
SPLINE
  5
173
100
AcDbEntity
  8
Layer_1
 62
7
100
AcDbSpline
 70
8
 71
3
 72
8
 73
4
 74
0
 40
0
 40
0
 40
0
 40
0
 40
1
 40
1
 40
1
 40
1
 10
-76.324386
 20
85.315877
 30
0.0
 10
-81.646842
 20
88.843061
 30
0.0
 10
-87.590651
 20
91.234465
 30
0.0
 10
-93.563931
 20
93.408489
 30
0.0
  0
SPLINE
  5
174
100
AcDbEntity
  8
Layer_1
 62
7
100
AcDbSpline
 70
8
 71
3
 72
8
 73
4
 74
0
 40
0
 40
0
 40
0
 40
0
 40
1
 40
1
 40
1
 40
1
 10
-93.563931
 20
93.408489
 30
0.0
 10
-94.170864
 20
89.505582
 30
0.0
 10
-94.829366
 20
85.600370
 30
0.0
 10
-95.448033
 20
81.707731
 30
0.0
  0
SPLINE
  5
175
100
AcDbEntity
  8
Layer_1
 62
7
100
AcDbSpline
 70
8
 71
3
 72
8
 73
4
 74
0
 40
0
 40
0
 40
0
 40
0
 40
1
 40
1
 40
1
 40
1
 10
-95.448033
 20
81.707731
 30
0.0
 10
-93.759479
 20
79.190007
 30
0.0
 10
-90.712089
 20
77.989838
 30
0.0
 10
-88.178877
 20
76.471096
 30
0.0
  0
SPLINE
  5
176
100
AcDbEntity
  8
Layer_1
 62
7
100
AcDbSpline
 70
8
 71
3
 72
8
 73
4
 74
0
 40
0
 40
0
 40
0
 40
0
 40
1
 40
1
 40
1
 40
1
 10
-88.178877
 20
76.471096
 30
0.0
 10
-84.200132
 20
74.539540
 30
0.0
 10
-80.169019
 20
72.303584
 30
0.0
 10
-75.728254
 20
71.729513
 30
0.0
  0
SPLINE
  5
177
100
AcDbEntity
  8
Layer_1
 62
7
100
AcDbSpline
 70
8
 71
3
 72
8
 73
4
 74
0
 40
0
 40
0
 40
0
 40
0
 40
1
 40
1
 40
1
 40
1
 10
-75.728254
 20
71.729513
 30
0.0
 10
-73.871546
 20
72.174540
 30
0.0
 10
-74.267996
 20
76.038013
 30
0.0
 10
-73.613190
 20
77.499643
 30
0.0
  0
SPLINE
  5
178
100
AcDbEntity
  8
Layer_1
 62
7
100
AcDbSpline
 70
8
 71
3
 72
8
 73
4
 74
0
 40
0
 40
0
 40
0
 40
0
 40
1
 40
1
 40
1
 40
1
 10
-3.659780
 20
77.804062
 30
0.0
 10
-0.382914
 20
84.624877
 30
0.0
 10
-1.085630
 20
92.871584
 30
0.0
 10
-4.380518
 20
99.556267
 30
0.0
  0
SPLINE
  5
179
100
AcDbEntity
  8
Layer_1
 62
7
100
AcDbSpline
 70
8
 71
3
 72
8
 73
4
 74
0
 40
0
 40
0
 40
0
 40
0
 40
1
 40
1
 40
1
 40
1
 10
-4.380518
 20
99.556267
 30
0.0
 10
-5.799724
 20
101.783517
 30
0.0
 10
-6.902414
 20
106.015607
 30
0.0
 10
-9.852954
 20
106.143585
 30
0.0
  0
SPLINE
  5
17a
100
AcDbEntity
  8
Layer_1
 62
7
100
AcDbSpline
 70
8
 71
3
 72
8
 73
4
 74
0
 40
0
 40
0
 40
0
 40
0
 40
1
 40
1
 40
1
 40
1
 10
-9.852954
 20
106.143585
 30
0.0
 10
-10.094337
 20
101.784831
 30
0.0
 10
-9.180108
 20
97.417885
 30
0.0
 10
-8.717212
 20
93.081819
 30
0.0
  0
SPLINE
  5
17b
100
AcDbEntity
  8
Layer_1
 62
7
100
AcDbSpline
 70
8
 71
3
 72
8
 73
4
 74
0
 40
0
 40
0
 40
0
 40
0
 40
1
 40
1
 40
1
 40
1
 10
-8.717212
 20
93.081819
 30
0.0
 10
-7.823958
 20
87.102863
 30
0.0
 10
-7.179687
 20
81.053421
 30
0.0
 10
-5.662031
 20
75.193317
 30
0.0
  0
SPLINE
  5
17c
100
AcDbEntity
  8
Layer_1
 62
7
100
AcDbSpline
 70
8
 71
3
 72
8
 73
4
 74
0
 40
0
 40
0
 40
0
 40
0
 40
1
 40
1
 40
1
 40
1
 10
-5.662031
 20
75.193317
 30
0.0
 10
-5.280402
 20
73.902070
 30
0.0
 10
-3.986583
 20
77.715327
 30
0.0
 10
-3.659780
 20
77.804062
 30
0.0
  0
SPLINE
  5
17d
100
AcDbEntity
  8
Layer_1
 62
7
100
AcDbSpline
 70
8
 71
3
 72
8
 73
4
 74
0
 40
0
 40
0
 40
0
 40
0
 40
1
 40
1
 40
1
 40
1
 10
-124.540336
 20
76.753493
 30
0.0
 10
-123.633975
 20
77.010497
 30
0.0
 10
-122.125234
 20
76.927286
 30
0.0
 10
-121.600731
 20
77.399840
 30
0.0
  0
SPLINE
  5
17e
100
AcDbEntity
  8
Layer_1
 62
7
100
AcDbSpline
 70
8
 71
3
 72
8
 73
4
 74
0
 40
0
 40
0
 40
0
 40
0
 40
1
 40
1
 40
1
 40
1
 10
-121.600731
 20
77.399840
 30
0.0
 10
-122.300570
 20
79.145620
 30
0.0
 10
-123.000410
 20
80.891401
 30
0.0
 10
-123.700212
 20
82.637162
 30
0.0
  0
SPLINE
  5
17f
100
AcDbEntity
  8
Layer_1
 62
7
100
AcDbSpline
 70
8
 71
3
 72
8
 73
4
 74
0
 40
0
 40
0
 40
0
 40
0
 40
1
 40
1
 40
1
 40
1
 10
-123.700212
 20
82.637162
 30
0.0
 10
-126.860359
 20
82.245132
 30
0.0
 10
-130.120786
 20
82.264544
 30
0.0
 10
-133.164423
 20
81.267810
 30
0.0
  0
SPLINE
  5
180
100
AcDbEntity
  8
Layer_1
 62
7
100
AcDbSpline
 70
8
 71
3
 72
8
 73
4
 74
0
 40
0
 40
0
 40
0
 40
0
 40
1
 40
1
 40
1
 40
1
 10
-133.164423
 20
81.267810
 30
0.0
 10
-133.959094
 20
78.439951
 30
0.0
 10
-131.534639
 20
75.185945
 30
0.0
 10
-128.406591
 20
76.230247
 30
0.0
  0
SPLINE
  5
181
100
AcDbEntity
  8
Layer_1
 62
7
100
AcDbSpline
 70
8
 71
3
 72
8
 73
4
 74
0
 40
0
 40
0
 40
0
 40
0
 40
1
 40
1
 40
1
 40
1
 10
-128.406591
 20
76.230247
 30
0.0
 10
-127.110333
 20
76.342470
 30
0.0
 10
-125.824306
 20
76.547334
 30
0.0
 10
-124.540336
 20
76.753493
 30
0.0
  0
SPLINE
  5
182
100
AcDbEntity
  8
Layer_1
 62
7
100
AcDbSpline
 70
8
 71
3
 72
8
 73
4
 74
0
 40
0
 40
0
 40
0
 40
0
 40
1
 40
1
 40
1
 40
1
 10
-97.096316
 20
84.001218
 30
0.0
 10
-96.670053
 20
85.771211
 30
0.0
 10
-96.243847
 20
87.541184
 30
0.0
 10
-95.817584
 20
89.311177
 30
0.0
  0
SPLINE
  5
183
100
AcDbEntity
  8
Layer_1
 62
7
100
AcDbSpline
 70
8
 71
3
 72
8
 73
4
 74
0
 40
0
 40
0
 40
0
 40
0
 40
1
 40
1
 40
1
 40
1
 10
-95.817584
 20
89.311177
 30
0.0
 10
-98.223885
 20
91.717478
 30
0.0
 10
-100.630205
 20
94.123778
 30
0.0
 10
-103.036506
 20
96.530079
 30
0.0
  0
SPLINE
  5
184
100
AcDbEntity
  8
Layer_1
 62
7
100
AcDbSpline
 70
8
 71
3
 72
8
 73
4
 74
0
 40
0
 40
0
 40
0
 40
0
 40
1
 40
1
 40
1
 40
1
 10
-103.036506
 20
96.530079
 30
0.0
 10
-104.792096
 20
94.060285
 30
0.0
 10
-106.875576
 20
91.796383
 30
0.0
 10
-108.334158
 20
89.135936
 30
0.0
  0
SPLINE
  5
185
100
AcDbEntity
  8
Layer_1
 62
7
100
AcDbSpline
 70
8
 71
3
 72
8
 73
4
 74
0
 40
0
 40
0
 40
0
 40
0
 40
1
 40
1
 40
1
 40
1
 10
-108.334158
 20
89.135936
 30
0.0
 10
-108.975915
 20
85.932393
 30
0.0
 10
-105.526360
 20
83.893909
 30
0.0
 10
-103.829633
 20
81.598098
 30
0.0
  0
SPLINE
  5
186
100
AcDbEntity
  8
Layer_1
 62
7
100
AcDbSpline
 70
8
 71
3
 72
8
 73
4
 74
0
 40
0
 40
0
 40
0
 40
0
 40
1
 40
1
 40
1
 40
1
 10
-103.829633
 20
81.598098
 30
0.0
 10
-102.460986
 20
80.210535
 30
0.0
 10
-99.228811
 20
75.368367
 30
0.0
 10
-98.242306
 20
79.548776
 30
0.0
  0
SPLINE
  5
187
100
AcDbEntity
  8
Layer_1
 62
7
100
AcDbSpline
 70
8
 71
3
 72
8
 73
4
 74
0
 40
0
 40
0
 40
0
 40
0
 40
1
 40
1
 40
1
 40
1
 10
-98.242306
 20
79.548776
 30
0.0
 10
-97.791793
 20
81.014235
 30
0.0
 10
-97.461333
 20
82.513070
 30
0.0
 10
-97.096316
 20
84.001218
 30
0.0
  0
SPLINE
  5
188
100
AcDbEntity
  8
Layer_1
 62
7
100
AcDbSpline
 70
8
 71
3
 72
8
 73
4
 74
0
 40
0
 40
0
 40
0
 40
0
 40
1
 40
1
 40
1
 40
1
 10
-21.455719
 20
79.053304
 30
0.0
 10
-20.376803
 20
82.344763
 30
0.0
 10
-27.155803
 20
81.646295
 30
0.0
 10
-24.220236
 20
78.886083
 30
0.0
  0
SPLINE
  5
189
100
AcDbEntity
  8
Layer_1
 62
7
100
AcDbSpline
 70
8
 71
3
 72
8
 73
4
 74
0
 40
0
 40
0
 40
0
 40
0
 40
1
 40
1
 40
1
 40
1
 10
-24.220236
 20
78.886083
 30
0.0
 10
-23.329496
 20
77.143485
 30
0.0
 10
-21.217232
 20
75.758359
 30
0.0
 10
-21.455719
 20
79.053304
 30
0.0
  0
SPLINE
  5
18a
100
AcDbEntity
  8
Layer_1
 62
7
100
AcDbSpline
 70
8
 71
3
 72
8
 73
4
 74
0
 40
0
 40
0
 40
0
 40
0
 40
1
 40
1
 40
1
 40
1
 10
-115.347092
 20
83.165285
 30
0.0
 10
-114.221008
 20
84.656633
 30
0.0
 10
-113.094925
 20
86.147981
 30
0.0
 10
-111.968860
 20
87.639330
 30
0.0
  0
SPLINE
  5
18b
100
AcDbEntity
  8
Layer_1
 62
7
100
AcDbSpline
 70
8
 71
3
 72
8
 73
4
 74
0
 40
0
 40
0
 40
0
 40
0
 40
1
 40
1
 40
1
 40
1
 10
-111.968860
 20
87.639330
 30
0.0
 10
-117.862549
 20
88.681193
 30
0.0
 10
-123.588179
 20
90.456958
 30
0.0
 10
-129.143292
 20
92.668625
 30
0.0
  0
SPLINE
  5
18c
100
AcDbEntity
  8
Layer_1
 62
7
100
AcDbSpline
 70
8
 71
3
 72
8
 73
4
 74
0
 40
0
 40
0
 40
0
 40
0
 40
1
 40
1
 40
1
 40
1
 10
-129.143292
 20
92.668625
 30
0.0
 10
-129.572736
 20
92.646717
 30
0.0
 10
-127.959411
 20
91.192707
 30
0.0
 10
-127.569057
 20
90.595871
 30
0.0
  0
SPLINE
  5
18d
100
AcDbEntity
  8
Layer_1
 62
7
100
AcDbSpline
 70
8
 71
3
 72
8
 73
4
 74
0
 40
0
 40
0
 40
0
 40
0
 40
1
 40
1
 40
1
 40
1
 10
-127.569057
 20
90.595871
 30
0.0
 10
-124.310326
 20
87.083794
 30
0.0
 10
-122.429729
 20
82.619274
 30
0.0
 10
-119.807230
 20
78.675505
 30
0.0
  0
SPLINE
  5
18e
100
AcDbEntity
  8
Layer_1
 62
7
100
AcDbSpline
 70
8
 71
3
 72
8
 73
4
 74
0
 40
0
 40
0
 40
0
 40
0
 40
1
 40
1
 40
1
 40
1
 10
-119.807230
 20
78.675505
 30
0.0
 10
-118.635198
 20
77.089154
 30
0.0
 10
-116.329405
 20
82.768626
 30
0.0
 10
-115.347092
 20
83.165285
 30
0.0
  0
SPLINE
  5
18f
100
AcDbEntity
  8
Layer_1
 62
7
100
AcDbSpline
 70
8
 71
3
 72
8
 73
4
 74
0
 40
0
 40
0
 40
0
 40
0
 40
1
 40
1
 40
1
 40
1
 10
-23.085027
 20
82.406314
 30
0.0
 10
-20.156109
 20
83.204471
 30
0.0
 10
-21.248474
 20
88.349037
 30
0.0
 10
-24.533342
 20
87.007784
 30
0.0
  0
SPLINE
  5
190
100
AcDbEntity
  8
Layer_1
 62
7
100
AcDbSpline
 70
8
 71
3
 72
8
 73
4
 74
0
 40
0
 40
0
 40
0
 40
0
 40
1
 40
1
 40
1
 40
1
 10
-24.533342
 20
87.007784
 30
0.0
 10
-27.964208
 20
87.753249
 30
0.0
 10
-31.010837
 20
85.109356
 30
0.0
 10
-27.096233
 20
82.884774
 30
0.0
  0
SPLINE
  5
191
100
AcDbEntity
  8
Layer_1
 62
7
100
AcDbSpline
 70
8
 71
3
 72
8
 73
4
 74
0
 40
0
 40
0
 40
0
 40
0
 40
1
 40
1
 40
1
 40
1
 10
-27.096233
 20
82.884774
 30
0.0
 10
-26.046331
 20
81.676489
 30
0.0
 10
-24.420127
 20
82.004968
 30
0.0
 10
-23.085027
 20
82.406314
 30
0.0
  0
SPLINE
  5
192
100
AcDbEntity
  8
Layer_1
 62
7
100
AcDbSpline
 70
8
 71
3
 72
8
 73
4
 74
0
 40
0
 40
0
 40
0
 40
0
 40
1
 40
1
 40
1
 40
1
 10
-125.131477
 20
83.796411
 30
0.0
 10
-125.701148
 20
86.867386
 30
0.0
 10
-128.683787
 20
88.472920
 30
0.0
 10
-131.644310
 20
87.594219
 30
0.0
  0
SPLINE
  5
193
100
AcDbEntity
  8
Layer_1
 62
7
100
AcDbSpline
 70
8
 71
3
 72
8
 73
4
 74
0
 40
0
 40
0
 40
0
 40
0
 40
1
 40
1
 40
1
 40
1
 10
-131.644310
 20
87.594219
 30
0.0
 10
-134.143022
 20
87.666762
 30
0.0
 10
-137.972072
 20
87.112902
 30
0.0
 10
-135.482294
 20
83.954507
 30
0.0
  0
SPLINE
  5
194
100
AcDbEntity
  8
Layer_1
 62
7
100
AcDbSpline
 70
8
 71
3
 72
8
 73
4
 74
0
 40
0
 40
0
 40
0
 40
0
 40
1
 40
1
 40
1
 40
1
 10
-135.482294
 20
83.954507
 30
0.0
 10
-133.430381
 20
81.695634
 30
0.0
 10
-129.765084
 20
83.585928
 30
0.0
 10
-127.055317
 20
83.470885
 30
0.0
  0
SPLINE
  5
195
100
AcDbEntity
  8
Layer_1
 62
7
100
AcDbSpline
 70
8
 71
3
 72
8
 73
4
 74
0
 40
0
 40
0
 40
0
 40
0
 40
1
 40
1
 40
1
 40
1
 10
-127.055317
 20
83.470885
 30
0.0
 10
-126.412170
 20
83.564211
 30
0.0
 10
-125.758374
 20
83.615665
 30
0.0
 10
-125.131477
 20
83.796411
 30
0.0
  0
SPLINE
  5
196
100
AcDbEntity
  8
Layer_1
 62
7
100
AcDbSpline
 70
8
 71
3
 72
8
 73
4
 74
0
 40
0
 40
0
 40
0
 40
0
 40
1
 40
1
 40
1
 40
1
 10
-72.297006
 20
92.025116
 30
0.0
 10
-72.031526
 20
94.983810
 30
0.0
 10
-73.082971
 20
98.130450
 30
0.0
 10
-76.201609
 20
99.056928
 30
0.0
  0
SPLINE
  5
197
100
AcDbEntity
  8
Layer_1
 62
7
100
AcDbSpline
 70
8
 71
3
 72
8
 73
4
 74
0
 40
0
 40
0
 40
0
 40
0
 40
1
 40
1
 40
1
 40
1
 10
-76.201609
 20
99.056928
 30
0.0
 10
-81.562888
 20
101.397811
 30
0.0
 10
-87.389598
 20
102.312554
 30
0.0
 10
-93.145974
 20
103.114483
 30
0.0
  0
SPLINE
  5
198
100
AcDbEntity
  8
Layer_1
 62
7
100
AcDbSpline
 70
8
 71
3
 72
8
 73
4
 74
0
 40
0
 40
0
 40
0
 40
0
 40
1
 40
1
 40
1
 40
1
 10
-93.145974
 20
103.114483
 30
0.0
 10
-93.145974
 20
100.200538
 30
0.0
 10
-93.145974
 20
97.286593
 30
0.0
 10
-93.145974
 20
94.372647
 30
0.0
  0
SPLINE
  5
199
100
AcDbEntity
  8
Layer_1
 62
7
100
AcDbSpline
 70
8
 71
3
 72
8
 73
4
 74
0
 40
0
 40
0
 40
0
 40
0
 40
1
 40
1
 40
1
 40
1
 10
-93.145974
 20
94.372647
 30
0.0
 10
-86.862598
 20
92.421718
 30
0.0
 10
-80.817690
 20
89.589173
 30
0.0
 10
-75.345330
 20
85.940489
 30
0.0
  0
SPLINE
  5
19a
100
AcDbEntity
  8
Layer_1
 62
7
100
AcDbSpline
 70
8
 71
3
 72
8
 73
4
 74
0
 40
0
 40
0
 40
0
 40
0
 40
1
 40
1
 40
1
 40
1
 10
-75.345330
 20
85.940489
 30
0.0
 10
-74.649605
 20
85.658187
 30
0.0
 10
-73.565870
 20
83.967385
 30
0.0
 10
-73.113299
 20
84.567784
 30
0.0
  0
SPLINE
  5
19b
100
AcDbEntity
  8
Layer_1
 62
7
100
AcDbSpline
 70
8
 71
3
 72
8
 73
4
 74
0
 40
0
 40
0
 40
0
 40
0
 40
1
 40
1
 40
1
 40
1
 10
-73.113299
 20
84.567784
 30
0.0
 10
-72.060044
 20
86.897237
 30
0.0
 10
-72.274908
 20
89.533967
 30
0.0
 10
-72.297006
 20
92.025116
 30
0.0
  0
SPLINE
  5
19c
100
AcDbEntity
  8
Layer_1
 62
7
100
AcDbSpline
 70
8
 71
3
 72
8
 73
4
 74
0
 40
0
 40
0
 40
0
 40
0
 40
1
 40
1
 40
1
 40
1
 10
-24.895406
 20
88.207820
 30
0.0
 10
-21.151052
 20
87.704633
 30
0.0
 10
-21.449756
 20
93.709803
 30
0.0
 10
-24.830541
 20
93.508120
 30
0.0
  0
SPLINE
  5
19d
100
AcDbEntity
  8
Layer_1
 62
7
100
AcDbSpline
 70
8
 71
3
 72
8
 73
4
 74
0
 40
0
 40
0
 40
0
 40
0
 40
1
 40
1
 40
1
 40
1
 10
-24.830541
 20
93.508120
 30
0.0
 10
-27.513924
 20
93.656729
 30
0.0
 10
-31.790972
 20
93.055702
 30
0.0
 10
-30.149243
 20
89.333942
 30
0.0
  0
SPLINE
  5
19e
100
AcDbEntity
  8
Layer_1
 62
7
100
AcDbSpline
 70
8
 71
3
 72
8
 73
4
 74
0
 40
0
 40
0
 40
0
 40
0
 40
1
 40
1
 40
1
 40
1
 10
-30.149243
 20
89.333942
 30
0.0
 10
-29.793637
 20
86.725044
 30
0.0
 10
-26.570187
 20
88.130877
 30
0.0
 10
-24.895292
 20
88.207820
 30
0.0
  0
LWPOLYLINE
  5
19f
100
AcDbEntity
  8
Layer_1
 62
7
100
AcDbPolyline
 90
2
 70
0
 10
-16.004676
 20
83.506851
 30
0.0
 10
-16.004790
 20
83.506851
 30
0.0
  0
SPLINE
  5
1a0
100
AcDbEntity
  8
Layer_1
 62
7
100
AcDbSpline
 70
8
 71
3
 72
8
 73
4
 74
0
 40
0
 40
0
 40
0
 40
0
 40
1
 40
1
 40
1
 40
1
 10
-130.864860
 20
89.100141
 30
0.0
 10
-129.631582
 20
89.337428
 30
0.0
 10
-128.586194
 20
89.615443
 30
0.0
 10
-130.152599
 20
90.459396
 30
0.0
  0
SPLINE
  5
1a1
100
AcDbEntity
  8
Layer_1
 62
7
100
AcDbSpline
 70
8
 71
3
 72
8
 73
4
 74
0
 40
0
 40
0
 40
0
 40
0
 40
1
 40
1
 40
1
 40
1
 10
-130.152599
 20
90.459396
 30
0.0
 10
-132.027939
 20
92.094439
 30
0.0
 10
-134.127858
 20
94.086097
 30
0.0
 10
-136.853094
 20
93.378028
 30
0.0
  0
SPLINE
  5
1a2
100
AcDbEntity
  8
Layer_1
 62
7
100
AcDbSpline
 70
8
 71
3
 72
8
 73
4
 74
0
 40
0
 40
0
 40
0
 40
0
 40
1
 40
1
 40
1
 40
1
 10
-136.853094
 20
93.378028
 30
0.0
 10
-138.450608
 20
93.180689
 30
0.0
 10
-140.033206
 20
92.882347
 30
0.0
 10
-141.622357
 20
92.629230
 30
0.0
  0
SPLINE
  5
1a3
100
AcDbEntity
  8
Layer_1
 62
7
100
AcDbSpline
 70
8
 71
3
 72
8
 73
4
 74
0
 40
0
 40
0
 40
0
 40
0
 40
1
 40
1
 40
1
 40
1
 10
-141.622357
 20
92.629230
 30
0.0
 10
-140.142477
 20
90.787056
 30
0.0
 10
-138.683970
 20
88.254969
 30
0.0
 10
-135.929455
 20
88.579619
 30
0.0
  0
SPLINE
  5
1a4
100
AcDbEntity
  8
Layer_1
 62
7
100
AcDbSpline
 70
8
 71
3
 72
8
 73
4
 74
0
 40
0
 40
0
 40
0
 40
0
 40
1
 40
1
 40
1
 40
1
 10
-135.929455
 20
88.579619
 30
0.0
 10
-134.233052
 20
88.587829
 30
0.0
 10
-132.519086
 20
88.707635
 30
0.0
 10
-130.864860
 20
89.100141
 30
0.0
  0
SPLINE
  5
1a5
100
AcDbEntity
  8
Layer_1
 62
7
100
AcDbSpline
 70
8
 71
3
 72
8
 73
4
 74
0
 40
0
 40
0
 40
0
 40
0
 40
1
 40
1
 40
1
 40
1
 10
-57.795232
 20
91.630495
 30
0.0
 10
-58.932155
 20
92.888443
 30
0.0
 10
-60.881923
 20
91.065625
 30
0.0
 10
-62.274497
 20
90.685310
 30
0.0
  0
SPLINE
  5
1a6
100
AcDbEntity
  8
Layer_1
 62
7
100
AcDbSpline
 70
8
 71
3
 72
8
 73
4
 74
0
 40
0
 40
0
 40
0
 40
0
 40
1
 40
1
 40
1
 40
1
 10
-62.274497
 20
90.685310
 30
0.0
 10
-63.742394
 20
90.220338
 30
0.0
 10
-63.909672
 20
89.858750
 30
0.0
 10
-62.273849
 20
89.640532
 30
0.0
  0
SPLINE
  5
1a7
100
AcDbEntity
  8
Layer_1
 62
7
100
AcDbSpline
 70
8
 71
3
 72
8
 73
4
 74
0
 40
0
 40
0
 40
0
 40
0
 40
1
 40
1
 40
1
 40
1
 10
-62.273849
 20
89.640532
 30
0.0
 10
-60.466937
 20
88.999424
 30
0.0
 10
-56.980673
 20
88.522983
 30
0.0
 10
-57.795232
 20
91.630495
 30
0.0
  0
SPLINE
  5
1a8
100
AcDbEntity
  8
Layer_1
 62
7
100
AcDbSpline
 70
8
 71
3
 72
8
 73
4
 74
0
 40
0
 40
0
 40
0
 40
0
 40
1
 40
1
 40
1
 40
1
 10
-32.083161
 20
90.820642
 30
0.0
 10
-33.223723
 20
95.906611
 30
0.0
 10
-35.632672
 20
100.882204
 30
0.0
 10
-39.458045
 20
104.479644
 30
0.0
  0
SPLINE
  5
1a9
100
AcDbEntity
  8
Layer_1
 62
7
100
AcDbSpline
 70
8
 71
3
 72
8
 73
4
 74
0
 40
0
 40
0
 40
0
 40
0
 40
1
 40
1
 40
1
 40
1
 10
-39.458045
 20
104.479644
 30
0.0
 10
-41.197139
 20
106.802030
 30
0.0
 10
-45.892354
 20
104.346618
 30
0.0
 10
-42.937280
 20
102.041777
 30
0.0
  0
SPLINE
  5
1aa
100
AcDbEntity
  8
Layer_1
 62
7
100
AcDbSpline
 70
8
 71
3
 72
8
 73
4
 74
0
 40
0
 40
0
 40
0
 40
0
 40
1
 40
1
 40
1
 40
1
 10
-42.937280
 20
102.041777
 30
0.0
 10
-39.503727
 20
97.401350
 30
0.0
 10
-35.368239
 20
93.325812
 30
0.0
 10
-31.969338
 20
88.654104
 30
0.0
  0
SPLINE
  5
1ab
100
AcDbEntity
  8
Layer_1
 62
7
100
AcDbSpline
 70
8
 71
3
 72
8
 73
4
 74
0
 40
0
 40
0
 40
0
 40
0
 40
1
 40
1
 40
1
 40
1
 10
-31.969338
 20
88.654104
 30
0.0
 10
-31.423784
 20
88.097139
 30
0.0
 10
-32.129167
 20
90.651173
 30
0.0
 10
-32.083180
 20
90.820642
 30
0.0
  0
LWPOLYLINE
  5
1ac
100
AcDbEntity
  8
Layer_1
 62
7
100
AcDbPolyline
 90
2
 70
0
 10
-24.895292
 20
88.207820
 30
0.0
 10
-24.895406
 20
88.207820
 30
0.0
  0
SPLINE
  5
1ad
100
AcDbEntity
  8
Layer_1
 62
7
100
AcDbSpline
 70
8
 71
3
 72
8
 73
4
 74
0
 40
0
 40
0
 40
0
 40
0
 40
1
 40
1
 40
1
 40
1
 10
-63.456054
 20
92.304694
 30
0.0
 10
-60.020272
 20
93.023603
 30
0.0
 10
-59.634852
 20
96.807218
 30
0.0
 10
-61.508515
 20
99.295358
 30
0.0
  0
SPLINE
  5
1ae
100
AcDbEntity
  8
Layer_1
 62
7
100
AcDbSpline
 70
8
 71
3
 72
8
 73
4
 74
0
 40
0
 40
0
 40
0
 40
0
 40
1
 40
1
 40
1
 40
1
 10
-61.508515
 20
99.295358
 30
0.0
 10
-63.460321
 20
102.664979
 30
0.0
 10
-66.337900
 20
105.854197
 30
0.0
 10
-70.071605
 20
107.153693
 30
0.0
  0
SPLINE
  5
1af
100
AcDbEntity
  8
Layer_1
 62
7
100
AcDbSpline
 70
8
 71
3
 72
8
 73
4
 74
0
 40
0
 40
0
 40
0
 40
0
 40
1
 40
1
 40
1
 40
1
 10
-70.071605
 20
107.153693
 30
0.0
 10
-71.726364
 20
105.249454
 30
0.0
 10
-70.294661
 20
101.986113
 30
0.0
 10
-70.417533
 20
99.553428
 30
0.0
  0
SPLINE
  5
1b0
100
AcDbEntity
  8
Layer_1
 62
7
100
AcDbSpline
 70
8
 71
3
 72
8
 73
4
 74
0
 40
0
 40
0
 40
0
 40
0
 40
1
 40
1
 40
1
 40
1
 10
-70.417533
 20
99.553428
 30
0.0
 10
-70.158892
 20
96.355143
 30
0.0
 10
-70.018798
 20
93.128587
 30
0.0
 10
-70.380043
 20
89.941103
 30
0.0
  0
SPLINE
  5
1b1
100
AcDbEntity
  8
Layer_1
 62
7
100
AcDbSpline
 70
8
 71
3
 72
8
 73
4
 74
0
 40
0
 40
0
 40
0
 40
0
 40
1
 40
1
 40
1
 40
1
 10
-70.380043
 20
89.941103
 30
0.0
 10
-68.236670
 20
89.400959
 30
0.0
 10
-65.654881
 20
91.565630
 30
0.0
 10
-63.456302
 20
92.304694
 30
0.0
  0
LWPOLYLINE
  5
1b2
100
AcDbEntity
  8
Layer_1
 62
7
100
AcDbPolyline
 90
1
 70
1
 10
-32.083180
 20
90.820642
 30
0.0
  0
SPLINE
  5
1b3
100
AcDbEntity
  8
Layer_1
 62
7
100
AcDbSpline
 70
8
 71
3
 72
8
 73
4
 74
0
 40
0
 40
0
 40
0
 40
0
 40
1
 40
1
 40
1
 40
1
 10
-108.224906
 20
92.688494
 30
0.0
 10
-106.093116
 20
94.868386
 30
0.0
 10
-106.507073
 20
97.983099
 30
0.0
 10
-106.943261
 20
100.712449
 30
0.0
  0
SPLINE
  5
1b4
100
AcDbEntity
  8
Layer_1
 62
7
100
AcDbSpline
 70
8
 71
3
 72
8
 73
4
 74
0
 40
0
 40
0
 40
0
 40
0
 40
1
 40
1
 40
1
 40
1
 10
-106.943261
 20
100.712449
 30
0.0
 10
-107.129379
 20
103.611269
 30
0.0
 10
-107.582217
 20
107.210328
 30
0.0
 10
-111.412962
 20
106.884592
 30
0.0
  0
SPLINE
  5
1b5
100
AcDbEntity
  8
Layer_1
 62
7
100
AcDbSpline
 70
8
 71
3
 72
8
 73
4
 74
0
 40
0
 40
0
 40
0
 40
0
 40
1
 40
1
 40
1
 40
1
 10
-111.412962
 20
106.884592
 30
0.0
 10
-113.919104
 20
107.449520
 30
0.0
 10
-118.287993
 20
108.475172
 30
0.0
 10
-117.884952
 20
104.395500
 30
0.0
  0
SPLINE
  5
1b6
100
AcDbEntity
  8
Layer_1
 62
7
100
AcDbSpline
 70
8
 71
3
 72
8
 73
4
 74
0
 40
0
 40
0
 40
0
 40
0
 40
1
 40
1
 40
1
 40
1
 10
-117.884952
 20
104.395500
 30
0.0
 10
-118.371203
 20
100.230980
 30
0.0
 10
-118.565856
 20
95.829687
 30
0.0
 10
-117.250206
 20
91.800021
 30
0.0
  0
SPLINE
  5
1b7
100
AcDbEntity
  8
Layer_1
 62
7
100
AcDbSpline
 70
8
 71
3
 72
8
 73
4
 74
0
 40
0
 40
0
 40
0
 40
0
 40
1
 40
1
 40
1
 40
1
 10
-117.250206
 20
91.800021
 30
0.0
 10
-115.729597
 20
89.263495
 30
0.0
 10
-111.255590
 20
89.328550
 30
0.0
 10
-109.308451
 20
91.296053
 30
0.0
  0
SPLINE
  5
1b8
100
AcDbEntity
  8
Layer_1
 62
7
100
AcDbSpline
 70
8
 71
3
 72
8
 73
4
 74
0
 40
0
 40
0
 40
0
 40
0
 40
1
 40
1
 40
1
 40
1
 10
-109.308451
 20
91.296053
 30
0.0
 10
-108.914002
 20
91.733213
 30
0.0
 10
-108.565539
 20
92.209139
 30
0.0
 10
-108.224906
 20
92.688494
 30
0.0
  0
SPLINE
  5
1b9
100
AcDbEntity
  8
Layer_1
 62
7
100
AcDbSpline
 70
8
 71
3
 72
8
 73
4
 74
0
 40
0
 40
0
 40
0
 40
0
 40
1
 40
1
 40
1
 40
1
 10
-118.853092
 20
99.961670
 30
0.0
 10
-118.853092
 20
103.068344
 30
0.0
 10
-118.853092
 20
106.175018
 30
0.0
 10
-118.853092
 20
109.281711
 30
0.0
  0
SPLINE
  5
1ba
100
AcDbEntity
  8
Layer_1
 62
7
100
AcDbSpline
 70
8
 71
3
 72
8
 73
4
 74
0
 40
0
 40
0
 40
0
 40
0
 40
1
 40
1
 40
1
 40
1
 10
-118.853092
 20
109.281711
 30
0.0
 10
-120.995341
 20
110.492605
 30
0.0
 10
-123.060284
 20
111.941205
 30
0.0
 10
-125.279838
 20
112.940949
 30
0.0
  0
SPLINE
  5
1bb
100
AcDbEntity
  8
Layer_1
 62
7
100
AcDbSpline
 70
8
 71
3
 72
8
 73
4
 74
0
 40
0
 40
0
 40
0
 40
0
 40
1
 40
1
 40
1
 40
1
 10
-125.279838
 20
112.940949
 30
0.0
 10
-127.019389
 20
110.800377
 30
0.0
 10
-127.328761
 20
107.810156
 30
0.0
 10
-127.951601
 20
105.180341
 30
0.0
  0
SPLINE
  5
1bc
100
AcDbEntity
  8
Layer_1
 62
7
100
AcDbSpline
 70
8
 71
3
 72
8
 73
4
 74
0
 40
0
 40
0
 40
0
 40
0
 40
1
 40
1
 40
1
 40
1
 10
-127.951601
 20
105.180341
 30
0.0
 10
-128.333039
 20
102.024175
 30
0.0
 10
-129.093496
 20
98.619064
 30
0.0
 10
-127.889193
 20
95.561844
 30
0.0
  0
SPLINE
  5
1bd
100
AcDbEntity
  8
Layer_1
 62
7
100
AcDbSpline
 70
8
 71
3
 72
8
 73
4
 74
0
 40
0
 40
0
 40
0
 40
0
 40
1
 40
1
 40
1
 40
1
 10
-127.889193
 20
95.561844
 30
0.0
 10
-125.967505
 20
92.638888
 30
0.0
 10
-122.140760
 20
92.246172
 30
0.0
 10
-119.190658
 20
90.821461
 30
0.0
  0
SPLINE
  5
1be
100
AcDbEntity
  8
Layer_1
 62
7
100
AcDbSpline
 70
8
 71
3
 72
8
 73
4
 74
0
 40
0
 40
0
 40
0
 40
0
 40
1
 40
1
 40
1
 40
1
 10
-119.190658
 20
90.821461
 30
0.0
 10
-118.456947
 20
90.849102
 30
0.0
 10
-119.038753
 20
92.864878
 30
0.0
 10
-118.852978
 20
93.720642
 30
0.0
  0
SPLINE
  5
1bf
100
AcDbEntity
  8
Layer_1
 62
7
100
AcDbSpline
 70
8
 71
3
 72
8
 73
4
 74
0
 40
0
 40
0
 40
0
 40
0
 40
1
 40
1
 40
1
 40
1
 10
-118.852978
 20
93.720642
 30
0.0
 10
-118.852978
 20
95.800978
 30
0.0
 10
-118.852978
 20
97.881334
 30
0.0
 10
-118.852978
 20
99.961670
 30
0.0
  0
LWPOLYLINE
  5
1c0
100
AcDbEntity
  8
Layer_1
 62
7
100
AcDbPolyline
 90
2
 70
0
 10
-63.456302
 20
92.304694
 30
0.0
 10
-63.456054
 20
92.304694
 30
0.0
  0
SPLINE
  5
1c1
100
AcDbEntity
  8
Layer_1
 62
7
100
AcDbSpline
 70
8
 71
3
 72
8
 73
4
 74
0
 40
0
 40
0
 40
0
 40
0
 40
1
 40
1
 40
1
 40
1
 10
-95.318398
 20
98.605196
 30
0.0
 10
-95.520119
 20
100.739272
 30
0.0
 10
-94.887963
 20
104.777662
 30
0.0
 10
-95.920035
 20
105.511316
 30
0.0
  0
SPLINE
  5
1c2
100
AcDbEntity
  8
Layer_1
 62
7
100
AcDbSpline
 70
8
 71
3
 72
8
 73
4
 74
0
 40
0
 40
0
 40
0
 40
0
 40
1
 40
1
 40
1
 40
1
 10
-95.920035
 20
105.511316
 30
0.0
 10
-98.199863
 20
102.885159
 30
0.0
 10
-100.259778
 20
100.079189
 30
0.0
 10
-102.409932
 20
97.347876
 30
0.0
  0
SPLINE
  5
1c3
100
AcDbEntity
  8
Layer_1
 62
7
100
AcDbSpline
 70
8
 71
3
 72
8
 73
4
 74
0
 40
0
 40
0
 40
0
 40
0
 40
1
 40
1
 40
1
 40
1
 10
-102.409932
 20
97.347876
 30
0.0
 10
-100.266121
 20
95.320347
 30
0.0
 10
-98.369579
 20
92.962147
 30
0.0
 10
-95.872086
 20
91.363757
 30
0.0
  0
SPLINE
  5
1c4
100
AcDbEntity
  8
Layer_1
 62
7
100
AcDbSpline
 70
8
 71
3
 72
8
 73
4
 74
0
 40
0
 40
0
 40
0
 40
0
 40
1
 40
1
 40
1
 40
1
 10
-95.872086
 20
91.363757
 30
0.0
 10
-95.174228
 20
93.648195
 30
0.0
 10
-95.417344
 20
96.213716
 30
0.0
 10
-95.318398
 20
98.605196
 30
0.0
  0
SPLINE
  5
1c5
100
AcDbEntity
  8
Layer_1
 62
7
100
AcDbSpline
 70
8
 71
3
 72
8
 73
4
 74
0
 40
0
 40
0
 40
0
 40
0
 40
1
 40
1
 40
1
 40
1
 10
-52.355219
 20
98.526919
 30
0.0
 10
-50.331347
 20
100.905712
 30
0.0
 10
-52.098215
 20
104.276990
 30
0.0
 10
-53.576419
 20
106.476084
 30
0.0
  0
SPLINE
  5
1c6
100
AcDbEntity
  8
Layer_1
 62
7
100
AcDbSpline
 70
8
 71
3
 72
8
 73
4
 74
0
 40
0
 40
0
 40
0
 40
0
 40
1
 40
1
 40
1
 40
1
 10
-53.576419
 20
106.476084
 30
0.0
 10
-55.382416
 20
108.886557
 30
0.0
 10
-58.374085
 20
111.676029
 30
0.0
 10
-61.622320
 20
110.363675
 30
0.0
  0
SPLINE
  5
1c7
100
AcDbEntity
  8
Layer_1
 62
7
100
AcDbSpline
 70
8
 71
3
 72
8
 73
4
 74
0
 40
0
 40
0
 40
0
 40
0
 40
1
 40
1
 40
1
 40
1
 10
-61.622320
 20
110.363675
 30
0.0
 10
-63.344154
 20
109.519703
 30
0.0
 10
-67.685363
 20
109.385438
 30
0.0
 10
-67.413844
 20
107.365376
 30
0.0
  0
SPLINE
  5
1c8
100
AcDbEntity
  8
Layer_1
 62
7
100
AcDbSpline
 70
8
 71
3
 72
8
 73
4
 74
0
 40
0
 40
0
 40
0
 40
0
 40
1
 40
1
 40
1
 40
1
 10
-67.413844
 20
107.365376
 30
0.0
 10
-65.119233
 20
105.485808
 30
0.0
 10
-62.798791
 20
103.559319
 30
0.0
 10
-61.278677
 20
100.950822
 30
0.0
  0
SPLINE
  5
1c9
100
AcDbEntity
  8
Layer_1
 62
7
100
AcDbSpline
 70
8
 71
3
 72
8
 73
4
 74
0
 40
0
 40
0
 40
0
 40
0
 40
1
 40
1
 40
1
 40
1
 10
-61.278677
 20
100.950822
 30
0.0
 10
-59.909439
 20
98.944952
 30
0.0
 10
-58.844258
 20
96.617919
 30
0.0
 10
-59.111187
 20
94.142123
 30
0.0
  0
SPLINE
  5
1ca
100
AcDbEntity
  8
Layer_1
 62
7
100
AcDbSpline
 70
8
 71
3
 72
8
 73
4
 74
0
 40
0
 40
0
 40
0
 40
0
 40
1
 40
1
 40
1
 40
1
 10
-59.111187
 20
94.142123
 30
0.0
 10
-56.814538
 20
95.532526
 30
0.0
 10
-54.455005
 20
96.841604
 30
0.0
 10
-52.355219
 20
98.526919
 30
0.0
  0
SPLINE
  5
1cb
100
AcDbEntity
  8
Layer_1
 62
7
100
AcDbSpline
 70
8
 71
3
 72
8
 73
4
 74
0
 40
0
 40
0
 40
0
 40
0
 40
1
 40
1
 40
1
 40
1
 10
-23.895757
 20
95.199551
 30
0.0
 10
-23.545580
 20
99.395771
 30
0.0
 10
-28.448040
 20
98.267134
 30
0.0
 10
-31.020762
 20
97.750422
 30
0.0
  0
SPLINE
  5
1cc
100
AcDbEntity
  8
Layer_1
 62
7
100
AcDbSpline
 70
8
 71
3
 72
8
 73
4
 74
0
 40
0
 40
0
 40
0
 40
0
 40
1
 40
1
 40
1
 40
1
 10
-31.020762
 20
97.750422
 30
0.0
 10
-33.973855
 20
97.315549
 30
0.0
 10
-30.083845
 20
92.950336
 30
0.0
 10
-27.999870
 20
94.398346
 30
0.0
  0
SPLINE
  5
1cd
100
AcDbEntity
  8
Layer_1
 62
7
100
AcDbSpline
 70
8
 71
3
 72
8
 73
4
 74
0
 40
0
 40
0
 40
0
 40
0
 40
1
 40
1
 40
1
 40
1
 10
-27.999870
 20
94.398346
 30
0.0
 10
-26.628060
 20
94.586103
 30
0.0
 10
-25.182070
 20
94.649063
 30
0.0
 10
-23.895757
 20
95.199551
 30
0.0
  0
SPLINE
  5
1ce
100
AcDbEntity
  8
Layer_1
 62
7
100
AcDbSpline
 70
8
 71
3
 72
8
 73
4
 74
0
 40
0
 40
0
 40
0
 40
0
 40
1
 40
1
 40
1
 40
1
 10
-129.474172
 20
100.292854
 30
0.0
 10
-129.607198
 20
104.580095
 30
0.0
 10
-128.352698
 20
108.688361
 30
0.0
 10
-127.215966
 20
112.760393
 30
0.0
  0
SPLINE
  5
1cf
100
AcDbEntity
  8
Layer_1
 62
7
100
AcDbSpline
 70
8
 71
3
 72
8
 73
4
 74
0
 40
0
 40
0
 40
0
 40
0
 40
1
 40
1
 40
1
 40
1
 10
-127.215966
 20
112.760393
 30
0.0
 10
-126.200906
 20
114.951429
 30
0.0
 10
-128.352965
 20
116.056691
 30
0.0
 10
-129.438853
 20
113.841938
 30
0.0
  0
SPLINE
  5
1d0
100
AcDbEntity
  8
Layer_1
 62
7
100
AcDbSpline
 70
8
 71
3
 72
8
 73
4
 74
0
 40
0
 40
0
 40
0
 40
0
 40
1
 40
1
 40
1
 40
1
 10
-129.438853
 20
113.841938
 30
0.0
 10
-133.195170
 20
109.221056
 30
0.0
 10
-133.969743
 20
102.364237
 30
0.0
 10
-131.584531
 20
96.948036
 30
0.0
  0
SPLINE
  5
1d1
100
AcDbEntity
  8
Layer_1
 62
7
100
AcDbSpline
 70
8
 71
3
 72
8
 73
4
 74
0
 40
0
 40
0
 40
0
 40
0
 40
1
 40
1
 40
1
 40
1
 10
-131.584531
 20
96.948036
 30
0.0
 10
-130.669559
 20
94.675009
 30
0.0
 10
-128.869010
 20
94.675904
 30
0.0
 10
-129.504671
 20
97.332255
 30
0.0
  0
SPLINE
  5
1d2
100
AcDbEntity
  8
Layer_1
 62
7
100
AcDbSpline
 70
8
 71
3
 72
8
 73
4
 74
0
 40
0
 40
0
 40
0
 40
0
 40
1
 40
1
 40
1
 40
1
 10
-129.504671
 20
97.332255
 30
0.0
 10
-129.488250
 20
98.319026
 30
0.0
 10
-129.477296
 20
99.306140
 30
0.0
 10
-129.474286
 20
100.292854
 30
0.0
  0
LWPOLYLINE
  5
1d3
100
AcDbEntity
  8
Layer_1
 62
7
100
AcDbPolyline
 90
2
 70
0
 10
-118.852978
 20
99.961670
 30
0.0
 10
-118.853092
 20
99.961670
 30
0.0
  0
SPLINE
  5
1d4
100
AcDbEntity
  8
Layer_1
 62
7
100
AcDbSpline
 70
8
 71
3
 72
8
 73
4
 74
0
 40
0
 40
0
 40
0
 40
0
 40
1
 40
1
 40
1
 40
1
 10
-101.473625
 20
101.501729
 30
0.0
 10
-100.359180
 20
102.950024
 30
0.0
 10
-99.244775
 20
104.398301
 30
0.0
 10
-98.130311
 20
105.846596
 30
0.0
  0
SPLINE
  5
1d5
100
AcDbEntity
  8
Layer_1
 62
7
100
AcDbSpline
 70
8
 71
3
 72
8
 73
4
 74
0
 40
0
 40
0
 40
0
 40
0
 40
1
 40
1
 40
1
 40
1
 10
-98.130311
 20
105.846596
 30
0.0
 10
-100.733437
 20
105.700997
 30
0.0
 10
-103.489705
 20
106.245827
 30
0.0
 10
-105.961100
 20
105.315996
 30
0.0
  0
SPLINE
  5
1d6
100
AcDbEntity
  8
Layer_1
 62
7
100
AcDbSpline
 70
8
 71
3
 72
8
 73
4
 74
0
 40
0
 40
0
 40
0
 40
0
 40
1
 40
1
 40
1
 40
1
 10
-105.961100
 20
105.315996
 30
0.0
 10
-106.410927
 20
102.717995
 30
0.0
 10
-105.592425
 20
99.770522
 30
0.0
 10
-105.038222
 20
97.156862
 30
0.0
  0
SPLINE
  5
1d7
100
AcDbEntity
  8
Layer_1
 62
7
100
AcDbSpline
 70
8
 71
3
 72
8
 73
4
 74
0
 40
0
 40
0
 40
0
 40
0
 40
1
 40
1
 40
1
 40
1
 10
-105.038222
 20
97.156862
 30
0.0
 10
-103.734212
 20
98.500363
 30
0.0
 10
-102.639008
 20
100.039318
 30
0.0
 10
-101.473625
 20
101.501729
 30
0.0
  0
SPLINE
  5
1d8
100
AcDbEntity
  8
Layer_1
 62
7
100
AcDbSpline
 70
8
 71
3
 72
8
 73
4
 74
0
 40
0
 40
0
 40
0
 40
0
 40
1
 40
1
 40
1
 40
1
 10
-72.561935
 20
102.768973
 30
0.0
 10
-72.738185
 20
105.612186
 30
0.0
 10
-73.227428
 20
109.804271
 30
0.0
 10
-76.897486
 20
109.986104
 30
0.0
  0
SPLINE
  5
1d9
100
AcDbEntity
  8
Layer_1
 62
7
100
AcDbSpline
 70
8
 71
3
 72
8
 73
4
 74
0
 40
0
 40
0
 40
0
 40
0
 40
1
 40
1
 40
1
 40
1
 10
-76.897486
 20
109.986104
 30
0.0
 10
-81.827950
 20
110.244193
 30
0.0
 10
-86.925006
 20
109.818330
 30
0.0
 10
-91.594161
 20
108.128348
 30
0.0
  0
SPLINE
  5
1da
100
AcDbEntity
  8
Layer_1
 62
7
100
AcDbSpline
 70
8
 71
3
 72
8
 73
4
 74
0
 40
0
 40
0
 40
0
 40
0
 40
1
 40
1
 40
1
 40
1
 10
-91.594161
 20
108.128348
 30
0.0
 10
-95.164265
 20
107.399438
 30
0.0
 10
-93.327368
 20
103.673505
 30
0.0
 10
-90.439712
 20
103.877645
 30
0.0
  0
SPLINE
  5
1db
100
AcDbEntity
  8
Layer_1
 62
7
100
AcDbSpline
 70
8
 71
3
 72
8
 73
4
 74
0
 40
0
 40
0
 40
0
 40
0
 40
1
 40
1
 40
1
 40
1
 10
-90.439712
 20
103.877645
 30
0.0
 10
-84.808742
 20
102.967379
 30
0.0
 10
-78.997368
 20
102.018136
 30
0.0
 10
-73.960472
 20
99.189859
 30
0.0
  0
SPLINE
  5
1dc
100
AcDbEntity
  8
Layer_1
 62
7
100
AcDbSpline
 70
8
 71
3
 72
8
 73
4
 74
0
 40
0
 40
0
 40
0
 40
0
 40
1
 40
1
 40
1
 40
1
 10
-73.960472
 20
99.189859
 30
0.0
 10
-72.609693
 20
97.476959
 30
0.0
 10
-71.889451
 20
98.042078
 30
0.0
 10
-72.346003
 20
100.040975
 30
0.0
  0
SPLINE
  5
1dd
100
AcDbEntity
  8
Layer_1
 62
7
100
AcDbSpline
 70
8
 71
3
 72
8
 73
4
 74
0
 40
0
 40
0
 40
0
 40
0
 40
1
 40
1
 40
1
 40
1
 10
-72.346003
 20
100.040975
 30
0.0
 10
-72.402924
 20
100.951413
 30
0.0
 10
-72.477372
 20
101.860821
 30
0.0
 10
-72.561935
 20
102.768973
 30
0.0
  0
SPLINE
  5
1de
100
AcDbEntity
  8
Layer_1
 62
7
100
AcDbSpline
 70
8
 71
3
 72
8
 73
4
 74
0
 40
0
 40
0
 40
0
 40
0
 40
1
 40
1
 40
1
 40
1
 10
-25.800586
 20
99.984930
 30
0.0
 10
-26.489529
 20
103.748962
 30
0.0
 10
-30.666718
 20
103.034740
 30
0.0
 10
-33.362045
 20
102.314059
 30
0.0
  0
SPLINE
  5
1df
100
AcDbEntity
  8
Layer_1
 62
7
100
AcDbSpline
 70
8
 71
3
 72
8
 73
4
 74
0
 40
0
 40
0
 40
0
 40
0
 40
1
 40
1
 40
1
 40
1
 10
-33.362045
 20
102.314059
 30
0.0
 10
-36.129019
 20
99.721640
 30
0.0
 10
-30.107124
 20
98.366042
 30
0.0
 10
-27.978686
 20
99.356261
 30
0.0
  0
SPLINE
  5
1e0
100
AcDbEntity
  8
Layer_1
 62
7
100
AcDbSpline
 70
8
 71
3
 72
8
 73
4
 74
0
 40
0
 40
0
 40
0
 40
0
 40
1
 40
1
 40
1
 40
1
 10
-27.978686
 20
99.356261
 30
0.0
 10
-27.263035
 20
99.522110
 30
0.0
 10
-26.378867
 20
99.464922
 30
0.0
 10
-25.800586
 20
99.984930
 30
0.0
  0
SPLINE
  5
1e1
100
AcDbEntity
  8
Layer_1
 62
7
100
AcDbSpline
 70
8
 71
3
 72
8
 73
4
 74
0
 40
0
 40
0
 40
0
 40
0
 40
1
 40
1
 40
1
 40
1
 10
-45.352477
 20
109.083191
 30
0.0
 10
-45.123382
 20
111.596191
 30
0.0
 10
-45.900012
 20
114.141194
 30
0.0
 10
-47.826996
 20
115.834663
 30
0.0
  0
SPLINE
  5
1e2
100
AcDbEntity
  8
Layer_1
 62
7
100
AcDbSpline
 70
8
 71
3
 72
8
 73
4
 74
0
 40
0
 40
0
 40
0
 40
0
 40
1
 40
1
 40
1
 40
1
 10
-47.826996
 20
115.834663
 30
0.0
 10
-48.571260
 20
116.355281
 30
0.0
 10
-49.158819
 20
118.229115
 30
0.0
 10
-50.092765
 20
117.110842
 30
0.0
  0
SPLINE
  5
1e3
100
AcDbEntity
  8
Layer_1
 62
7
100
AcDbSpline
 70
8
 71
3
 72
8
 73
4
 74
0
 40
0
 40
0
 40
0
 40
0
 40
1
 40
1
 40
1
 40
1
 10
-50.092765
 20
117.110842
 30
0.0
 10
-52.534708
 20
115.400266
 30
0.0
 10
-54.976613
 20
113.689690
 30
0.0
 10
-57.418537
 20
111.979134
 30
0.0
  0
SPLINE
  5
1e4
100
AcDbEntity
  8
Layer_1
 62
7
100
AcDbSpline
 70
8
 71
3
 72
8
 73
4
 74
0
 40
0
 40
0
 40
0
 40
0
 40
1
 40
1
 40
1
 40
1
 10
-57.418537
 20
111.979134
 30
0.0
 10
-54.620835
 20
109.039909
 30
0.0
 10
-50.808378
 20
106.352659
 30
0.0
 10
-50.538935
 20
101.945689
 30
0.0
  0
SPLINE
  5
1e5
100
AcDbEntity
  8
Layer_1
 62
7
100
AcDbSpline
 70
8
 71
3
 72
8
 73
4
 74
0
 40
0
 40
0
 40
0
 40
0
 40
1
 40
1
 40
1
 40
1
 10
-50.538935
 20
101.945689
 30
0.0
 10
-50.307934
 20
101.113985
 30
0.0
 10
-50.472698
 20
98.964231
 30
0.0
 10
-49.512787
 20
100.561497
 30
0.0
  0
SPLINE
  5
1e6
100
AcDbEntity
  8
Layer_1
 62
7
100
AcDbSpline
 70
8
 71
3
 72
8
 73
4
 74
0
 40
0
 40
0
 40
0
 40
0
 40
1
 40
1
 40
1
 40
1
 10
-49.512787
 20
100.561497
 30
0.0
 10
-47.630952
 20
102.672580
 30
0.0
 10
-45.095207
 20
104.750211
 30
0.0
 10
-45.369089
 20
107.887270
 30
0.0
  0
LWPOLYLINE
  5
1e7
100
AcDbEntity
  8
Layer_1
 62
7
100
AcDbPolyline
 90
2
 70
0
 10
-129.474286
 20
100.292854
 30
0.0
 10
-129.474172
 20
100.292854
 30
0.0
  0
SPLINE
  5
1e8
100
AcDbEntity
  8
Layer_1
 62
7
100
AcDbSpline
 70
8
 71
3
 72
8
 73
4
 74
0
 40
0
 40
0
 40
0
 40
0
 40
1
 40
1
 40
1
 40
1
 10
-29.888316
 20
104.096168
 30
0.0
 10
-27.474014
 20
107.194631
 30
0.0
 10
-34.081678
 20
106.759738
 30
0.0
 10
-35.859710
 20
106.115829
 30
0.0
  0
SPLINE
  5
1e9
100
AcDbEntity
  8
Layer_1
 62
7
100
AcDbSpline
 70
8
 71
3
 72
8
 73
4
 74
0
 40
0
 40
0
 40
0
 40
0
 40
1
 40
1
 40
1
 40
1
 10
-35.859710
 20
106.115829
 30
0.0
 10
-39.853523
 20
105.603632
 30
0.0
 10
-35.284095
 20
103.084251
 30
0.0
 10
-33.483698
 20
103.680592
 30
0.0
  0
SPLINE
  5
1ea
100
AcDbEntity
  8
Layer_1
 62
7
100
AcDbSpline
 70
8
 71
3
 72
8
 73
4
 74
0
 40
0
 40
0
 40
0
 40
0
 40
1
 40
1
 40
1
 40
1
 10
-33.483698
 20
103.680592
 30
0.0
 10
-32.278405
 20
103.649940
 30
0.0
 10
-31.035792
 20
103.688802
 30
0.0
 10
-29.888316
 20
104.096168
 30
0.0
  0
SPLINE
  5
1eb
100
AcDbEntity
  8
Layer_1
 62
7
100
AcDbSpline
 70
8
 71
3
 72
8
 73
4
 74
0
 40
0
 40
0
 40
0
 40
0
 40
1
 40
1
 40
1
 40
1
 10
-92.026920
 20
109.815854
 30
0.0
 10
-87.193611
 20
111.482595
 30
0.0
 10
-81.959262
 20
112.755955
 30
0.0
 10
-76.830983
 20
112.037541
 30
0.0
  0
SPLINE
  5
1ec
100
AcDbEntity
  8
Layer_1
 62
7
100
AcDbSpline
 70
8
 71
3
 72
8
 73
4
 74
0
 40
0
 40
0
 40
0
 40
0
 40
1
 40
1
 40
1
 40
1
 10
-76.830983
 20
112.037541
 30
0.0
 10
-74.162154
 20
111.442019
 30
0.0
 10
-71.739813
 20
109.004209
 30
0.0
 10
-68.855376
 20
110.117206
 30
0.0
  0
SPLINE
  5
1ed
100
AcDbEntity
  8
Layer_1
 62
7
100
AcDbSpline
 70
8
 71
3
 72
8
 73
4
 74
0
 40
0
 40
0
 40
0
 40
0
 40
1
 40
1
 40
1
 40
1
 10
-68.855376
 20
110.117206
 30
0.0
 10
-63.057014
 20
111.812465
 30
0.0
 10
-57.003419
 20
113.788788
 30
0.0
 10
-52.467080
 20
117.949594
 30
0.0
  0
SPLINE
  5
1ee
100
AcDbEntity
  8
Layer_1
 62
7
100
AcDbSpline
 70
8
 71
3
 72
8
 73
4
 74
0
 40
0
 40
0
 40
0
 40
0
 40
1
 40
1
 40
1
 40
1
 10
-52.467080
 20
117.949594
 30
0.0
 10
-50.245736
 20
120.483701
 30
0.0
 10
-51.390660
 20
124.244267
 30
0.0
 10
-51.328843
 20
127.301487
 30
0.0
  0
SPLINE
  5
1ef
100
AcDbEntity
  8
Layer_1
 62
7
100
AcDbSpline
 70
8
 71
3
 72
8
 73
4
 74
0
 40
0
 40
0
 40
0
 40
0
 40
1
 40
1
 40
1
 40
1
 10
-51.328843
 20
127.301487
 30
0.0
 10
-51.993859
 20
133.244058
 30
0.0
 10
-52.748449
 20
139.328400
 30
0.0
 10
-55.151054
 20
144.853052
 30
0.0
  0
SPLINE
  5
1f0
100
AcDbEntity
  8
Layer_1
 62
7
100
AcDbSpline
 70
8
 71
3
 72
8
 73
4
 74
0
 40
0
 40
0
 40
0
 40
0
 40
1
 40
1
 40
1
 40
1
 10
-55.151054
 20
144.853052
 30
0.0
 10
-56.407306
 20
147.939057
 30
0.0
 10
-60.124323
 20
147.986167
 30
0.0
 10
-62.872952
 20
148.787810
 30
0.0
  0
SPLINE
  5
1f1
100
AcDbEntity
  8
Layer_1
 62
7
100
AcDbSpline
 70
8
 71
3
 72
8
 73
4
 74
0
 40
0
 40
0
 40
0
 40
0
 40
1
 40
1
 40
1
 40
1
 10
-62.872952
 20
148.787810
 30
0.0
 10
-81.618476
 20
153.086043
 30
0.0
 10
-102.104027
 20
150.168345
 30
0.0
 10
-118.422867
 20
139.798820
 30
0.0
  0
SPLINE
  5
1f2
100
AcDbEntity
  8
Layer_1
 62
7
100
AcDbSpline
 70
8
 71
3
 72
8
 73
4
 74
0
 40
0
 40
0
 40
0
 40
0
 40
1
 40
1
 40
1
 40
1
 10
-118.422867
 20
139.798820
 30
0.0
 10
-122.189718
 20
137.455804
 30
0.0
 10
-125.757688
 20
134.815512
 30
0.0
 10
-129.393057
 20
132.277842
 30
0.0
  0
SPLINE
  5
1f3
100
AcDbEntity
  8
Layer_1
 62
7
100
AcDbSpline
 70
8
 71
3
 72
8
 73
4
 74
0
 40
0
 40
0
 40
0
 40
0
 40
1
 40
1
 40
1
 40
1
 10
-129.393057
 20
132.277842
 30
0.0
 10
-128.674205
 20
126.725320
 30
0.0
 10
-128.254629
 20
120.860510
 30
0.0
 10
-125.297669
 20
115.971461
 30
0.0
  0
SPLINE
  5
1f4
100
AcDbEntity
  8
Layer_1
 62
7
100
AcDbSpline
 70
8
 71
3
 72
8
 73
4
 74
0
 40
0
 40
0
 40
0
 40
0
 40
1
 40
1
 40
1
 40
1
 10
-125.297669
 20
115.971461
 30
0.0
 10
-122.244278
 20
112.883304
 30
0.0
 10
-118.120105
 20
111.075840
 30
0.0
 10
-114.164601
 20
109.419271
 30
0.0
  0
SPLINE
  5
1f5
100
AcDbEntity
  8
Layer_1
 62
7
100
AcDbSpline
 70
8
 71
3
 72
8
 73
4
 74
0
 40
0
 40
0
 40
0
 40
0
 40
1
 40
1
 40
1
 40
1
 10
-114.164601
 20
109.419271
 30
0.0
 10
-109.734809
 20
107.911140
 30
0.0
 10
-104.933562
 20
108.177630
 30
0.0
 10
-100.315232
 20
108.102363
 30
0.0
  0
SPLINE
  5
1f6
100
AcDbEntity
  8
Layer_1
 62
7
100
AcDbSpline
 70
8
 71
3
 72
8
 73
4
 74
0
 40
0
 40
0
 40
0
 40
0
 40
1
 40
1
 40
1
 40
1
 10
-100.315232
 20
108.102363
 30
0.0
 10
-97.462457
 20
108.110574
 30
0.0
 10
-94.649038
 20
108.687732
 30
0.0
 10
-92.026920
 20
109.815854
 30
0.0
  0
SPLINE
  5
1f7
100
AcDbEntity
  8
Layer_1
 62
7
100
AcDbSpline
 70
8
 71
3
 72
8
 73
4
 74
0
 40
0
 40
0
 40
0
 40
0
 40
1
 40
1
 40
1
 40
1
 10
-86.556865
 20
121.234671
 30
0.0
 10
-88.607312
 20
124.442291
 30
0.0
 10
-83.130894
 20
126.102385
 30
0.0
 10
-81.974845
 20
123.129403
 30
0.0
  0
SPLINE
  5
1f8
100
AcDbEntity
  8
Layer_1
 62
7
100
AcDbSpline
 70
8
 71
3
 72
8
 73
4
 74
0
 40
0
 40
0
 40
0
 40
0
 40
1
 40
1
 40
1
 40
1
 10
-81.974845
 20
123.129403
 30
0.0
 10
-80.857848
 20
120.577313
 30
0.0
 10
-85.784959
 20
117.951537
 30
0.0
 10
-86.556865
 20
121.234671
 30
0.0
  0
SPLINE
  5
1f9
100
AcDbEntity
  8
Layer_1
 62
7
100
AcDbSpline
 70
8
 71
3
 72
8
 73
4
 74
0
 40
0
 40
0
 40
0
 40
0
 40
1
 40
1
 40
1
 40
1
 10
-79.331009
 20
120.623814
 30
0.0
 10
-82.342872
 20
123.382768
 30
0.0
 10
-76.059305
 20
126.231734
 30
0.0
 10
-75.258786
 20
122.887849
 30
0.0
  0
SPLINE
  5
1fa
100
AcDbEntity
  8
Layer_1
 62
7
100
AcDbSpline
 70
8
 71
3
 72
8
 73
4
 74
0
 40
0
 40
0
 40
0
 40
0
 40
1
 40
1
 40
1
 40
1
 10
-75.258786
 20
122.887849
 30
0.0
 10
-74.059836
 20
120.129524
 30
0.0
 10
-77.666782
 20
119.100367
 30
0.0
 10
-79.331009
 20
120.623814
 30
0.0
  0
SPLINE
  5
1fb
100
AcDbEntity
  8
Layer_1
 62
7
100
AcDbSpline
 70
8
 71
3
 72
8
 73
4
 74
0
 40
0
 40
0
 40
0
 40
0
 40
1
 40
1
 40
1
 40
1
 10
-73.618848
 20
123.272336
 30
0.0
 10
-75.912449
 20
127.696069
 30
0.0
 10
-67.411101
 20
127.682030
 30
0.0
 10
-69.256303
 20
123.168875
 30
0.0
  0
SPLINE
  5
1fc
100
AcDbEntity
  8
Layer_1
 62
7
100
AcDbSpline
 70
8
 71
3
 72
8
 73
4
 74
0
 40
0
 40
0
 40
0
 40
0
 40
1
 40
1
 40
1
 40
1
 10
-69.256303
 20
123.168875
 30
0.0
 10
-69.996071
 20
121.187542
 30
0.0
 10
-72.865573
 20
121.407550
 30
0.0
 10
-73.618848
 20
123.272336
 30
0.0
  0
SPLINE
  5
1fd
100
AcDbEntity
  8
Layer_1
 62
7
100
AcDbSpline
 70
8
 71
3
 72
8
 73
4
 74
0
 40
0
 40
0
 40
0
 40
0
 40
1
 40
1
 40
1
 40
1
 10
-92.629948
 20
123.675567
 30
0.0
 10
-95.921845
 20
128.256520
 30
0.0
 10
-86.752299
 20
129.772824
 30
0.0
 10
-88.429823
 20
124.556763
 30
0.0
  0
SPLINE
  5
1fe
100
AcDbEntity
  8
Layer_1
 62
7
100
AcDbSpline
 70
8
 71
3
 72
8
 73
4
 74
0
 40
0
 40
0
 40
0
 40
0
 40
1
 40
1
 40
1
 40
1
 10
-88.429823
 20
124.556763
 30
0.0
 10
-89.325440
 20
123.360956
 30
0.0
 10
-91.360684
 20
122.714056
 30
0.0
 10
-92.629948
 20
123.675567
 30
0.0
  0
SPLINE
  5
1ff
100
AcDbEntity
  8
Layer_1
 62
7
100
AcDbSpline
 70
8
 71
3
 72
8
 73
4
 74
0
 40
0
 40
0
 40
0
 40
0
 40
1
 40
1
 40
1
 40
1
 10
-68.468852
 20
127.141105
 30
0.0
 10
-71.480714
 20
129.900059
 30
0.0
 10
-65.197148
 20
132.749044
 30
0.0
 10
-64.396629
 20
129.405140
 30
0.0
  0
SPLINE
  5
200
100
AcDbEntity
  8
Layer_1
 62
7
100
AcDbSpline
 70
8
 71
3
 72
8
 73
4
 74
0
 40
0
 40
0
 40
0
 40
0
 40
1
 40
1
 40
1
 40
1
 10
-64.396629
 20
129.405140
 30
0.0
 10
-63.197660
 20
126.646815
 30
0.0
 10
-66.804625
 20
125.617657
 30
0.0
 10
-68.468852
 20
127.141105
 30
0.0
  0
SPLINE
  5
201
100
AcDbEntity
  8
Layer_1
 62
7
100
AcDbSpline
 70
8
 71
3
 72
8
 73
4
 74
0
 40
0
 40
0
 40
0
 40
0
 40
1
 40
1
 40
1
 40
1
 10
-97.919466
 20
128.664514
 30
0.0
 10
-99.614554
 20
131.840740
 30
0.0
 10
-93.633121
 20
133.309038
 30
0.0
 10
-93.525584
 20
129.974735
 30
0.0
  0
SPLINE
  5
202
100
AcDbEntity
  8
Layer_1
 62
7
100
AcDbSpline
 70
8
 71
3
 72
8
 73
4
 74
0
 40
0
 40
0
 40
0
 40
0
 40
1
 40
1
 40
1
 40
1
 10
-93.525584
 20
129.974735
 30
0.0
 10
-92.247500
 20
126.893303
 30
0.0
 10
-97.599826
 20
125.507224
 30
0.0
 10
-97.919466
 20
128.664514
 30
0.0
  0
SPLINE
  5
203
100
AcDbEntity
  8
Layer_1
 62
7
100
AcDbSpline
 70
8
 71
3
 72
8
 73
4
 74
0
 40
0
 40
0
 40
0
 40
0
 40
1
 40
1
 40
1
 40
1
 10
-78.351725
 20
130.385453
 30
0.0
 10
-79.399475
 20
132.200213
 30
0.0
 10
-80.370263
 20
134.219761
 30
0.0
 10
-80.777495
 20
136.540489
 30
0.0
  0
SPLINE
  5
204
100
AcDbEntity
  8
Layer_1
 62
7
100
AcDbSpline
 70
8
 71
3
 72
8
 73
4
 74
0
 40
0
 40
0
 40
0
 40
0
 40
1
 40
1
 40
1
 40
1
 10
-80.777495
 20
136.540489
 30
0.0
 10
-80.975786
 20
137.670554
 30
0.0
 10
-81.638822
 20
137.064364
 30
0.0
 10
-82.109357
 20
136.655989
 30
0.0
  0
SPLINE
  5
205
100
AcDbEntity
  8
Layer_1
 62
7
100
AcDbSpline
 70
8
 71
3
 72
8
 73
4
 74
0
 40
0
 40
0
 40
0
 40
0
 40
1
 40
1
 40
1
 40
1
 10
-82.109357
 20
136.655989
 30
0.0
 10
-84.283647
 20
134.940194
 30
0.0
 10
-83.822885
 20
131.753338
 30
0.0
 10
-81.565479
 20
130.350668
 30
0.0
  0
SPLINE
  5
206
100
AcDbEntity
  8
Layer_1
 62
7
100
AcDbSpline
 70
8
 71
3
 72
8
 73
4
 74
0
 40
0
 40
0
 40
0
 40
0
 40
1
 40
1
 40
1
 40
1
 10
-81.565479
 20
130.350668
 30
0.0
 10
-80.659194
 20
129.755108
 30
0.0
 10
-79.096561
 20
129.316520
 30
0.0
 10
-78.351725
 20
130.385434
 30
0.0
  0
LWPOLYLINE
  5
207
100
AcDbEntity
  8
Layer_1
 62
7
100
AcDbPolyline
 90
3
 70
0
 10
-45.369089
 20
107.887270
 30
0.0
 10
-45.355392
 20
108.456522
 30
0.0
 10
-45.352477
 20
109.083191
 30
0.0
  0
SPLINE
  5
208
100
AcDbEntity
  8
Layer_1
 62
7
100
AcDbSpline
 70
8
 71
3
 72
8
 73
4
 74
0
 40
0
 40
0
 40
0
 40
0
 40
1
 40
1
 40
1
 40
1
 10
-74.686391
 20
132.044765
 30
0.0
 10
-72.026954
 20
132.949107
 30
0.0
 10
-73.928182
 20
136.980182
 30
0.0
 10
-75.193978
 20
138.274573
 30
0.0
  0
SPLINE
  5
209
100
AcDbEntity
  8
Layer_1
 62
7
100
AcDbSpline
 70
8
 71
3
 72
8
 73
4
 74
0
 40
0
 40
0
 40
0
 40
0
 40
1
 40
1
 40
1
 40
1
 10
-75.193978
 20
138.274573
 30
0.0
 10
-78.564552
 20
139.385626
 30
0.0
 10
-80.742786
 20
135.385507
 30
0.0
 10
-78.340181
 20
132.960137
 30
0.0
  0
SPLINE
  5
20a
100
AcDbEntity
  8
Layer_1
 62
7
100
AcDbSpline
 70
8
 71
3
 72
8
 73
4
 74
0
 40
0
 40
0
 40
0
 40
0
 40
1
 40
1
 40
1
 40
1
 10
-78.340181
 20
132.960137
 30
0.0
 10
-77.539986
 20
131.061557
 30
0.0
 10
-76.334864
 20
130.986233
 30
0.0
 10
-74.686391
 20
132.044765
 30
0.0
  0
SPLINE
  5
20b
100
AcDbEntity
  8
Layer_1
 62
7
100
AcDbSpline
 70
8
 71
3
 72
8
 73
4
 74
0
 40
0
 40
0
 40
0
 40
0
 40
1
 40
1
 40
1
 40
1
 10
-67.564529
 20
136.953531
 30
0.0
 10
-67.390736
 20
140.056281
 30
0.0
 10
-70.429325
 20
138.434802
 30
0.0
 10
-72.320152
 20
138.274725
 30
0.0
  0
SPLINE
  5
20c
100
AcDbEntity
  8
Layer_1
 62
7
100
AcDbSpline
 70
8
 71
3
 72
8
 73
4
 74
0
 40
0
 40
0
 40
0
 40
0
 40
1
 40
1
 40
1
 40
1
 10
-72.320152
 20
138.274725
 30
0.0
 10
-74.041663
 20
138.453985
 30
0.0
 10
-73.078666
 20
137.171692
 30
0.0
 10
-72.690903
 20
136.202561
 30
0.0
  0
SPLINE
  5
20d
100
AcDbEntity
  8
Layer_1
 62
7
100
AcDbSpline
 70
8
 71
3
 72
8
 73
4
 74
0
 40
0
 40
0
 40
0
 40
0
 40
1
 40
1
 40
1
 40
1
 10
-72.690903
 20
136.202561
 30
0.0
 10
-72.453331
 20
133.039194
 30
0.0
 10
-68.776166
 20
133.615686
 30
0.0
 10
-67.464745
 20
135.606792
 30
0.0
  0
SPLINE
  5
20e
100
AcDbEntity
  8
Layer_1
 62
7
100
AcDbSpline
 70
8
 71
3
 72
8
 73
4
 74
0
 40
0
 40
0
 40
0
 40
0
 40
1
 40
1
 40
1
 40
1
 10
-67.464745
 20
135.606792
 30
0.0
 10
-67.352808
 20
136.054333
 30
0.0
 10
-67.470213
 20
136.516581
 30
0.0
 10
-67.564644
 20
136.953531
 30
0.0
  0
LWPOLYLINE
  5
20f
100
AcDbEntity
  8
Layer_1
 62
7
100
AcDbPolyline
 90
1
 70
1
 10
-78.351725
 20
130.385434
 30
0.0
  0
SPLINE
  5
210
100
AcDbEntity
  8
Layer_1
 62
7
100
AcDbSpline
 70
8
 71
3
 72
8
 73
4
 74
0
 40
0
 40
0
 40
0
 40
0
 40
1
 40
1
 40
1
 40
1
 10
-61.283630
 20
138.500239
 30
0.0
 10
-63.340611
 20
139.491639
 30
0.0
 10
-67.069325
 20
139.573383
 30
0.0
 10
-66.352625
 20
136.376602
 30
0.0
  0
SPLINE
  5
211
100
AcDbEntity
  8
Layer_1
 62
7
100
AcDbSpline
 70
8
 71
3
 72
8
 73
4
 74
0
 40
0
 40
0
 40
0
 40
0
 40
1
 40
1
 40
1
 40
1
 10
-66.352625
 20
136.376602
 30
0.0
 10
-66.669236
 20
134.893502
 30
0.0
 10
-64.872821
 20
136.371135
 30
0.0
 10
-64.114479
 20
136.393023
 30
0.0
  0
SPLINE
  5
212
100
AcDbEntity
  8
Layer_1
 62
7
100
AcDbSpline
 70
8
 71
3
 72
8
 73
4
 74
0
 40
0
 40
0
 40
0
 40
0
 40
1
 40
1
 40
1
 40
1
 10
-64.114479
 20
136.393023
 30
0.0
 10
-63.227930
 20
136.854738
 30
0.0
 10
-58.241783
 20
137.830460
 30
0.0
 10
-61.283630
 20
138.500029
 30
0.0
  0
LWPOLYLINE
  5
213
100
AcDbEntity
  8
Layer_1
 62
7
100
AcDbPolyline
 90
2
 70
0
 10
-67.564644
 20
136.953531
 30
0.0
 10
-67.564529
 20
136.953531
 30
0.0
  0
SPLINE
  5
214
100
AcDbEntity
  8
Layer_1
 62
7
100
AcDbSpline
 70
8
 71
3
 72
8
 73
4
 74
0
 40
0
 40
0
 40
0
 40
0
 40
1
 40
1
 40
1
 40
1
 10
-15.093819
 20
116.447730
 30
0.0
 10
-12.589315
 20
117.123205
 30
0.0
 10
-14.055213
 20
120.247329
 30
0.0
 10
-14.032658
 20
122.139908
 30
0.0
  0
SPLINE
  5
215
100
AcDbEntity
  8
Layer_1
 62
7
100
AcDbSpline
 70
8
 71
3
 72
8
 73
4
 74
0
 40
0
 40
0
 40
0
 40
0
 40
1
 40
1
 40
1
 40
1
 10
-14.032658
 20
122.139908
 30
0.0
 10
-14.024447
 20
123.093418
 30
0.0
 10
-14.506203
 20
124.316523
 30
0.0
 10
-14.208642
 20
125.111327
 30
0.0
  0
SPLINE
  5
216
100
AcDbEntity
  8
Layer_1
 62
7
100
AcDbSpline
 70
8
 71
3
 72
8
 73
4
 74
0
 40
0
 40
0
 40
0
 40
0
 40
1
 40
1
 40
1
 40
1
 10
-14.208642
 20
125.111327
 30
0.0
 10
-10.348445
 20
126.993372
 30
0.0
 10
-6.488248
 20
128.875417
 30
0.0
 10
-2.628070
 20
130.757481
 30
0.0
  0
SPLINE
  5
217
100
AcDbEntity
  8
Layer_1
 62
7
100
AcDbSpline
 70
8
 71
3
 72
8
 73
4
 74
0
 40
0
 40
0
 40
0
 40
0
 40
1
 40
1
 40
1
 40
1
 10
-2.628070
 20
130.757481
 30
0.0
 10
-2.732903
 20
132.591367
 30
0.0
 10
-2.402556
 20
134.497796
 30
0.0
 10
-2.789005
 20
136.274304
 30
0.0
  0
SPLINE
  5
218
100
AcDbEntity
  8
Layer_1
 62
7
100
AcDbSpline
 70
8
 71
3
 72
8
 73
4
 74
0
 40
0
 40
0
 40
0
 40
0
 40
1
 40
1
 40
1
 40
1
 10
-2.789005
 20
136.274304
 30
0.0
 10
-5.463244
 20
137.457499
 30
0.0
 10
-8.635374
 20
136.132533
 30
0.0
 10
-11.477234
 20
136.024139
 30
0.0
  0
SPLINE
  5
219
100
AcDbEntity
  8
Layer_1
 62
7
100
AcDbSpline
 70
8
 71
3
 72
8
 73
4
 74
0
 40
0
 40
0
 40
0
 40
0
 40
1
 40
1
 40
1
 40
1
 10
-11.477234
 20
136.024139
 30
0.0
 10
-18.784890
 20
135.004564
 30
0.0
 10
-26.094851
 20
134.001429
 30
0.0
 10
-33.404107
 20
132.993093
 30
0.0
  0
SPLINE
  5
21a
100
AcDbEntity
  8
Layer_1
 62
7
100
AcDbSpline
 70
8
 71
3
 72
8
 73
4
 74
0
 40
0
 40
0
 40
0
 40
0
 40
1
 40
1
 40
1
 40
1
 10
-33.404107
 20
132.993093
 30
0.0
 10
-33.552716
 20
131.207327
 30
0.0
 10
-33.701154
 20
129.421542
 30
0.0
 10
-33.849687
 20
127.635776
 30
0.0
  0
SPLINE
  5
21b
100
AcDbEntity
  8
Layer_1
 62
7
100
AcDbSpline
 70
8
 71
3
 72
8
 73
4
 74
0
 40
0
 40
0
 40
0
 40
0
 40
1
 40
1
 40
1
 40
1
 10
-33.849687
 20
127.635776
 30
0.0
 10
-29.900565
 20
126.467230
 30
0.0
 10
-25.816702
 20
125.668921
 30
0.0
 10
-22.023028
 20
124.044337
 30
0.0
  0
SPLINE
  5
21c
100
AcDbEntity
  8
Layer_1
 62
7
100
AcDbSpline
 70
8
 71
3
 72
8
 73
4
 74
0
 40
0
 40
0
 40
0
 40
0
 40
1
 40
1
 40
1
 40
1
 10
-22.023028
 20
124.044337
 30
0.0
 10
-18.647615
 20
122.643000
 30
0.0
 10
-20.841966
 20
117.649842
 30
0.0
 10
-17.925354
 20
116.044975
 30
0.0
  0
SPLINE
  5
21d
100
AcDbEntity
  8
Layer_1
 62
7
100
AcDbSpline
 70
8
 71
3
 72
8
 73
4
 74
0
 40
0
 40
0
 40
0
 40
0
 40
1
 40
1
 40
1
 40
1
 10
-17.925354
 20
116.044975
 30
0.0
 10
-16.967386
 20
115.898824
 30
0.0
 10
-16.013762
 20
116.230808
 30
0.0
 10
-15.093857
 20
116.447845
 30
0.0
  0
LWPOLYLINE
  5
21e
100
AcDbEntity
  8
Layer_1
 62
7
100
AcDbPolyline
 90
2
 70
0
 10
-61.283630
 20
138.500029
 30
0.0
 10
-61.283630
 20
138.500239
 30
0.0
  0
SPLINE
  5
21f
100
AcDbEntity
  8
Layer_1
 62
7
100
AcDbSpline
 70
8
 71
3
 72
8
 73
4
 74
0
 40
0
 40
0
 40
0
 40
0
 40
1
 40
1
 40
1
 40
1
 10
-134.566313
 20
132.302150
 30
0.0
 10
-127.374081
 20
134.953891
 30
0.0
 10
-121.831407
 20
140.564230
 30
0.0
 10
-114.965806
 20
143.859575
 30
0.0
  0
SPLINE
  5
220
100
AcDbEntity
  8
Layer_1
 62
7
100
AcDbSpline
 70
8
 71
3
 72
8
 73
4
 74
0
 40
0
 40
0
 40
0
 40
0
 40
1
 40
1
 40
1
 40
1
 10
-114.965806
 20
143.859575
 30
0.0
 10
-98.331727
 20
152.804541
 30
0.0
 10
-78.260647
 20
155.222919
 30
0.0
 10
-60.060029
 20
150.032976
 30
0.0
  0
SPLINE
  5
221
100
AcDbEntity
  8
Layer_1
 62
7
100
AcDbSpline
 70
8
 71
3
 72
8
 73
4
 74
0
 40
0
 40
0
 40
0
 40
0
 40
1
 40
1
 40
1
 40
1
 10
-60.060029
 20
150.032976
 30
0.0
 10
-56.477105
 20
148.816747
 30
0.0
 10
-52.597668
 20
148.623561
 30
0.0
 10
-48.974949
 20
149.787192
 30
0.0
  0
SPLINE
  5
222
100
AcDbEntity
  8
Layer_1
 62
7
100
AcDbSpline
 70
8
 71
3
 72
8
 73
4
 74
0
 40
0
 40
0
 40
0
 40
0
 40
1
 40
1
 40
1
 40
1
 10
-48.974949
 20
149.787192
 30
0.0
 10
-46.687539
 20
150.009430
 30
0.0
 10
-41.745721
 20
152.368525
 30
0.0
 10
-45.989852
 20
154.056431
 30
0.0
  0
SPLINE
  5
223
100
AcDbEntity
  8
Layer_1
 62
7
100
AcDbSpline
 70
8
 71
3
 72
8
 73
4
 74
0
 40
0
 40
0
 40
0
 40
0
 40
1
 40
1
 40
1
 40
1
 10
-45.989852
 20
154.056431
 30
0.0
 10
-54.750947
 20
158.521313
 30
0.0
 10
-64.722707
 20
159.632537
 30
0.0
 10
-74.425996
 20
159.758705
 30
0.0
  0
SPLINE
  5
224
100
AcDbEntity
  8
Layer_1
 62
7
100
AcDbSpline
 70
8
 71
3
 72
8
 73
4
 74
0
 40
0
 40
0
 40
0
 40
0
 40
1
 40
1
 40
1
 40
1
 10
-74.425996
 20
159.758705
 30
0.0
 10
-84.375126
 20
159.974923
 30
0.0
 10
-94.420438
 20
159.327642
 30
0.0
 10
-104.028001
 20
156.580080
 30
0.0
  0
SPLINE
  5
225
100
AcDbEntity
  8
Layer_1
 62
7
100
AcDbSpline
 70
8
 71
3
 72
8
 73
4
 74
0
 40
0
 40
0
 40
0
 40
0
 40
1
 40
1
 40
1
 40
1
 10
-104.028001
 20
156.580080
 30
0.0
 10
-116.739933
 20
153.173216
 30
0.0
 10
-129.488878
 20
147.689349
 30
0.0
 10
-138.360140
 20
137.628701
 30
0.0
  0
SPLINE
  5
226
100
AcDbEntity
  8
Layer_1
 62
7
100
AcDbSpline
 70
8
 71
3
 72
8
 73
4
 74
0
 40
0
 40
0
 40
0
 40
0
 40
1
 40
1
 40
1
 40
1
 10
-138.360140
 20
137.628701
 30
0.0
 10
-139.490300
 20
135.935366
 30
0.0
 10
-143.453862
 20
132.904359
 30
0.0
 10
-141.687470
 20
131.223577
 30
0.0
  0
SPLINE
  5
227
100
AcDbEntity
  8
Layer_1
 62
7
100
AcDbSpline
 70
8
 71
3
 72
8
 73
4
 74
0
 40
0
 40
0
 40
0
 40
0
 40
1
 40
1
 40
1
 40
1
 10
-141.687470
 20
131.223577
 30
0.0
 10
-139.276692
 20
131.092208
 30
0.0
 10
-136.876373
 20
131.664280
 30
0.0
 10
-134.566313
 20
132.302017
 30
0.0
  0
LWPOLYLINE
  5
228
100
AcDbEntity
  8
Layer_1
 62
7
100
AcDbPolyline
 90
2
 70
0
 10
-15.093857
 20
116.447845
 30
0.0
 10
-15.093819
 20
116.447730
 30
0.0
  0
SPLINE
  5
229
100
AcDbEntity
  8
Layer_1
 62
7
100
AcDbSpline
 70
8
 71
3
 72
8
 73
4
 74
0
 40
0
 40
0
 40
0
 40
0
 40
1
 40
1
 40
1
 40
1
 10
-31.590490
 20
136.441696
 30
0.0
 10
-32.204129
 20
144.787615
 30
0.0
 10
-32.858096
 20
153.145345
 30
0.0
 10
-33.975360
 20
161.440363
 30
0.0
  0
SPLINE
  5
22a
100
AcDbEntity
  8
Layer_1
 62
7
100
AcDbSpline
 70
8
 71
3
 72
8
 73
4
 74
0
 40
0
 40
0
 40
0
 40
0
 40
1
 40
1
 40
1
 40
1
 10
-33.975360
 20
161.440363
 30
0.0
 10
-33.455257
 20
164.201642
 30
0.0
 10
-37.690186
 20
164.453273
 30
0.0
 10
-36.344418
 20
161.559140
 30
0.0
  0
SPLINE
  5
22b
100
AcDbEntity
  8
Layer_1
 62
7
100
AcDbSpline
 70
8
 71
3
 72
8
 73
4
 74
0
 40
0
 40
0
 40
0
 40
0
 40
1
 40
1
 40
1
 40
1
 10
-36.344418
 20
161.559140
 30
0.0
 10
-35.298420
 20
153.165081
 30
0.0
 10
-35.244280
 20
144.667886
 30
0.0
 10
-34.038053
 20
136.296954
 30
0.0
  0
SPLINE
  5
22c
100
AcDbEntity
  8
Layer_1
 62
7
100
AcDbSpline
 70
8
 71
3
 72
8
 73
4
 74
0
 40
0
 40
0
 40
0
 40
0
 40
1
 40
1
 40
1
 40
1
 10
-34.038053
 20
136.296954
 30
0.0
 10
-34.013479
 20
134.267881
 30
0.0
 10
-31.402924
 20
134.387515
 30
0.0
 10
-31.590490
 20
136.441734
 30
0.0
  0
LWPOLYLINE
  5
22d
100
AcDbEntity
  8
Layer_1
 62
7
100
AcDbPolyline
 90
2
 70
0
 10
-134.566313
 20
132.302017
 30
0.0
 10
-134.566313
 20
132.302150
 30
0.0
  0
SPLINE
  5
22e
100
AcDbEntity
  8
Layer_1
 62
7
100
AcDbSpline
 70
8
 71
3
 72
8
 73
4
 74
0
 40
0
 40
0
 40
0
 40
0
 40
1
 40
1
 40
1
 40
1
 10
-26.873539
 20
138.976184
 30
0.0
 10
-27.895209
 20
147.418001
 30
0.0
 10
-28.372583
 20
155.937313
 30
0.0
 10
-29.731972
 20
164.330191
 30
0.0
  0
SPLINE
  5
22f
100
AcDbEntity
  8
Layer_1
 62
7
100
AcDbSpline
 70
8
 71
3
 72
8
 73
4
 74
0
 40
0
 40
0
 40
0
 40
0
 40
1
 40
1
 40
1
 40
1
 10
-29.731972
 20
164.330191
 30
0.0
 10
-33.906913
 20
165.114918
 30
0.0
 10
-32.497880
 20
160.305002
 30
0.0
 10
-32.229389
 20
157.887767
 30
0.0
  0
SPLINE
  5
230
100
AcDbEntity
  8
Layer_1
 62
7
100
AcDbSpline
 70
8
 71
3
 72
8
 73
4
 74
0
 40
0
 40
0
 40
0
 40
0
 40
1
 40
1
 40
1
 40
1
 10
-32.229389
 20
157.887767
 30
0.0
 10
-31.499488
 20
150.622116
 30
0.0
 10
-30.739031
 20
143.357951
 30
0.0
 10
-30.147834
 20
136.079632
 30
0.0
  0
SPLINE
  5
231
100
AcDbEntity
  8
Layer_1
 62
7
100
AcDbSpline
 70
8
 71
3
 72
8
 73
4
 74
0
 40
0
 40
0
 40
0
 40
0
 40
1
 40
1
 40
1
 40
1
 10
-30.147834
 20
136.079632
 30
0.0
 10
-27.601096
 20
134.437693
 30
0.0
 10
-25.869280
 20
136.117122
 30
0.0
 10
-26.873539
 20
138.976184
 30
0.0
  0
SPLINE
  5
232
100
AcDbEntity
  8
Layer_1
 62
7
100
AcDbSpline
 70
8
 71
3
 72
8
 73
4
 74
0
 40
0
 40
0
 40
0
 40
0
 40
1
 40
1
 40
1
 40
1
 10
-22.173923
 20
137.527889
 30
0.0
 10
-22.848655
 20
146.024532
 30
0.0
 10
-23.455131
 20
154.543120
 30
0.0
 10
-24.629639
 20
162.987490
 30
0.0
  0
SPLINE
  5
233
100
AcDbEntity
  8
Layer_1
 62
7
100
AcDbSpline
 70
8
 71
3
 72
8
 73
4
 74
0
 40
0
 40
0
 40
0
 40
0
 40
1
 40
1
 40
1
 40
1
 10
-24.629639
 20
162.987490
 30
0.0
 10
-24.589406
 20
166.834504
 30
0.0
 10
-29.192229
 20
164.723764
 30
0.0
 10
-27.646245
 20
161.729180
 30
0.0
  0
SPLINE
  5
234
100
AcDbEntity
  8
Layer_1
 62
7
100
AcDbSpline
 70
8
 71
3
 72
8
 73
4
 74
0
 40
0
 40
0
 40
0
 40
0
 40
1
 40
1
 40
1
 40
1
 10
-27.646245
 20
161.729180
 30
0.0
 10
-27.156831
 20
153.834060
 30
0.0
 10
-26.570187
 20
145.922995
 30
0.0
 10
-25.430406
 20
138.093693
 30
0.0
  0
SPLINE
  5
235
100
AcDbEntity
  8
Layer_1
 62
7
100
AcDbSpline
 70
8
 71
3
 72
8
 73
4
 74
0
 40
0
 40
0
 40
0
 40
0
 40
1
 40
1
 40
1
 40
1
 10
-25.430406
 20
138.093693
 30
0.0
 10
-25.611591
 20
136.008651
 30
0.0
 10
-22.448719
 20
135.469479
 30
0.0
 10
-22.173923
 20
137.527889
 30
0.0
  0
SPLINE
  5
236
100
AcDbEntity
  8
Layer_1
 62
7
100
AcDbSpline
 70
8
 71
3
 72
8
 73
4
 74
0
 40
0
 40
0
 40
0
 40
0
 40
1
 40
1
 40
1
 40
1
 10
-17.514902
 20
139.338248
 30
0.0
 10
-18.580197
 20
148.157789
 30
0.0
 10
-19.111712
 20
157.044442
 30
0.0
 10
-20.382632
 20
165.835636
 30
0.0
  0
SPLINE
  5
237
100
AcDbEntity
  8
Layer_1
 62
7
100
AcDbSpline
 70
8
 71
3
 72
8
 73
4
 74
0
 40
0
 40
0
 40
0
 40
0
 40
1
 40
1
 40
1
 40
1
 10
-20.382632
 20
165.835636
 30
0.0
 10
-24.624096
 20
166.480936
 30
0.0
 10
-23.179001
 20
161.847576
 30
0.0
 10
-22.887174
 20
159.366923
 30
0.0
  0
SPLINE
  5
238
100
AcDbEntity
  8
Layer_1
 62
7
100
AcDbSpline
 70
8
 71
3
 72
8
 73
4
 74
0
 40
0
 40
0
 40
0
 40
0
 40
1
 40
1
 40
1
 40
1
 10
-22.887174
 20
159.366923
 30
0.0
 10
-22.095418
 20
152.585618
 30
0.0
 10
-21.873238
 20
145.735658
 30
0.0
 10
-20.775805
 20
138.993710
 30
0.0
  0
SPLINE
  5
239
100
AcDbEntity
  8
Layer_1
 62
7
100
AcDbSpline
 70
8
 71
3
 72
8
 73
4
 74
0
 40
0
 40
0
 40
0
 40
0
 40
1
 40
1
 40
1
 40
1
 10
-20.775805
 20
138.993710
 30
0.0
 10
-20.770338
 20
136.171167
 30
0.0
 10
-16.280120
 20
136.181911
 30
0.0
 10
-17.514902
 20
139.338248
 30
0.0
  0
SPLINE
  5
23a
100
AcDbEntity
  8
Layer_1
 62
7
100
AcDbSpline
 70
8
 71
3
 72
8
 73
4
 74
0
 40
0
 40
0
 40
0
 40
0
 40
1
 40
1
 40
1
 40
1
 10
-12.818487
 20
139.784761
 30
0.0
 10
-13.326341
 20
148.389456
 30
0.0
 10
-14.285775
 20
156.981273
 30
0.0
 10
-15.720202
 20
165.480811
 30
0.0
  0
SPLINE
  5
23b
100
AcDbEntity
  8
Layer_1
 62
7
100
AcDbSpline
 70
8
 71
3
 72
8
 73
4
 74
0
 40
0
 40
0
 40
0
 40
0
 40
1
 40
1
 40
1
 40
1
 10
-15.720202
 20
165.480811
 30
0.0
 10
-16.749626
 20
168.239861
 30
0.0
 10
-19.345912
 20
164.344307
 30
0.0
 10
-18.354722
 20
162.547359
 30
0.0
  0
SPLINE
  5
23c
100
AcDbEntity
  8
Layer_1
 62
7
100
AcDbSpline
 70
8
 71
3
 72
8
 73
4
 74
0
 40
0
 40
0
 40
0
 40
0
 40
1
 40
1
 40
1
 40
1
 10
-18.354722
 20
162.547359
 30
0.0
 10
-17.855383
 20
154.809306
 30
0.0
 10
-17.189795
 20
147.068262
 30
0.0
 10
-16.165991
 20
139.382025
 30
0.0
  0
SPLINE
  5
23d
100
AcDbEntity
  8
Layer_1
 62
7
100
AcDbSpline
 70
8
 71
3
 72
8
 73
4
 74
0
 40
0
 40
0
 40
0
 40
0
 40
1
 40
1
 40
1
 40
1
 10
-16.165991
 20
139.382025
 30
0.0
 10
-16.357577
 20
136.389194
 30
0.0
 10
-12.324368
 20
137.336836
 30
0.0
 10
-12.818487
 20
139.784761
 30
0.0
  0
SPLINE
  5
23e
100
AcDbEntity
  8
Layer_1
 62
7
100
AcDbSpline
 70
8
 71
3
 72
8
 73
4
 74
0
 40
0
 40
0
 40
0
 40
0
 40
1
 40
1
 40
1
 40
1
 10
-8.517321
 20
138.433069
 30
0.0
 10
-8.298932
 20
143.649397
 30
0.0
 10
-9.159115
 20
148.892166
 30
0.0
 10
-9.563794
 20
154.099827
 30
0.0
  0
SPLINE
  5
23f
100
AcDbEntity
  8
Layer_1
 62
7
100
AcDbSpline
 70
8
 71
3
 72
8
 73
4
 74
0
 40
0
 40
0
 40
0
 40
0
 40
1
 40
1
 40
1
 40
1
 10
-9.563794
 20
154.099827
 30
0.0
 10
-10.032234
 20
158.260290
 30
0.0
 10
-10.227325
 20
162.468816
 30
0.0
 10
-10.754496
 20
166.608628
 30
0.0
  0
SPLINE
  5
240
100
AcDbEntity
  8
Layer_1
 62
7
100
AcDbSpline
 70
8
 71
3
 72
8
 73
4
 74
0
 40
0
 40
0
 40
0
 40
0
 40
1
 40
1
 40
1
 40
1
 10
-10.754496
 20
166.608628
 30
0.0
 10
-13.542711
 20
169.158890
 30
0.0
 10
-14.161493
 20
164.095095
 30
0.0
 10
-13.572943
 20
162.083853
 30
0.0
  0
SPLINE
  5
241
100
AcDbEntity
  8
Layer_1
 62
7
100
AcDbSpline
 70
8
 71
3
 72
8
 73
4
 74
0
 40
0
 40
0
 40
0
 40
0
 40
1
 40
1
 40
1
 40
1
 10
-13.572943
 20
162.083853
 30
0.0
 10
-13.012206
 20
154.098150
 30
0.0
 10
-12.033417
 20
146.148985
 30
0.0
 10
-11.340816
 20
138.174579
 30
0.0
  0
SPLINE
  5
242
100
AcDbEntity
  8
Layer_1
 62
7
100
AcDbSpline
 70
8
 71
3
 72
8
 73
4
 74
0
 40
0
 40
0
 40
0
 40
0
 40
1
 40
1
 40
1
 40
1
 10
-11.340816
 20
138.174579
 30
0.0
 10
-10.708052
 20
137.279115
 30
0.0
 10
-9.397602
 20
138.556036
 30
0.0
 10
-8.517321
 20
138.432935
 30
0.0
  0
LWPOLYLINE
  5
243
100
AcDbEntity
  8
Layer_1
 62
7
100
AcDbPolyline
 90
1
 70
1
 10
-31.590490
 20
136.441734
 30
0.0
  0
SPLINE
  5
244
100
AcDbEntity
  8
Layer_1
 62
7
100
AcDbSpline
 70
8
 71
3
 72
8
 73
4
 74
0
 40
0
 40
0
 40
0
 40
0
 40
1
 40
1
 40
1
 40
1
 10
-4.215278
 20
139.055965
 30
0.0
 10
-3.112093
 20
141.733119
 30
0.0
 10
-4.102788
 20
144.866482
 30
0.0
 10
-4.156433
 20
147.716496
 30
0.0
  0
SPLINE
  5
245
100
AcDbEntity
  8
Layer_1
 62
7
100
AcDbSpline
 70
8
 71
3
 72
8
 73
4
 74
0
 40
0
 40
0
 40
0
 40
0
 40
1
 40
1
 40
1
 40
1
 10
-4.156433
 20
147.716496
 30
0.0
 10
-4.859683
 20
154.436936
 30
0.0
 10
-5.483094
 20
161.174406
 30
0.0
 10
-6.467541
 20
167.859184
 30
0.0
  0
SPLINE
  5
246
100
AcDbEntity
  8
Layer_1
 62
7
100
AcDbSpline
 70
8
 71
3
 72
8
 73
4
 74
0
 40
0
 40
0
 40
0
 40
0
 40
1
 40
1
 40
1
 40
1
 10
-6.467541
 20
167.859184
 30
0.0
 10
-10.579578
 20
168.420512
 30
0.0
 10
-8.899559
 20
163.371062
 30
0.0
 10
-8.896397
 20
160.973867
 30
0.0
  0
SPLINE
  5
247
100
AcDbEntity
  8
Layer_1
 62
7
100
AcDbSpline
 70
8
 71
3
 72
8
 73
4
 74
0
 40
0
 40
0
 40
0
 40
0
 40
1
 40
1
 40
1
 40
1
 10
-8.896397
 20
160.973867
 30
0.0
 10
-8.230847
 20
153.899802
 30
0.0
 10
-7.438481
 20
146.834195
 30
0.0
 10
-6.953125
 20
139.745537
 30
0.0
  0
SPLINE
  5
248
100
AcDbEntity
  8
Layer_1
 62
7
100
AcDbSpline
 70
8
 71
3
 72
8
 73
4
 74
0
 40
0
 40
0
 40
0
 40
0
 40
1
 40
1
 40
1
 40
1
 10
-6.953125
 20
139.745537
 30
0.0
 10
-6.870467
 20
138.128897
 30
0.0
 10
-5.152672
 20
138.295318
 30
0.0
 10
-4.215164
 20
139.055965
 30
0.0
  0
LWPOLYLINE
  5
249
100
AcDbEntity
  8
Layer_1
 62
7
100
AcDbPolyline
 90
2
 70
0
 10
-8.517321
 20
138.432935
 30
0.0
 10
-8.517321
 20
138.433069
 30
0.0
  0
SPLINE
  5
24a
100
AcDbEntity
  8
Layer_1
 62
7
100
AcDbSpline
 70
8
 71
3
 72
8
 73
4
 74
0
 40
0
 40
0
 40
0
 40
0
 40
1
 40
1
 40
1
 40
1
 10
-119.193153
 20
153.331997
 30
0.0
 10
-105.874308
 20
159.027204
 30
0.0
 10
-91.404861
 20
161.807647
 30
0.0
 10
-76.938787
 20
161.871255
 30
0.0
  0
SPLINE
  5
24b
100
AcDbEntity
  8
Layer_1
 62
7
100
AcDbSpline
 70
8
 71
3
 72
8
 73
4
 74
0
 40
0
 40
0
 40
0
 40
0
 40
1
 40
1
 40
1
 40
1
 10
-76.938787
 20
161.871255
 30
0.0
 10
-75.824952
 20
161.903278
 30
0.0
 10
-74.711080
 20
161.935568
 30
0.0
 10
-73.597207
 20
161.967591
 30
0.0
  0
SPLINE
  5
24c
100
AcDbEntity
  8
Layer_1
 62
7
100
AcDbSpline
 70
8
 71
3
 72
8
 73
4
 74
0
 40
0
 40
0
 40
0
 40
0
 40
1
 40
1
 40
1
 40
1
 10
-73.597207
 20
161.967591
 30
0.0
 10
-73.182679
 20
164.331467
 30
0.0
 10
-72.478153
 20
166.829761
 30
0.0
 10
-73.262041
 20
169.175711
 30
0.0
  0
SPLINE
  5
24d
100
AcDbEntity
  8
Layer_1
 62
7
100
AcDbSpline
 70
8
 71
3
 72
8
 73
4
 74
0
 40
0
 40
0
 40
0
 40
0
 40
1
 40
1
 40
1
 40
1
 10
-73.262041
 20
169.175711
 30
0.0
 10
-75.839925
 20
170.670812
 30
0.0
 10
-79.215071
 20
169.901135
 30
0.0
 10
-82.117662
 20
170.184961
 30
0.0
  0
SPLINE
  5
24e
100
AcDbEntity
  8
Layer_1
 62
7
100
AcDbSpline
 70
8
 71
3
 72
8
 73
4
 74
0
 40
0
 40
0
 40
0
 40
0
 40
1
 40
1
 40
1
 40
1
 10
-82.117662
 20
170.184961
 30
0.0
 10
-97.603808
 20
169.804551
 30
0.0
 10
-112.821043
 20
165.569108
 30
0.0
 10
-126.893449
 20
159.249175
 30
0.0
  0
SPLINE
  5
24f
100
AcDbEntity
  8
Layer_1
 62
7
100
AcDbSpline
 70
8
 71
3
 72
8
 73
4
 74
0
 40
0
 40
0
 40
0
 40
0
 40
1
 40
1
 40
1
 40
1
 10
-126.893449
 20
159.249175
 30
0.0
 10
-130.491766
 20
158.031766
 30
0.0
 10
-127.996711
 20
154.386148
 30
0.0
 10
-126.826946
 20
152.247805
 30
0.0
  0
SPLINE
  5
250
100
AcDbEntity
  8
Layer_1
 62
7
100
AcDbSpline
 70
8
 71
3
 72
8
 73
4
 74
0
 40
0
 40
0
 40
0
 40
0
 40
1
 40
1
 40
1
 40
1
 10
-126.826946
 20
152.247805
 30
0.0
 10
-125.387318
 20
148.952460
 30
0.0
 10
-121.601588
 20
153.098597
 30
0.0
 10
-119.193306
 20
153.331845
 30
0.0
  0
LWPOLYLINE
  5
251
100
AcDbEntity
  8
Layer_1
 62
7
100
AcDbPolyline
 90
2
 70
0
 10
-4.215164
 20
139.055965
 30
0.0
 10
-4.215278
 20
139.055965
 30
0.0
  0
SPLINE
  5
252
100
AcDbEntity
  8
Layer_1
 62
7
100
AcDbSpline
 70
8
 71
3
 72
8
 73
4
 74
0
 40
0
 40
0
 40
0
 40
0
 40
1
 40
1
 40
1
 40
1
 10
-110.496562
 20
167.372628
 30
0.0
 10
-100.597458
 20
170.448060
 30
0.0
 10
-90.270510
 20
172.256839
 30
0.0
 10
-79.882907
 20
172.054985
 30
0.0
  0
SPLINE
  5
253
100
AcDbEntity
  8
Layer_1
 62
7
100
AcDbSpline
 70
8
 71
3
 72
8
 73
4
 74
0
 40
0
 40
0
 40
0
 40
0
 40
1
 40
1
 40
1
 40
1
 10
-79.882907
 20
172.054985
 30
0.0
 10
-77.546310
 20
172.071406
 30
0.0
 10
-75.209694
 20
172.088932
 30
0.0
 10
-72.873098
 20
172.105887
 30
0.0
  0
SPLINE
  5
254
100
AcDbEntity
  8
Layer_1
 62
7
100
AcDbSpline
 70
8
 71
3
 72
8
 73
4
 74
0
 40
0
 40
0
 40
0
 40
0
 40
1
 40
1
 40
1
 40
1
 10
-72.873098
 20
172.105887
 30
0.0
 10
-73.003647
 20
176.109054
 30
0.0
 10
-72.445596
 20
180.229359
 30
0.0
 10
-73.615457
 20
184.114740
 30
0.0
  0
SPLINE
  5
255
100
AcDbEntity
  8
Layer_1
 62
7
100
AcDbSpline
 70
8
 71
3
 72
8
 73
4
 74
0
 40
0
 40
0
 40
0
 40
0
 40
1
 40
1
 40
1
 40
1
 10
-73.615457
 20
184.114740
 30
0.0
 10
-74.968979
 20
187.489238
 30
0.0
 10
-79.158378
 20
187.608415
 30
0.0
 10
-82.234820
 20
188.083884
 30
0.0
  0
SPLINE
  5
256
100
AcDbEntity
  8
Layer_1
 62
7
100
AcDbSpline
 70
8
 71
3
 72
8
 73
4
 74
0
 40
0
 40
0
 40
0
 40
0
 40
1
 40
1
 40
1
 40
1
 10
-82.234820
 20
188.083884
 30
0.0
 10
-90.652139
 20
188.452844
 30
0.0
 10
-99.058904
 20
187.145633
 30
0.0
 10
-107.313192
 20
185.616375
 30
0.0
  0
SPLINE
  5
257
100
AcDbEntity
  8
Layer_1
 62
7
100
AcDbSpline
 70
8
 71
3
 72
8
 73
4
 74
0
 40
0
 40
0
 40
0
 40
0
 40
1
 40
1
 40
1
 40
1
 10
-107.313192
 20
185.616375
 30
0.0
 10
-115.270968
 20
183.901170
 30
0.0
 10
-123.255890
 20
181.328449
 30
0.0
 10
-130.005552
 20
176.665409
 30
0.0
  0
SPLINE
  5
258
100
AcDbEntity
  8
Layer_1
 62
7
100
AcDbSpline
 70
8
 71
3
 72
8
 73
4
 74
0
 40
0
 40
0
 40
0
 40
0
 40
1
 40
1
 40
1
 40
1
 10
-130.005552
 20
176.665409
 30
0.0
 10
-134.028989
 20
174.087868
 30
0.0
 10
-134.191542
 20
168.606897
 30
0.0
 10
-132.996631
 20
164.464627
 30
0.0
  0
SPLINE
  5
259
100
AcDbEntity
  8
Layer_1
 62
7
100
AcDbSpline
 70
8
 71
3
 72
8
 73
4
 74
0
 40
0
 40
0
 40
0
 40
0
 40
1
 40
1
 40
1
 40
1
 10
-132.996631
 20
164.464627
 30
0.0
 10
-132.483996
 20
162.754547
 30
0.0
 10
-131.628212
 20
161.178349
 30
0.0
 10
-130.922181
 20
159.544926
 30
0.0
  0
SPLINE
  5
25a
100
AcDbEntity
  8
Layer_1
 62
7
100
AcDbSpline
 70
8
 71
3
 72
8
 73
4
 74
0
 40
0
 40
0
 40
0
 40
0
 40
1
 40
1
 40
1
 40
1
 10
-130.922181
 20
159.544926
 30
0.0
 10
-124.241727
 20
162.483427
 30
0.0
 10
-117.506924
 20
165.300103
 30
0.0
 10
-110.496562
 20
167.372724
 30
0.0
  0
LWPOLYLINE
  5
25b
100
AcDbEntity
  8
Layer_1
 62
7
100
AcDbPolyline
 90
2
 70
0
 10
-119.193306
 20
153.331845
 30
0.0
 10
-119.193153
 20
153.331997
 30
0.0
  0
SPLINE
  5
25c
100
AcDbEntity
  8
Layer_1
 62
7
100
AcDbSpline
 70
8
 71
3
 72
8
 73
4
 74
0
 40
0
 40
0
 40
0
 40
0
 40
1
 40
1
 40
1
 40
1
 10
-74.302457
 20
149.026450
 30
0.0
 10
-75.299821
 20
149.026450
 30
0.0
 10
-76.256336
 20
148.630248
 30
0.0
 10
-76.961578
 20
147.925006
 30
0.0
  0
SPLINE
  5
25d
100
AcDbEntity
  8
Layer_1
 62
7
100
AcDbSpline
 70
8
 71
3
 72
8
 73
4
 74
0
 40
0
 40
0
 40
0
 40
0
 40
1
 40
1
 40
1
 40
1
 10
-76.961578
 20
147.925006
 30
0.0
 10
-77.666821
 20
147.219763
 30
0.0
 10
-78.063022
 20
146.263248
 30
0.0
 10
-78.063022
 20
145.265884
 30
0.0
  0
SPLINE
  5
25e
100
AcDbEntity
  8
Layer_1
 62
7
100
AcDbSpline
 70
8
 71
3
 72
8
 73
4
 74
0
 40
0
 40
0
 40
0
 40
0
 40
1
 40
1
 40
1
 40
1
 10
-78.063022
 20
145.265884
 30
0.0
 10
-78.063012
 20
143.188989
 30
0.0
 10
-76.379352
 20
141.505338
 30
0.0
 10
-74.302457
 20
141.505338
 30
0.0
  0
SPLINE
  5
25f
100
AcDbEntity
  8
Layer_1
 62
7
100
AcDbSpline
 70
8
 71
3
 72
8
 73
4
 74
0
 40
0
 40
0
 40
0
 40
0
 40
1
 40
1
 40
1
 40
1
 10
-74.302457
 20
141.505338
 30
0.0
 10
-72.225562
 20
141.505338
 30
0.0
 10
-70.541902
 20
143.188989
 30
0.0
 10
-70.541892
 20
145.265884
 30
0.0
  0
SPLINE
  5
260
100
AcDbEntity
  8
Layer_1
 62
7
100
AcDbSpline
 70
8
 71
3
 72
8
 73
4
 74
0
 40
0
 40
0
 40
0
 40
0
 40
1
 40
1
 40
1
 40
1
 10
-70.541892
 20
145.265884
 30
0.0
 10
-70.541892
 20
147.342787
 30
0.0
 10
-72.225554
 20
149.026450
 30
0.0
 10
-74.302457
 20
149.026450
 30
0.0
  0
SPLINE
  5
261
100
AcDbEntity
  8
Layer_1
 62
7
100
AcDbSpline
 70
8
 71
3
 72
8
 73
4
 74
0
 40
0
 40
0
 40
0
 40
0
 40
1
 40
1
 40
1
 40
1
 10
-90.722681
 20
145.744192
 30
0.0
 10
-92.990020
 20
145.744181
 30
0.0
 10
-94.828060
 20
143.906142
 30
0.0
 10
-94.828070
 20
141.638803
 30
0.0
  0
SPLINE
  5
262
100
AcDbEntity
  8
Layer_1
 62
7
100
AcDbSpline
 70
8
 71
3
 72
8
 73
4
 74
0
 40
0
 40
0
 40
0
 40
0
 40
1
 40
1
 40
1
 40
1
 10
-94.828070
 20
141.638803
 30
0.0
 10
-94.828070
 20
139.371456
 30
0.0
 10
-92.990028
 20
137.533405
 30
0.0
 10
-90.722681
 20
137.533394
 30
0.0
  0
SPLINE
  5
263
100
AcDbEntity
  8
Layer_1
 62
7
100
AcDbSpline
 70
8
 71
3
 72
8
 73
4
 74
0
 40
0
 40
0
 40
0
 40
0
 40
1
 40
1
 40
1
 40
1
 10
-90.722681
 20
137.533394
 30
0.0
 10
-89.633859
 20
137.533394
 30
0.0
 10
-88.589632
 20
137.965927
 30
0.0
 10
-87.819719
 20
138.735841
 30
0.0
  0
SPLINE
  5
264
100
AcDbEntity
  8
Layer_1
 62
7
100
AcDbSpline
 70
8
 71
3
 72
8
 73
4
 74
0
 40
0
 40
0
 40
0
 40
0
 40
1
 40
1
 40
1
 40
1
 10
-87.819719
 20
138.735841
 30
0.0
 10
-87.049805
 20
139.505754
 30
0.0
 10
-86.617272
 20
140.549981
 30
0.0
 10
-86.617272
 20
141.638803
 30
0.0
  0
SPLINE
  5
265
100
AcDbEntity
  8
Layer_1
 62
7
100
AcDbSpline
 70
8
 71
3
 72
8
 73
4
 74
0
 40
0
 40
0
 40
0
 40
0
 40
1
 40
1
 40
1
 40
1
 10
-86.617272
 20
141.638803
 30
0.0
 10
-86.617283
 20
143.906150
 30
0.0
 10
-88.455334
 20
145.744192
 30
0.0
 10
-90.722681
 20
145.744192
 30
0.0
  0
SPLINE
  5
266
100
AcDbEntity
  8
Layer_1
 62
7
100
AcDbSpline
 70
8
 71
3
 72
8
 73
4
 74
0
 40
0
 40
0
 40
0
 40
0
 40
1
 40
1
 40
1
 40
1
 10
-75.005459
 20
147.132518
 30
0.0
 10
-75.323885
 20
147.132518
 30
0.0
 10
-75.629269
 20
147.006024
 30
0.0
 10
-75.854430
 20
146.780863
 30
0.0
  0
SPLINE
  5
267
100
AcDbEntity
  8
Layer_1
 62
7
100
AcDbSpline
 70
8
 71
3
 72
8
 73
4
 74
0
 40
0
 40
0
 40
0
 40
0
 40
1
 40
1
 40
1
 40
1
 10
-75.854430
 20
146.780863
 30
0.0
 10
-76.079591
 20
146.555701
 30
0.0
 10
-76.206086
 20
146.250317
 30
0.0
 10
-76.206086
 20
145.931892
 30
0.0
  0
SPLINE
  5
268
100
AcDbEntity
  8
Layer_1
 62
7
100
AcDbSpline
 70
8
 71
3
 72
8
 73
4
 74
0
 40
0
 40
0
 40
0
 40
0
 40
1
 40
1
 40
1
 40
1
 10
-76.206086
 20
145.931892
 30
0.0
 10
-76.206091
 20
145.613462
 30
0.0
 10
-76.079599
 20
145.308073
 30
0.0
 10
-75.854437
 20
145.082908
 30
0.0
  0
SPLINE
  5
269
100
AcDbEntity
  8
Layer_1
 62
7
100
AcDbSpline
 70
8
 71
3
 72
8
 73
4
 74
0
 40
0
 40
0
 40
0
 40
0
 40
1
 40
1
 40
1
 40
1
 10
-75.854437
 20
145.082908
 30
0.0
 10
-75.629275
 20
144.857743
 30
0.0
 10
-75.323888
 20
144.731246
 30
0.0
 10
-75.005459
 20
144.731246
 30
0.0
  0
SPLINE
  5
26a
100
AcDbEntity
  8
Layer_1
 62
7
100
AcDbSpline
 70
8
 71
3
 72
8
 73
4
 74
0
 40
0
 40
0
 40
0
 40
0
 40
1
 40
1
 40
1
 40
1
 10
-75.005459
 20
144.731246
 30
0.0
 10
-74.687027
 20
144.731241
 30
0.0
 10
-74.381635
 20
144.857736
 30
0.0
 10
-74.156469
 20
145.082902
 30
0.0
  0
SPLINE
  5
26b
100
AcDbEntity
  8
Layer_1
 62
7
100
AcDbSpline
 70
8
 71
3
 72
8
 73
4
 74
0
 40
0
 40
0
 40
0
 40
0
 40
1
 40
1
 40
1
 40
1
 10
-74.156469
 20
145.082902
 30
0.0
 10
-73.931303
 20
145.308067
 30
0.0
 10
-73.804809
 20
145.613459
 30
0.0
 10
-73.804814
 20
145.931892
 30
0.0
  0
SPLINE
  5
26c
100
AcDbEntity
  8
Layer_1
 62
7
100
AcDbSpline
 70
8
 71
3
 72
8
 73
4
 74
0
 40
0
 40
0
 40
0
 40
0
 40
1
 40
1
 40
1
 40
1
 10
-73.804814
 20
145.931892
 30
0.0
 10
-73.804814
 20
146.250321
 30
0.0
 10
-73.931311
 20
146.555708
 30
0.0
 10
-74.156476
 20
146.780869
 30
0.0
  0
SPLINE
  5
26d
100
AcDbEntity
  8
Layer_1
 62
7
100
AcDbSpline
 70
8
 71
3
 72
8
 73
4
 74
0
 40
0
 40
0
 40
0
 40
0
 40
1
 40
1
 40
1
 40
1
 10
-74.156476
 20
146.780869
 30
0.0
 10
-74.381641
 20
147.006031
 30
0.0
 10
-74.687030
 20
147.132523
 30
0.0
 10
-75.005459
 20
147.132518
 30
0.0
  0
SPLINE
  5
26e
100
AcDbEntity
  8
Layer_1
 62
7
100
AcDbSpline
 70
8
 71
3
 72
8
 73
4
 74
0
 40
0
 40
0
 40
0
 40
0
 40
1
 40
1
 40
1
 40
1
 10
-91.840268
 20
143.804807
 30
0.0
 10
-92.188730
 20
143.804807
 30
0.0
 10
-92.522920
 20
143.666381
 30
0.0
 10
-92.769320
 20
143.419981
 30
0.0
  0
SPLINE
  5
26f
100
AcDbEntity
  8
Layer_1
 62
7
100
AcDbSpline
 70
8
 71
3
 72
8
 73
4
 74
0
 40
0
 40
0
 40
0
 40
0
 40
1
 40
1
 40
1
 40
1
 10
-92.769320
 20
143.419981
 30
0.0
 10
-93.015721
 20
143.173581
 30
0.0
 10
-93.154147
 20
142.839390
 30
0.0
 10
-93.154147
 20
142.490928
 30
0.0
  0
SPLINE
  5
270
100
AcDbEntity
  8
Layer_1
 62
7
100
AcDbSpline
 70
8
 71
3
 72
8
 73
4
 74
0
 40
0
 40
0
 40
0
 40
0
 40
1
 40
1
 40
1
 40
1
 10
-93.154147
 20
142.490928
 30
0.0
 10
-93.154147
 20
142.142466
 30
0.0
 10
-93.015721
 20
141.808276
 30
0.0
 10
-92.769320
 20
141.561876
 30
0.0
  0
SPLINE
  5
271
100
AcDbEntity
  8
Layer_1
 62
7
100
AcDbSpline
 70
8
 71
3
 72
8
 73
4
 74
0
 40
0
 40
0
 40
0
 40
0
 40
1
 40
1
 40
1
 40
1
 10
-92.769320
 20
141.561876
 30
0.0
 10
-92.522920
 20
141.315476
 30
0.0
 10
-92.188730
 20
141.177050
 30
0.0
 10
-91.840268
 20
141.177050
 30
0.0
  0
SPLINE
  5
272
100
AcDbEntity
  8
Layer_1
 62
7
100
AcDbSpline
 70
8
 71
3
 72
8
 73
4
 74
0
 40
0
 40
0
 40
0
 40
0
 40
1
 40
1
 40
1
 40
1
 10
-91.840268
 20
141.177050
 30
0.0
 10
-91.491806
 20
141.177050
 30
0.0
 10
-91.157616
 20
141.315476
 30
0.0
 10
-90.911216
 20
141.561876
 30
0.0
  0
SPLINE
  5
273
100
AcDbEntity
  8
Layer_1
 62
7
100
AcDbSpline
 70
8
 71
3
 72
8
 73
4
 74
0
 40
0
 40
0
 40
0
 40
0
 40
1
 40
1
 40
1
 40
1
 10
-90.911216
 20
141.561876
 30
0.0
 10
-90.664816
 20
141.808276
 30
0.0
 10
-90.526390
 20
142.142466
 30
0.0
 10
-90.526390
 20
142.490928
 30
0.0
  0
SPLINE
  5
274
100
AcDbEntity
  8
Layer_1
 62
7
100
AcDbSpline
 70
8
 71
3
 72
8
 73
4
 74
0
 40
0
 40
0
 40
0
 40
0
 40
1
 40
1
 40
1
 40
1
 10
-90.526390
 20
142.490928
 30
0.0
 10
-90.526390
 20
142.839390
 30
0.0
 10
-90.664816
 20
143.173581
 30
0.0
 10
-90.911216
 20
143.419981
 30
0.0
  0
SPLINE
  5
275
100
AcDbEntity
  8
Layer_1
 62
7
100
AcDbSpline
 70
8
 71
3
 72
8
 73
4
 74
0
 40
0
 40
0
 40
0
 40
0
 40
1
 40
1
 40
1
 40
1
 10
-90.911216
 20
143.419981
 30
0.0
 10
-91.157616
 20
143.666381
 30
0.0
 10
-91.491806
 20
143.804807
 30
0.0
 10
-91.840268
 20
143.804807
 30
0.0
  0
SPLINE
  5
276
100
AcDbEntity
  8
Layer_1
 62
7
100
AcDbSpline
 70
8
 71
3
 72
8
 73
4
 74
0
 40
0
 40
0
 40
0
 40
0
 40
1
 40
1
 40
1
 40
1
 10
-70.552179
 20
140.924904
 30
0.0
 10
-66.680438
 20
140.835274
 30
0.0
 10
-62.859294
 20
140.699657
 30
0.0
 10
-59.068420
 20
140.062339
 30
0.0
  0
SPLINE
  5
277
100
AcDbEntity
  8
Layer_1
 62
7
100
AcDbSpline
 70
8
 71
3
 72
8
 73
4
 74
0
 40
0
 40
0
 40
0
 40
0
 40
1
 40
1
 40
1
 40
1
 10
-59.068420
 20
140.062339
 30
0.0
 10
-55.766864
 20
137.514078
 30
0.0
 10
-61.419437
 20
135.288790
 30
0.0
 10
-63.615807
 20
134.568433
 30
0.0
  0
SPLINE
  5
278
100
AcDbEntity
  8
Layer_1
 62
7
100
AcDbSpline
 70
8
 71
3
 72
8
 73
4
 74
0
 40
0
 40
0
 40
0
 40
0
 40
1
 40
1
 40
1
 40
1
 10
-63.615807
 20
134.568433
 30
0.0
 10
-69.216221
 20
132.433995
 30
0.0
 10
-74.724357
 20
130.051507
 30
0.0
 10
-80.190698
 20
127.616821
 30
0.0
  0
SPLINE
  5
279
100
AcDbEntity
  8
Layer_1
 62
7
100
AcDbSpline
 70
8
 71
3
 72
8
 73
4
 74
0
 40
0
 40
0
 40
0
 40
0
 40
1
 40
1
 40
1
 40
1
 10
-80.190698
 20
127.616821
 30
0.0
 10
-80.827444
 20
127.799092
 30
0.0
 10
-81.439006
 20
128.059924
 30
0.0
 10
-82.055445
 20
128.300107
 30
0.0
  0
SPLINE
  5
27a
100
AcDbEntity
  8
Layer_1
 62
7
100
AcDbSpline
 70
8
 71
3
 72
8
 73
4
 74
0
 40
0
 40
0
 40
0
 40
0
 40
1
 40
1
 40
1
 40
1
 10
-82.055445
 20
128.300107
 30
0.0
 10
-85.397558
 20
129.838204
 30
0.0
 10
-86.308929
 20
135.067886
 30
0.0
 10
-83.870072
 20
137.720199
 30
0.0
  0
SPLINE
  5
27b
100
AcDbEntity
  8
Layer_1
 62
7
100
AcDbSpline
 70
8
 71
3
 72
8
 73
4
 74
0
 40
0
 40
0
 40
0
 40
0
 40
1
 40
1
 40
1
 40
1
 10
-83.870072
 20
137.720199
 30
0.0
 10
-81.386162
 20
139.845512
 30
0.0
 10
-76.889199
 20
140.539789
 30
0.0
 10
-73.916961
 20
140.740557
 30
0.0
  0
SPLINE
  5
27c
100
AcDbEntity
  8
Layer_1
 62
7
100
AcDbSpline
 70
8
 71
3
 72
8
 73
4
 74
0
 40
0
 40
0
 40
0
 40
0
 40
1
 40
1
 40
1
 40
1
 10
-73.916961
 20
140.740557
 30
0.0
 10
-72.796345
 20
140.816243
 30
0.0
 10
-71.675043
 20
140.950907
 30
0.0
 10
-70.552179
 20
140.924904
 30
0.0
  0
SPLINE
  5
27d
100
AcDbEntity
  8
Layer_1
 62
7
100
AcDbSpline
 70
8
 71
3
 72
8
 73
4
 74
0
 40
0
 40
0
 40
0
 40
0
 40
1
 40
1
 40
1
 40
1
 10
-159.581935
 20
34.445367
 30
0.0
 10
-161.975205
 20
23.399282
 30
0.0
 10
-161.339183
 20
11.799108
 30
0.0
 10
-158.070755
 20
0.998368
 30
0.0
  0
SPLINE
  5
27e
100
AcDbEntity
  8
Layer_1
 62
7
100
AcDbSpline
 70
8
 71
3
 72
8
 73
4
 74
0
 40
0
 40
0
 40
0
 40
0
 40
1
 40
1
 40
1
 40
1
 10
-158.070755
 20
0.998368
 30
0.0
 10
-156.002478
 20
-6.467708
 30
0.0
 10
-151.819365
 20
-13.287818
 30
0.0
 10
-146.048700
 20
-18.459950
 30
0.0
  0
SPLINE
  5
27f
100
AcDbEntity
  8
Layer_1
 62
7
100
AcDbSpline
 70
8
 71
3
 72
8
 73
4
 74
0
 40
0
 40
0
 40
0
 40
0
 40
1
 40
1
 40
1
 40
1
 10
-146.048700
 20
-18.459950
 30
0.0
 10
-135.170217
 20
-28.370789
 30
0.0
 10
-120.455826
 20
-32.624578
 30
0.0
 10
-106.180556
 20
-34.618046
 30
0.0
  0
LWPOLYLINE
  5
280
100
AcDbEntity
  8
Layer_1
 62
7
100
AcDbPolyline
 90
1
 70
1
 10
-110.496562
 20
167.372724
 30
0.0
  0
SPLINE
  5
281
100
AcDbEntity
  8
Layer_1
 62
7
100
AcDbSpline
 70
8
 71
3
 72
8
 73
4
 74
0
 40
0
 40
0
 40
0
 40
0
 40
1
 40
1
 40
1
 40
1
 10
-106.180708
 20
-34.618046
 30
0.0
 10
-104.647945
 20
-34.821690
 30
0.0
 10
-103.095999
 20
-34.892366
 30
0.0
 10
-101.550815
 20
-34.963803
 30
0.0
  0
SPLINE
  5
282
100
AcDbEntity
  8
Layer_1
 62
7
100
AcDbSpline
 70
8
 71
3
 72
8
 73
4
 74
0
 40
0
 40
0
 40
0
 40
0
 40
1
 40
1
 40
1
 40
1
 10
-101.550815
 20
-34.963803
 30
0.0
 10
-88.174515
 20
-35.333945
 30
0.0
 10
-74.768382
 20
-35.080008
 30
0.0
 10
-61.422524
 20
-34.089789
 30
0.0
  0
SPLINE
  5
283
100
AcDbEntity
  8
Layer_1
 62
7
100
AcDbSpline
 70
8
 71
3
 72
8
 73
4
 74
0
 40
0
 40
0
 40
0
 40
0
 40
1
 40
1
 40
1
 40
1
 10
-61.422524
 20
-34.089789
 30
0.0
 10
-54.020227
 20
-33.264639
 30
0.0
 10
-46.744632
 20
-31.424008
 30
0.0
 10
-39.649536
 20
-29.187348
 30
0.0
  0
SPLINE
  5
284
100
AcDbEntity
  8
Layer_1
 62
7
100
AcDbSpline
 70
8
 71
3
 72
8
 73
4
 74
0
 40
0
 40
0
 40
0
 40
0
 40
1
 40
1
 40
1
 40
1
 10
-39.649536
 20
-29.187348
 30
0.0
 10
-28.727009
 20
-25.733107
 30
0.0
 10
-18.661293
 20
-19.263746
 30
0.0
 10
-11.704557
 20
-10.074216
 30
0.0
  0
SPLINE
  5
285
100
AcDbEntity
  8
Layer_1
 62
7
100
AcDbSpline
 70
8
 71
3
 72
8
 73
4
 74
0
 40
0
 40
0
 40
0
 40
0
 40
1
 40
1
 40
1
 40
1
 10
-11.704557
 20
-10.074216
 30
0.0
 10
-2.634509
 20
1.570458
 30
0.0
 10
2.318072
 20
22.833154
 30
0.0
 10
-2.730102
 20
44.964510
 30
0.0
  0
SPLINE
  5
286
100
AcDbEntity
  8
Layer_1
 62
7
100
AcDbSpline
 70
8
 71
3
 72
8
 73
4
 74
0
 40
0
 40
0
 40
0
 40
0
 40
1
 40
1
 40
1
 40
1
 10
-2.730102
 20
44.964510
 30
0.0
 10
-2.742923
 20
45.020689
 30
0.0
 10
-3.183721
 20
47.110417
 30
0.0
 10
-3.547004
 20
49.108914
 30
0.0
  0
LWPOLYLINE
  5
287
100
AcDbEntity
  8
Layer_1
 62
7
100
AcDbPolyline
 90
2
 70
0
 10
-106.180556
 20
-34.618046
 30
0.0
 10
-106.180708
 20
-34.618046
 30
0.0
  0
SPLINE
  5
288
100
AcDbEntity
  8
Layer_1
 62
7
100
AcDbSpline
 70
8
 71
3
 72
8
 73
4
 74
0
 40
0
 40
0
 40
0
 40
0
 40
1
 40
1
 40
1
 40
1
 10
-41.284978
 20
106.870343
 30
0.0
 10
-41.880576
 20
106.770311
 30
0.0
 10
-43.539984
 20
106.294766
 30
0.0
 10
-43.584732
 20
106.897051
 30
0.0
  0
SPLINE
  5
289
100
AcDbEntity
  8
Layer_1
 62
7
100
AcDbSpline
 70
8
 71
3
 72
8
 73
4
 74
0
 40
0
 40
0
 40
0
 40
0
 40
1
 40
1
 40
1
 40
1
 10
-43.584732
 20
106.897051
 30
0.0
 10
-43.674534
 20
108.105716
 30
0.0
 10
-43.697127
 20
109.269576
 30
0.0
 10
-43.768127
 20
109.786231
 30
0.0
  0
LWPOLYLINE
  5
28a
100
AcDbEntity
  8
Layer_1
 62
7
100
AcDbPolyline
 90
260
 70
0
 10
-3.547004
 20
49.108914
 30
0.0
 10
-4.342285
 20
55.787158
 30
0.0
 10
-5.153529
 20
62.469079
 30
0.0
 10
-5.550150
 20
65.814888
 30
0.0
 10
-5.928826
 20
69.131074
 30
0.0
 10
-5.990414
 20
69.506530
 30
0.0
 10
-6.053508
 20
69.941442
 30
0.0
 10
-6.094637
 20
70.399308
 30
0.0
 10
-6.100943
 20
70.663379
 30
0.0
 10
-6.091913
 20
70.926974
 30
0.0
 10
-6.063452
 20
71.200704
 30
0.0
 10
-6.010741
 20
71.482968
 30
0.0
 10
-5.929112
 20
71.770756
 30
0.0
 10
-5.814602
 20
72.059382
 30
0.0
 10
-5.664907
 20
72.342885
 30
0.0
 10
-5.479798
 20
72.614957
 30
0.0
 10
-5.261009
 20
72.870150
 30
0.0
 10
-5.127107
 20
72.996071
 30
0.0
 10
-4.699205
 20
73.556103
 30
0.0
 10
-4.249511
 20
74.191611
 30
0.0
 10
-3.824163
 20
74.841368
 30
0.0
 10
-3.422989
 20
75.504727
 30
0.0
 10
-3.045894
 20
76.180983
 30
0.0
 10
-2.692726
 20
76.869488
 30
0.0
 10
-2.363390
 20
77.569538
 30
0.0
 10
-2.057790
 20
78.280446
 30
0.0
 10
-1.775792
 20
79.001469
 30
0.0
 10
-1.517322
 20
79.731941
 30
0.0
 10
-1.282283
 20
80.471100
 30
0.0
 10
-1.070542
 20
81.218222
 30
0.0
 10
-0.882024
 20
81.972564
 30
0.0
 10
-0.716651
 20
82.733383
 30
0.0
 10
-0.574271
 20
83.499917
 30
0.0
 10
-0.454827
 20
84.271423
 30
0.0
 10
-0.358206
 20
85.047139
 30
0.0
 10
-0.284292
 20
85.826265
 30
0.0
 10
-0.232952
 20
86.608058
 30
0.0
 10
-0.204110
 20
87.391737
 30
0.0
 10
-0.197614
 20
88.176502
 30
0.0
 10
-0.213369
 20
88.961609
 30
0.0
 10
-0.251221
 20
89.746222
 30
0.0
 10
-0.311057
 20
90.529596
 30
0.0
 10
-0.392743
 20
91.310931
 30
0.0
 10
-0.496128
 20
92.089467
 30
0.0
 10
-0.621058
 20
92.864364
 30
0.0
 10
-0.767419
 20
93.634879
 30
0.0
 10
-0.935021
 20
94.400213
 30
0.0
 10
-1.123730
 20
95.159584
 30
0.0
 10
-1.333375
 20
95.912211
 30
0.0
 10
-1.568795
 20
96.673468
 30
0.0
 10
-1.790423
 20
97.389367
 30
0.0
 10
-2.032358
 20
98.069586
 30
0.0
 10
-2.300868
 20
98.739631
 30
0.0
 10
-2.594542
 20
99.400152
 30
0.0
 10
-2.911973
 20
100.051814
 30
0.0
 10
-3.251672
 20
100.695152
 30
0.0
 10
-3.612155
 20
101.330736
 30
0.0
 10
-3.991879
 20
101.959062
 30
0.0
 10
-4.389300
 20
102.580607
 30
0.0
 10
-4.802799
 20
103.195884
 30
0.0
 10
-5.230777
 20
103.805350
 30
0.0
 10
-5.669174
 20
104.406244
 30
0.0
 10
-6.585765
 20
105.604966
 30
0.0
 10
-7.587090
 20
106.855446
 30
0.0
 10
-7.794164
 20
107.203432
 30
0.0
 10
-7.955555
 20
107.519891
 30
0.0
 10
-8.094449
 20
107.839035
 30
0.0
 10
-8.212768
 20
108.159171
 30
0.0
 10
-8.312628
 20
108.478849
 30
0.0
 10
-8.398868
 20
108.807118
 30
0.0
 10
-8.522960
 20
109.421976
 30
0.0
 10
-8.609694
 20
110.035672
 30
0.0
 10
-8.671073
 20
110.629975
 30
0.0
 10
-8.769543
 20
111.752324
 30
0.0
 10
-8.827836
 20
112.268198
 30
0.0
 10
-8.904112
 20
112.749744
 30
0.0
 10
-9.008163
 20
113.206678
 30
0.0
 10
-9.065770
 20
113.400873
 30
0.0
 10
-9.134579
 20
113.595888
 30
0.0
 10
-9.211750
 20
113.780826
 30
0.0
 10
-9.298028
 20
113.956333
 30
0.0
 10
-9.394345
 20
114.123459
 30
0.0
 10
-9.502072
 20
114.283441
 30
0.0
 10
-9.623002
 20
114.437631
 30
0.0
 10
-9.759419
 20
114.587307
 30
0.0
 10
-9.914010
 20
114.733478
 30
0.0
 10
-10.148020
 20
114.924378
 30
0.0
 10
-10.403576
 20
115.157036
 30
0.0
 10
-10.641720
 20
115.398647
 30
0.0
 10
-10.862871
 20
115.648754
 30
0.0
 10
-11.067163
 20
115.906520
 30
0.0
 10
-11.254825
 20
116.171048
 30
0.0
 10
-11.426199
 20
116.441425
 30
0.0
 10
-11.581780
 20
116.716735
 30
0.0
 10
-11.728122
 20
117.008067
 30
0.0
 10
-11.960132
 20
117.562232
 30
0.0
 10
-12.145850
 20
118.137484
 30
0.0
 10
-12.286287
 20
118.715899
 30
0.0
 10
-12.388185
 20
119.294219
 30
0.0
 10
-12.458061
 20
119.869910
 30
0.0
 10
-12.502009
 20
120.440896
 30
0.0
 10
-12.525726
 20
121.005271
 30
0.0
 10
-12.534604
 20
121.564008
 30
0.0
 10
-12.527536
 20
122.634180
 30
0.0
 10
-12.511001
 20
124.412364
 30
0.0
 10
-6.401990
 20
127.390888
 30
0.0
 10
-6.009255
 20
127.627185
 30
0.0
 10
-5.515346
 20
127.888055
 30
0.0
 10
-4.544272
 20
128.342569
 30
0.0
 10
-3.580628
 20
128.776947
 30
0.0
 10
-3.133791
 20
128.991165
 30
0.0
 10
-2.714119
 20
129.210506
 30
0.0
 10
-2.331005
 20
129.435849
 30
0.0
 10
-1.979456
 20
129.675898
 30
0.0
 10
-1.836771
 20
129.786959
 30
0.0
 10
-1.697706
 20
129.906593
 30
0.0
 10
-1.571595
 20
130.027370
 30
0.0
 10
-1.458248
 20
130.149481
 30
0.0
 10
-1.357473
 20
130.273115
 30
0.0
 10
-1.268700
 20
130.398845
 30
0.0
 10
-1.191357
 20
130.527623
 30
0.0
 10
-1.124492
 20
130.660973
 30
0.0
 10
-1.067723
 20
130.800991
 30
0.0
 10
-1.020669
 20
130.949962
 30
0.0
 10
-0.983712
 20
131.110553
 30
0.0
 10
-0.971654
 20
131.191897
 30
0.0
 10
-1.293599
 20
134.951262
 30
0.0
 10
-1.661092
 20
138.843272
 30
0.0
 10
-2.056704
 20
142.734578
 30
0.0
 10
-2.474432
 20
146.624873
 30
0.0
 10
-3.352866
 20
154.409885
 30
0.0
 10
-4.241948
 20
162.144585
 30
0.0
 10
-4.340513
 20
162.630645
 30
0.0
 10
-4.430067
 20
163.209937
 30
0.0
 10
-4.499619
 20
163.793838
 30
0.0
 10
-4.555035
 20
164.381359
 30
0.0
 10
-4.642208
 20
165.536227
 30
0.0
 10
-4.730657
 20
166.666026
 30
0.0
 10
-4.784607
 20
167.197426
 30
0.0
 10
-4.850520
 20
167.706784
 30
0.0
 10
-4.931063
 20
168.185416
 30
0.0
 10
-5.028370
 20
168.627223
 30
0.0
 10
-5.143470
 20
169.026130
 30
0.0
 10
-5.273525
 20
169.370173
 30
0.0
 10
-7.670739
 20
169.102692
 30
0.0
 10
-10.835191
 20
168.707691
 30
0.0
 10
-13.998006
 20
168.277942
 30
0.0
 10
-17.159925
 20
167.820342
 30
0.0
 10
-20.321653
 20
167.341806
 30
0.0
 10
-23.483953
 20
166.849230
 30
0.0
 10
-29.767234
 20
165.857125
 30
0.0
 10
-30.296862
 20
165.732157
 30
0.0
 10
-30.911015
 20
165.611685
 30
0.0
 10
-32.125148
 20
165.422213
 30
0.0
 10
-33.341585
 20
165.263431
 30
0.0
 10
-34.530000
 20
165.102973
 30
0.0
 10
-35.095462
 20
165.014086
 30
0.0
 10
-35.643435
 20
164.913921
 30
0.0
 10
-36.166891
 20
164.800002
 30
0.0
 10
-36.661543
 20
164.669853
 30
0.0
 10
-37.123220
 20
164.521586
 30
0.0
 10
-37.559922
 20
164.349260
 30
0.0
 10
-37.731753
 20
164.270012
 30
0.0
 10
-37.695558
 20
163.093103
 30
0.0
 10
-37.614405
 20
161.205572
 30
0.0
 10
-37.512868
 20
159.317355
 30
0.0
 10
-37.393806
 20
157.430110
 30
0.0
 10
-37.114400
 20
153.645903
 30
0.0
 10
-36.799827
 20
149.858954
 30
0.0
 10
-36.473234
 20
146.065108
 30
0.0
 10
-36.158242
 20
142.264862
 30
0.0
 10
-36.012319
 20
140.359309
 30
0.0
 10
-35.878207
 20
138.452119
 30
0.0
 10
-35.758764
 20
136.542127
 30
0.0
 10
-35.659894
 20
134.684733
 30
0.0
 10
-35.589028
 20
134.162878
 30
0.0
 10
-35.540832
 20
133.557945
 30
0.0
 10
-35.519115
 20
132.960918
 30
0.0
 10
-35.516028
 20
132.370558
 30
0.0
 10
-35.536983
 20
131.236836
 30
0.0
 10
-35.551576
 20
130.138070
 30
0.0
 10
-35.542051
 20
129.623701
 30
0.0
 10
-35.514428
 20
129.125258
 30
0.0
 10
-35.464708
 20
128.649027
 30
0.0
 10
-35.389079
 20
128.196646
 30
0.0
 10
-35.280875
 20
127.755277
 30
0.0
 10
-35.220296
 20
127.562034
 30
0.0
 10
-35.147525
 20
127.362942
 30
0.0
 10
-35.065801
 20
127.169223
 30
0.0
 10
-34.974361
 20
126.980437
 30
0.0
 10
-34.885969
 20
126.820227
 30
0.0
 10
-34.601190
 20
126.642490
 30
0.0
 10
-34.093584
 20
126.369828
 30
0.0
 10
-33.565385
 20
126.124768
 30
0.0
 10
-33.017240
 20
125.903960
 30
0.0
 10
-32.450179
 20
125.704106
 30
0.0
 10
-31.865648
 20
125.521798
 30
0.0
 10
-31.265288
 20
125.353586
 30
0.0
 10
-30.653059
 20
125.196424
 30
0.0
 10
-29.383281
 20
124.895338
 30
0.0
 10
-28.092186
 20
124.590462
 30
0.0
 10
-27.433742
 20
124.423013
 30
0.0
 10
-26.774383
 20
124.240704
 30
0.0
 10
-26.114149
 20
124.037898
 30
0.0
 10
-25.583606
 20
123.854065
 30
0.0
 10
-25.347234
 20
123.818251
 30
0.0
 10
-24.970825
 20
123.733288
 30
0.0
 10
-24.606570
 20
123.623370
 30
0.0
 10
-24.255497
 20
123.489448
 30
0.0
 10
-23.918617
 20
123.333048
 30
0.0
 10
-23.596767
 20
123.155502
 30
0.0
 10
-23.290634
 20
122.958239
 30
0.0
 10
-23.000807
 20
122.742650
 30
0.0
 10
-22.727706
 20
122.510126
 30
0.0
 10
-22.471712
 20
122.262057
 30
0.0
 10
-22.233092
 20
121.999681
 30
0.0
 10
-22.012036
 20
121.724237
 30
0.0
 10
-21.808791
 20
121.436868
 30
0.0
 10
-21.623435
 20
121.138678
 30
0.0
 10
-21.456176
 20
120.830678
 30
0.0
 10
-21.307395
 20
120.513838
 30
0.0
 10
-21.177093
 20
120.189112
 30
0.0
 10
-21.065460
 20
119.857395
 30
0.0
 10
-20.972877
 20
119.519562
 30
0.0
 10
-20.899725
 20
119.176490
 30
0.0
 10
-20.846195
 20
118.829056
 30
0.0
 10
-20.812857
 20
118.478155
 30
0.0
 10
-20.800075
 20
118.124683
 30
0.0
 10
-20.808590
 20
117.769648
 30
0.0
 10
-20.838404
 20
117.413965
 30
0.0
 10
-20.890296
 20
117.058759
 30
0.0
 10
-20.964781
 20
116.705134
 30
0.0
 10
-21.062374
 20
116.354347
 30
0.0
 10
-21.183551
 20
116.007675
 30
0.0
 10
-21.328693
 20
115.666528
 30
0.0
 10
-21.498143
 20
115.332353
 30
0.0
 10
-21.719542
 20
114.960630
 30
0.0
 10
-22.498821
 20
114.025275
 30
0.0
 10
-23.249886
 20
113.148270
 30
0.0
 10
-24.037089
 20
112.280810
 30
0.0
 10
-24.455465
 20
111.847708
 30
0.0
 10
-24.883957
 20
111.426703
 30
0.0
 10
-25.327631
 20
111.016385
 30
0.0
 10
-25.787841
 20
110.619326
 30
0.0
 10
-26.265901
 20
110.238211
 30
0.0
 10
-26.763106
 20
109.875861
 30
0.0
 10
-27.280733
 20
109.535228
 30
0.0
 10
-27.819848
 20
109.219417
 30
0.0
 10
-28.381403
 20
108.931648
 30
0.0
 10
-29.045105
 20
108.640583
 30
0.0
 10
-29.973012
 20
108.446235
 30
0.0
 10
-30.791990
 20
108.291339
 30
0.0
 10
-31.610702
 20
108.150998
 30
0.0
 10
-32.431681
 20
108.022639
 30
0.0
 10
-34.060018
 20
107.796763
 30
0.0
 10
-35.685897
 20
107.595938
 30
0.0
 10
-37.302233
 20
107.404981
 30
0.0
 10
-38.906300
 20
107.208499
 30
0.0
 10
-40.499623
 20
106.990815
 30
0.0
 10
-41.284978
 20
106.870343
 30
0.0
  0
SPLINE
  5
28b
100
AcDbEntity
  8
Layer_1
 62
7
100
AcDbSpline
 70
8
 71
3
 72
8
 73
4
 74
0
 40
0
 40
0
 40
0
 40
0
 40
1
 40
1
 40
1
 40
1
 10
-53.171549
 20
144.065658
 30
0.0
 10
-53.503896
 20
144.997356
 30
0.0
 10
-54.279383
 20
146.409285
 30
0.0
 10
-54.279383
 20
147.171285
 30
0.0
  0
SPLINE
  5
28c
100
AcDbEntity
  8
Layer_1
 62
7
100
AcDbSpline
 70
8
 71
3
 72
8
 73
4
 74
0
 40
0
 40
0
 40
0
 40
0
 40
1
 40
1
 40
1
 40
1
 10
-54.279383
 20
147.171285
 30
0.0
 10
-54.279383
 20
147.742785
 30
0.0
 10
-51.864034
 20
147.626199
 30
0.0
 10
-50.828876
 20
147.821156
 30
0.0
  0
LWPOLYLINE
  5
28d
100
AcDbEntity
  8
Layer_1
 62
7
100
AcDbPolyline
 90
48
 70
0
 10
-43.768127
 20
109.786231
 30
0.0
 10
-43.911497
 20
110.796529
 30
0.0
 10
-43.990269
 20
111.281161
 30
0.0
 10
-44.078603
 20
111.756839
 30
0.0
 10
-44.178749
 20
112.219507
 30
0.0
 10
-44.293125
 20
112.667848
 30
0.0
 10
-44.424056
 20
113.100779
 30
0.0
 10
-44.573732
 20
113.517497
 30
0.0
 10
-44.744344
 20
113.917566
 30
0.0
 10
-44.938197
 20
114.301081
 30
0.0
 10
-45.157957
 20
114.668556
 30
0.0
 10
-45.416256
 20
115.034296
 30
0.0
 10
-45.703683
 20
115.399218
 30
0.0
 10
-46.022999
 20
115.767226
 30
0.0
 10
-46.764520
 20
116.557839
 30
0.0
 10
-47.548428
 20
117.388305
 30
0.0
 10
-47.947411
 20
117.839447
 30
0.0
 10
-48.332297
 20
118.312668
 30
0.0
 10
-48.688361
 20
118.805796
 30
0.0
 10
-48.863925
 20
119.078954
 30
0.0
 10
-49.024422
 20
119.353484
 30
0.0
 10
-49.173488
 20
119.638453
 30
0.0
 10
-49.309238
 20
119.934414
 30
0.0
 10
-49.429634
 20
120.241728
 30
0.0
 10
-49.532485
 20
120.560473
 30
0.0
 10
-49.615562
 20
120.890400
 30
0.0
 10
-49.676655
 20
121.230880
 30
0.0
 10
-49.713746
 20
121.580867
 30
0.0
 10
-49.725138
 20
121.939102
 30
0.0
 10
-49.709479
 20
122.304062
 30
0.0
 10
-49.665835
 20
122.674318
 30
0.0
 10
-49.593712
 20
123.048498
 30
0.0
 10
-49.552773
 20
123.201508
 30
0.0
 10
-49.620801
 20
124.446197
 30
0.0
 10
-49.721042
 20
125.871499
 30
0.0
 10
-49.843838
 20
127.295200
 30
0.0
 10
-49.989456
 20
128.716788
 30
0.0
 10
-50.158144
 20
130.135746
 30
0.0
 10
-50.350168
 20
131.551561
 30
0.0
 10
-50.565795
 20
132.963661
 30
0.0
 10
-50.805273
 20
134.371590
 30
0.0
 10
-51.068887
 20
135.774774
 30
0.0
 10
-51.356865
 20
137.172721
 30
0.0
 10
-51.669495
 20
138.564895
 30
0.0
 10
-52.007004
 20
139.950801
 30
0.0
 10
-52.369697
 20
141.329907
 30
0.0
 10
-52.757783
 20
142.701697
 30
0.0
 10
-53.171549
 20
144.065658
 30
0.0
  0
SPLINE
  5
28e
100
AcDbEntity
  8
Layer_1
 62
7
100
AcDbSpline
 70
8
 71
3
 72
8
 73
4
 74
0
 40
0
 40
0
 40
0
 40
0
 40
1
 40
1
 40
1
 40
1
 10
-69.794141
 20
161.138592
 30
0.0
 10
-70.373452
 20
161.131315
 30
0.0
 10
-71.896271
 20
161.106188
 30
0.0
 10
-71.939724
 20
161.683917
 30
0.0
  0
SPLINE
  5
28f
100
AcDbEntity
  8
Layer_1
 62
7
100
AcDbSpline
 70
8
 71
3
 72
8
 73
4
 74
0
 40
0
 40
0
 40
0
 40
0
 40
1
 40
1
 40
1
 40
1
 10
-71.939724
 20
161.683917
 30
0.0
 10
-72.067683
 20
163.384454
 30
0.0
 10
-71.608273
 20
163.570344
 30
0.0
 10
-71.608273
 20
165.856344
 30
0.0
  0
SPLINE
  5
290
100
AcDbEntity
  8
Layer_1
 62
7
100
AcDbSpline
 70
8
 71
3
 72
8
 73
4
 74
0
 40
0
 40
0
 40
0
 40
0
 40
1
 40
1
 40
1
 40
1
 10
-71.608273
 20
165.856344
 30
0.0
 10
-71.608273
 20
166.225990
 30
0.0
 10
-71.590594
 20
167.663350
 30
0.0
 10
-71.681806
 20
168.021567
 30
0.0
  0
LWPOLYLINE
  5
291
100
AcDbEntity
  8
Layer_1
 62
7
100
AcDbPolyline
 90
53
 70
0
 10
-50.828876
 20
147.821156
 30
0.0
 10
-49.936669
 20
147.993883
 30
0.0
 10
-49.043243
 20
148.159008
 30
0.0
 10
-48.624448
 20
148.246162
 30
0.0
 10
-48.226569
 20
148.341850
 30
0.0
 10
-47.859190
 20
148.447558
 30
0.0
 10
-47.530121
 20
148.563954
 30
0.0
 10
-47.231569
 20
148.696561
 30
0.0
 10
-47.120469
 20
148.755844
 30
0.0
 10
-46.895489
 20
148.892490
 30
0.0
 10
-45.940741
 20
149.277548
 30
0.0
 10
-45.026531
 20
149.654052
 30
0.0
 10
-44.589944
 20
149.850096
 30
0.0
 10
-44.168443
 20
150.057417
 30
0.0
 10
-43.774680
 20
150.274549
 30
0.0
 10
-43.311441
 20
150.712470
 30
0.0
 10
-43.085736
 20
151.101738
 30
0.0
 10
-43.003555
 20
151.272102
 30
0.0
 10
-42.849859
 20
151.505750
 30
0.0
 10
-42.744075
 20
151.741018
 30
0.0
 10
-42.680524
 20
151.991525
 30
0.0
 10
-42.660198
 20
152.278666
 30
0.0
 10
-42.711804
 20
152.574569
 30
0.0
 10
-42.814617
 20
152.774632
 30
0.0
 10
-42.926326
 20
152.967876
 30
0.0
 10
-43.022567
 20
153.190532
 30
0.0
 10
-43.349674
 20
153.829431
 30
0.0
 10
-43.950721
 20
154.412628
 30
0.0
 10
-44.348313
 20
154.703293
 30
0.0
 10
-44.772804
 20
154.980394
 30
0.0
 10
-45.220841
 20
155.245056
 30
0.0
 10
-45.688824
 20
155.498554
 30
0.0
 10
-46.172922
 20
155.742451
 30
0.0
 10
-46.666813
 20
155.977318
 30
0.0
 10
-47.687740
 20
156.437090
 30
0.0
 10
-48.654051
 20
156.866077
 30
0.0
 10
-49.944384
 20
157.327868
 30
0.0
 10
-51.277313
 20
157.783354
 30
0.0
 10
-52.617899
 20
158.218303
 30
0.0
 10
-53.965592
 20
158.630755
 30
0.0
 10
-55.319799
 20
159.018765
 30
0.0
 10
-56.679969
 20
159.380430
 30
0.0
 10
-58.045549
 20
159.713805
 30
0.0
 10
-59.415968
 20
160.017004
 30
0.0
 10
-60.790673
 20
160.288105
 30
0.0
 10
-62.169112
 20
160.525239
 30
0.0
 10
-63.550751
 20
160.726503
 30
0.0
 10
-64.935058
 20
160.890028
 30
0.0
 10
-66.321517
 20
161.013986
 30
0.0
 10
-67.714415
 20
161.096758
 30
0.0
 10
-68.404387
 20
161.121733
 30
0.0
 10
-69.099178
 20
161.135811
 30
0.0
 10
-69.794141
 20
161.138592
 30
0.0
  0
SPLINE
  5
292
100
AcDbEntity
  8
Layer_1
 62
7
100
AcDbSpline
 70
8
 71
3
 72
8
 73
4
 74
0
 40
0
 40
0
 40
0
 40
0
 40
1
 40
1
 40
1
 40
1
 10
-128.251181
 20
152.103939
 30
0.0
 10
-127.825985
 20
151.303782
 30
0.0
 10
-127.041411
 20
150.218675
 30
0.0
 10
-127.253494
 20
149.337708
 30
0.0
  0
SPLINE
  5
293
100
AcDbEntity
  8
Layer_1
 62
7
100
AcDbSpline
 70
8
 71
3
 72
8
 73
4
 74
0
 40
0
 40
0
 40
0
 40
0
 40
1
 40
1
 40
1
 40
1
 10
-127.253494
 20
149.337708
 30
0.0
 10
-127.413133
 20
148.674596
 30
0.0
 10
-128.138386
 20
148.525340
 30
0.0
 10
-128.697503
 20
148.134719
 30
0.0
  0
LWPOLYLINE
  5
294
100
AcDbEntity
  8
Layer_1
 62
7
100
AcDbPolyline
 90
119
 70
0
 10
-71.681806
 20
168.021567
 30
0.0
 10
-71.675443
 20
169.156832
 30
0.0
 10
-71.639705
 20
171.412505
 30
0.0
 10
-71.599948
 20
173.660005
 30
0.0
 10
-71.588556
 20
174.774887
 30
0.0
 10
-71.588023
 20
175.885483
 30
0.0
 10
-71.602196
 20
176.990535
 30
0.0
 10
-71.634886
 20
178.089568
 30
0.0
 10
-71.689845
 20
179.182085
 30
0.0
 10
-71.770788
 20
180.267650
 30
0.0
 10
-71.881393
 20
181.345880
 30
0.0
 10
-72.025258
 20
182.416413
 30
0.0
 10
-72.207014
 20
183.484947
 30
0.0
 10
-72.311275
 20
184.007831
 30
0.0
 10
-72.428223
 20
184.538831
 30
0.0
 10
-72.490193
 20
184.804217
 30
0.0
 10
-72.557877
 20
185.035484
 30
0.0
 10
-72.636573
 20
185.257854
 30
0.0
 10
-72.725955
 20
185.471919
 30
0.0
 10
-72.825739
 20
185.678212
 30
0.0
 10
-72.935734
 20
185.877208
 30
0.0
 10
-73.055768
 20
186.069308
 30
0.0
 10
-73.185670
 20
186.254836
 30
0.0
 10
-73.325345
 20
186.434020
 30
0.0
 10
-73.474601
 20
186.607032
 30
0.0
 10
-73.633288
 20
186.773929
 30
0.0
 10
-73.801194
 20
186.934788
 30
0.0
 10
-73.978055
 20
187.089569
 30
0.0
 10
-74.163602
 20
187.238235
 30
0.0
 10
-74.357474
 20
187.380710
 30
0.0
 10
-74.550050
 20
187.510612
 30
0.0
 10
-74.986238
 20
187.769806
 30
0.0
 10
-75.438523
 20
187.996463
 30
0.0
 10
-75.913211
 20
188.196031
 30
0.0
 10
-76.405844
 20
188.367957
 30
0.0
 10
-76.911736
 20
188.511937
 30
0.0
 10
-77.426124
 20
188.627799
 30
0.0
 10
-77.944036
 20
188.715582
 30
0.0
 10
-78.481151
 20
188.777970
 30
0.0
 10
-79.853570
 20
188.913568
 30
0.0
 10
-81.228923
 20
189.027506
 30
0.0
 10
-82.606143
 20
189.119766
 30
0.0
 10
-83.984867
 20
189.190403
 30
0.0
 10
-85.364754
 20
189.239476
 30
0.0
 10
-86.745479
 20
189.267041
 30
0.0
 10
-88.126680
 20
189.273156
 30
0.0
 10
-89.508034
 20
189.257859
 30
0.0
 10
-90.889159
 20
189.221226
 30
0.0
 10
-92.269750
 20
189.163295
 30
0.0
 10
-93.649447
 20
189.084123
 30
0.0
 10
-95.027905
 20
188.983768
 30
0.0
 10
-96.404781
 20
188.862305
 30
0.0
 10
-97.779734
 20
188.719792
 30
0.0
 10
-99.152420
 20
188.556247
 30
0.0
 10
-100.522496
 20
188.371767
 30
0.0
 10
-101.889619
 20
188.166370
 30
0.0
 10
-103.253428
 20
187.940170
 30
0.0
 10
-104.613598
 20
187.693168
 30
0.0
 10
-105.969786
 20
187.425459
 30
0.0
 10
-107.321632
 20
187.137080
 30
0.0
 10
-108.668810
 20
186.828108
 30
0.0
 10
-110.010958
 20
186.498600
 30
0.0
 10
-111.347735
 20
186.148594
 30
0.0
 10
-112.678815
 20
185.778186
 30
0.0
 10
-114.003838
 20
185.387394
 30
0.0
 10
-115.322460
 20
184.976295
 30
0.0
 10
-116.634357
 20
184.544965
 30
0.0
 10
-117.939168
 20
184.093442
 30
0.0
 10
-119.236549
 20
183.621802
 30
0.0
 10
-120.526177
 20
183.130084
 30
0.0
 10
-121.785687
 20
182.627164
 30
0.0
 10
-123.444523
 20
181.856172
 30
0.0
 10
-125.149174
 20
181.063825
 30
0.0
 10
-125.988288
 20
180.660404
 30
0.0
 10
-126.817192
 20
180.245780
 30
0.0
 10
-127.630608
 20
179.817384
 30
0.0
 10
-128.424707
 20
179.372071
 30
0.0
 10
-129.195680
 20
178.906775
 30
0.0
 10
-129.939887
 20
178.418580
 30
0.0
 10
-130.660206
 20
177.899963
 30
0.0
 10
-130.999315
 20
177.636635
 30
0.0
 10
-131.335147
 20
177.361477
 30
0.0
 10
-131.661836
 20
177.078413
 30
0.0
 10
-131.979056
 20
176.787043
 30
0.0
 10
-132.286447
 20
176.486968
 30
0.0
 10
-132.583722
 20
176.177767
 30
0.0
 10
-132.870577
 20
175.858984
 30
0.0
 10
-133.146726
 20
175.530162
 30
0.0
 10
-133.411902
 20
175.190787
 30
0.0
 10
-133.633815
 20
174.884501
 30
0.0
 10
-133.769718
 20
174.635269
 30
0.0
 10
-133.921566
 20
174.332127
 30
0.0
 10
-134.062993
 20
174.023993
 30
0.0
 10
-134.194190
 20
173.711040
 30
0.0
 10
-134.315291
 20
173.393438
 30
0.0
 10
-134.426505
 20
173.071360
 30
0.0
 10
-134.528042
 20
172.745033
 30
0.0
 10
-134.617577
 20
172.422936
 30
0.0
 10
-134.775120
 20
171.742222
 30
0.0
 10
-134.894182
 20
171.057070
 30
0.0
 10
-134.977812
 20
170.360811
 30
0.0
 10
-135.027342
 20
169.655676
 30
0.0
 10
-135.044125
 20
168.944006
 30
0.0
 10
-135.029514
 20
168.228221
 30
0.0
 10
-134.984937
 20
167.510817
 30
0.0
 10
-134.911975
 20
166.794289
 30
0.0
 10
-134.812153
 20
166.081153
 30
0.0
 10
-134.687185
 20
165.373960
 30
0.0
 10
-134.538595
 20
164.675225
 30
0.0
 10
-134.385052
 20
164.055985
 30
0.0
 10
-134.051049
 20
163.249370
 30
0.0
 10
-133.668982
 20
162.378461
 30
0.0
 10
-133.269732
 20
161.512906
 30
0.0
 10
-132.855071
 20
160.651846
 30
0.0
 10
-132.426693
 20
159.794462
 30
0.0
 10
-131.987534
 20
158.942108
 30
0.0
 10
-131.077115
 20
157.235971
 30
0.0
 10
-129.193965
 20
153.823430
 30
0.0
 10
-128.251181
 20
152.103939
 30
0.0
  0
SPLINE
  5
295
100
AcDbEntity
  8
Layer_1
 62
7
100
AcDbSpline
 70
8
 71
3
 72
8
 73
4
 74
0
 40
0
 40
0
 40
0
 40
0
 40
1
 40
1
 40
1
 40
1
 10
-133.637473
 20
96.431457
 30
0.0
 10
-133.605317
 20
96.207848
 30
0.0
 10
-133.464232
 20
95.342331
 30
0.0
 10
-133.693671
 20
95.156117
 30
0.0
  0
SPLINE
  5
296
100
AcDbEntity
  8
Layer_1
 62
7
100
AcDbSpline
 70
8
 71
3
 72
8
 73
4
 74
0
 40
0
 40
0
 40
0
 40
0
 40
1
 40
1
 40
1
 40
1
 10
-133.693671
 20
95.156117
 30
0.0
 10
-134.139517
 20
94.794243
 30
0.0
 10
-135.736745
 20
94.930641
 30
0.0
 10
-136.303349
 20
94.837258
 30
0.0
  0
LWPOLYLINE
  5
297
100
AcDbEntity
  8
Layer_1
 62
7
100
AcDbPolyline
 90
116
 70
0
 10
-128.697503
 20
148.134719
 30
0.0
 10
-129.665967
 20
147.429279
 30
0.0
 10
-130.618715
 20
146.704826
 30
0.0
 10
-131.554851
 20
145.960924
 30
0.0
 10
-132.473461
 20
145.197095
 30
0.0
 10
-133.373631
 20
144.412825
 30
0.0
 10
-134.254483
 20
143.607677
 30
0.0
 10
-135.115105
 20
142.781174
 30
0.0
 10
-136.350765
 20
141.532294
 30
0.0
 10
-137.615056
 20
140.276213
 30
0.0
 10
-138.857421
 20
139.014208
 30
0.0
 10
-139.454733
 20
138.381977
 30
0.0
 10
-140.035968
 20
137.741115
 30
0.0
 10
-140.595219
 20
137.092120
 30
0.0
 10
-141.128790
 20
136.433200
 30
0.0
 10
-141.633120
 20
135.762601
 30
0.0
 10
-142.104817
 20
135.078554
 30
0.0
 10
-142.544948
 20
134.372294
 30
0.0
 10
-142.744821
 20
134.022651
 30
0.0
 10
-142.938236
 20
133.662015
 30
0.0
 10
-143.121116
 20
133.296484
 30
0.0
 10
-143.293328
 20
132.925771
 30
0.0
 10
-143.454300
 20
132.549533
 30
0.0
 10
-143.603462
 20
132.168267
 30
0.0
 10
-143.699474
 20
131.896042
 30
0.0
 10
-143.756433
 20
131.676357
 30
0.0
 10
-143.787485
 20
131.484372
 30
0.0
 10
-143.797219
 20
131.318446
 30
0.0
 10
-143.790037
 20
131.175571
 30
0.0
 10
-143.769463
 20
131.051175
 30
0.0
 10
-143.737459
 20
130.940113
 30
0.0
 10
-143.694216
 20
130.837243
 30
0.0
 10
-143.638399
 20
130.737993
 30
0.0
 10
-143.567914
 20
130.639695
 30
0.0
 10
-143.480475
 20
130.541206
 30
0.0
 10
-143.374557
 20
130.442527
 30
0.0
 10
-143.249017
 20
130.344801
 30
0.0
 10
-143.104047
 20
130.249360
 30
0.0
 10
-142.940407
 20
130.157920
 30
0.0
 10
-142.759051
 20
130.071814
 30
0.0
 10
-142.561750
 20
129.992376
 30
0.0
 10
-142.350257
 20
129.920557
 30
0.0
 10
-142.126572
 20
129.857121
 30
0.0
 10
-141.892733
 20
129.802828
 30
0.0
 10
-141.650817
 20
129.757870
 30
0.0
 10
-141.402920
 20
129.722628
 30
0.0
 10
-141.151117
 20
129.697291
 30
0.0
 10
-140.897504
 20
129.681956
 30
0.0
 10
-140.644235
 20
129.676508
 30
0.0
 10
-140.393365
 20
129.680813
 30
0.0
 10
-140.147087
 20
129.694624
 30
0.0
 10
-139.907571
 20
129.717675
 30
0.0
 10
-139.677028
 20
129.749298
 30
0.0
 10
-139.457800
 20
129.789112
 30
0.0
 10
-139.252270
 20
129.836356
 30
0.0
 10
-138.807929
 20
129.961705
 30
0.0
 10
-138.403764
 20
129.918081
 30
0.0
 10
-138.266795
 20
129.914080
 30
0.0
 10
-138.114013
 20
129.920138
 30
0.0
 10
-137.959709
 20
129.935549
 30
0.0
 10
-137.568021
 20
130.004129
 30
0.0
 10
-137.150426
 20
130.110047
 30
0.0
 10
-136.699646
 20
130.249303
 30
0.0
 10
-136.222844
 20
130.413133
 30
0.0
 10
-135.221900
 20
130.769539
 30
0.0
 10
-134.699358
 20
130.941561
 30
0.0
 10
-134.164834
 20
131.092627
 30
0.0
 10
-132.494835
 20
131.442690
 30
0.0
 10
-130.747874
 20
131.551847
 30
0.0
 10
-130.350662
 20
128.977068
 30
0.0
 10
-130.311038
 20
128.377202
 30
0.0
 10
-130.257127
 20
127.776994
 30
0.0
 10
-130.190452
 20
127.181739
 30
0.0
 10
-130.019192
 20
125.971949
 30
0.0
 10
-129.807794
 20
124.765551
 30
0.0
 10
-129.563612
 20
123.555400
 30
0.0
 10
-129.295426
 20
122.342086
 30
0.0
 10
-128.734460
 20
119.955769
 30
0.0
 10
-128.602444
 20
119.575340
 30
0.0
 10
-128.481286
 20
119.094499
 30
0.0
 10
-128.207880
 20
118.074257
 30
0.0
 10
-128.314389
 20
117.318449
 30
0.0
 10
-128.559296
 20
116.756131
 30
0.0
 10
-128.926580
 20
116.243229
 30
0.0
 10
-129.963928
 20
115.443586
 30
0.0
 10
-130.454123
 20
114.809716
 30
0.0
 10
-130.922886
 20
114.161064
 30
0.0
 10
-131.368428
 20
113.498314
 30
0.0
 10
-131.789033
 20
112.822249
 30
0.0
 10
-132.182986
 20
112.133553
 30
0.0
 10
-132.548594
 20
111.432970
 30
0.0
 10
-132.884255
 20
110.721205
 30
0.0
 10
-133.188350
 20
109.998905
 30
0.0
 10
-133.459337
 20
109.266738
 30
0.0
 10
-133.695652
 20
108.525254
 30
0.0
 10
-133.895810
 20
107.774989
 30
0.0
 10
-134.058307
 20
107.016399
 30
0.0
 10
-134.183084
 20
106.241864
 30
0.0
 10
-134.228804
 20
105.863474
 30
0.0
 10
-134.264999
 20
105.475426
 30
0.0
 10
-134.290717
 20
105.085491
 30
0.0
 10
-134.309005
 20
104.607050
 30
0.0
 10
-134.356249
 20
104.304327
 30
0.0
 10
-134.377204
 20
104.108550
 30
0.0
 10
-134.395873
 20
103.662818
 30
0.0
 10
-134.381395
 20
103.210457
 30
0.0
 10
-134.338532
 20
102.737655
 30
0.0
 10
-134.272048
 20
102.245860
 30
0.0
 10
-134.188228
 20
101.737149
 30
0.0
 10
-133.994661
 20
100.670997
 30
0.0
 10
-133.900554
 20
100.116984
 30
0.0
 10
-133.819210
 20
99.548151
 30
0.0
 10
-133.760155
 20
98.964688
 30
0.0
 10
-133.733866
 20
98.366480
 30
0.0
 10
-133.683193
 20
97.785245
 30
0.0
 10
-133.637473
 20
96.431457
 30
0.0
  0
SPLINE
  5
298
100
AcDbEntity
  8
Layer_1
 62
7
100
AcDbSpline
 70
8
 71
3
 72
8
 73
4
 74
0
 40
0
 40
0
 40
0
 40
0
 40
1
 40
1
 40
1
 40
1
 10
-158.777625
 20
87.702461
 30
0.0
 10
-158.580591
 20
87.516533
 30
0.0
 10
-158.052906
 20
87.013175
 30
0.0
 10
-157.529793
 20
86.803930
 30
0.0
  0
SPLINE
  5
299
100
AcDbEntity
  8
Layer_1
 62
7
100
AcDbSpline
 70
8
 71
3
 72
8
 73
4
 74
0
 40
0
 40
0
 40
0
 40
0
 40
1
 40
1
 40
1
 40
1
 10
-157.529793
 20
86.803930
 30
0.0
 10
-157.030664
 20
86.604286
 30
0.0
 10
-155.052131
 20
86.342501
 30
0.0
 10
-156.705499
 20
84.501966
 30
0.0
  0
SPLINE
  5
29a
100
AcDbEntity
  8
Layer_1
 62
7
100
AcDbSpline
 70
8
 71
3
 72
8
 73
4
 74
0
 40
0
 40
0
 40
0
 40
0
 40
1
 40
1
 40
1
 40
1
 10
-156.705499
 20
84.501966
 30
0.0
 10
-157.356799
 20
83.776942
 30
0.0
 10
-157.781767
 20
83.441300
 30
0.0
 10
-158.413408
 20
82.673490
 30
0.0
  0
LWPOLYLINE
  5
29b
100
AcDbEntity
  8
Layer_1
 62
7
100
AcDbPolyline
 90
41
 70
0
 10
-136.303349
 20
94.837258
 30
0.0
 10
-137.545847
 20
94.783594
 30
0.0
 10
-138.774744
 20
94.639843
 30
0.0
 10
-140.002383
 20
94.519180
 30
0.0
 10
-141.228250
 20
94.417358
 30
0.0
 10
-142.453394
 20
94.330090
 30
0.0
 10
-144.888594
 20
94.183443
 30
0.0
 10
-147.315297
 20
94.045883
 30
0.0
 10
-148.520400
 20
93.970711
 30
0.0
 10
-149.720950
 20
93.885920
 30
0.0
 10
-150.916071
 20
93.787622
 30
0.0
 10
-152.105286
 20
93.671950
 30
0.0
 10
-153.277814
 20
93.504520
 30
0.0
 10
-154.434206
 20
93.312858
 30
0.0
 10
-155.418081
 20
93.114795
 30
0.0
 10
-155.961139
 20
93.031756
 30
0.0
 10
-156.945034
 20
92.808128
 30
0.0
 10
-157.825620
 20
92.474334
 30
0.0
 10
-158.798237
 20
91.890013
 30
0.0
 10
-158.973897
 20
91.777999
 30
0.0
 10
-159.138470
 20
91.660842
 30
0.0
 10
-159.291803
 20
91.538731
 30
0.0
 10
-159.433916
 20
91.411477
 30
0.0
 10
-159.564980
 20
91.278699
 30
0.0
 10
-159.685300
 20
91.140015
 30
0.0
 10
-159.795257
 20
90.994473
 30
0.0
 10
-159.895231
 20
90.841120
 30
0.0
 10
-159.985490
 20
90.678624
 30
0.0
 10
-160.066148
 20
90.505269
 30
0.0
 10
-160.119526
 20
90.289718
 30
0.0
 10
-160.099980
 20
90.008959
 30
0.0
 10
-160.063385
 20
89.862846
 30
0.0
 10
-160.018485
 20
89.718828
 30
0.0
 10
-159.970440
 20
89.590050
 30
0.0
 10
-159.831814
 20
89.290850
 30
0.0
 10
-159.666288
 20
89.005881
 30
0.0
 10
-159.467501
 20
88.718646
 30
0.0
 10
-159.338685
 20
88.506695
 30
0.0
 10
-159.194763
 20
88.242377
 30
0.0
 10
-159.045601
 20
87.985925
 30
0.0
 10
-158.777625
 20
87.702461
 30
0.0
  0
SPLINE
  5
29c
100
AcDbEntity
  8
Layer_1
 62
7
100
AcDbSpline
 70
8
 71
3
 72
8
 73
4
 74
0
 40
0
 40
0
 40
0
 40
0
 40
1
 40
1
 40
1
 40
1
 10
-155.204245
 20
51.454674
 30
0.0
 10
-154.996485
 20
51.275128
 30
0.0
 10
-154.725918
 20
51.163552
 30
0.0
 10
-154.797642
 20
51.008999
 30
0.0
  0
SPLINE
  5
29d
100
AcDbEntity
  8
Layer_1
 62
7
100
AcDbSpline
 70
8
 71
3
 72
8
 73
4
 74
0
 40
0
 40
0
 40
0
 40
0
 40
1
 40
1
 40
1
 40
1
 10
-154.797642
 20
51.008999
 30
0.0
 10
-156.931623
 20
46.409910
 30
0.0
 10
-158.650637
 20
39.436543
 30
0.0
 10
-159.581935
 20
34.445367
 30
0.0
  0
SPLINE
  5
29e
100
AcDbEntity
  8
Layer_1
 62
7
100
AcDbSpline
 70
8
 71
3
 72
8
 73
4
 74
0
 40
0
 40
0
 40
0
 40
0
 40
1
 40
1
 40
1
 40
1
 10
-0.971159
 20
43.017981
 30
0.0
 10
-1.882625
 20
51.943383
 30
0.0
 10
-3.746534
 20
60.380132
 30
0.0
 10
-4.739744
 20
69.296390
 30
0.0
  0
SPLINE
  5
29f
100
AcDbEntity
  8
Layer_1
 62
7
100
AcDbSpline
 70
8
 71
3
 72
8
 73
4
 74
0
 40
0
 40
0
 40
0
 40
0
 40
1
 40
1
 40
1
 40
1
 10
-4.739744
 20
69.296390
 30
0.0
 10
-4.909403
 20
70.344997
 30
0.0
 10
-5.149986
 20
71.411225
 30
0.0
 10
-4.233223
 20
72.189208
 30
0.0
  0
SPLINE
  5
2a0
100
AcDbEntity
  8
Layer_1
 62
7
100
AcDbSpline
 70
8
 71
3
 72
8
 73
4
 74
0
 40
0
 40
0
 40
0
 40
0
 40
1
 40
1
 40
1
 40
1
 10
-4.233223
 20
72.189208
 30
0.0
 10
1.250529
 20
79.098319
 30
0.0
 10
2.258407
 20
88.776958
 30
0.0
 10
-0.422271
 20
97.028198
 30
0.0
  0
SPLINE
  5
2a1
100
AcDbEntity
  8
Layer_1
 62
7
100
AcDbSpline
 70
8
 71
3
 72
8
 73
4
 74
0
 40
0
 40
0
 40
0
 40
0
 40
1
 40
1
 40
1
 40
1
 10
-0.422271
 20
97.028198
 30
0.0
 10
-1.562813
 20
101.012125
 30
0.0
 10
-3.187207
 20
104.613623
 30
0.0
 10
-5.761586
 20
107.775256
 30
0.0
  0
SPLINE
  5
2a2
100
AcDbEntity
  8
Layer_1
 62
7
100
AcDbSpline
 70
8
 71
3
 72
8
 73
4
 74
0
 40
0
 40
0
 40
0
 40
0
 40
1
 40
1
 40
1
 40
1
 10
-5.761586
 20
107.775256
 30
0.0
 10
-7.401810
 20
110.331785
 30
0.0
 10
-5.865999
 20
113.876399
 30
0.0
 10
-8.588701
 20
115.939762
 30
0.0
  0
SPLINE
  5
2a3
100
AcDbEntity
  8
Layer_1
 62
7
100
AcDbSpline
 70
8
 71
3
 72
8
 73
4
 74
0
 40
0
 40
0
 40
0
 40
0
 40
1
 40
1
 40
1
 40
1
 10
-8.588701
 20
115.939762
 30
0.0
 10
-10.392203
 20
118.206331
 30
0.0
 10
-10.780251
 20
120.488445
 30
0.0
 10
-10.782137
 20
123.202517
 30
0.0
  0
SPLINE
  5
2a4
100
AcDbEntity
  8
Layer_1
 62
7
100
AcDbSpline
 70
8
 71
3
 72
8
 73
4
 74
0
 40
0
 40
0
 40
0
 40
0
 40
1
 40
1
 40
1
 40
1
 10
-10.782137
 20
123.202517
 30
0.0
 10
-8.952366
 20
124.094648
 30
0.0
 10
-7.566973
 20
125.161867
 30
0.0
 10
-5.737202
 20
126.053998
 30
0.0
  0
SPLINE
  5
2a5
100
AcDbEntity
  8
Layer_1
 62
7
100
AcDbSpline
 70
8
 71
3
 72
8
 73
4
 74
0
 40
0
 40
0
 40
0
 40
0
 40
1
 40
1
 40
1
 40
1
 10
-5.737202
 20
126.053998
 30
0.0
 10
-3.645112
 20
127.414739
 30
0.0
 10
-0.083581
 20
128.236232
 30
0.0
 10
0.236078
 20
131.154311
 30
0.0
  0
SPLINE
  5
2a6
100
AcDbEntity
  8
Layer_1
 62
7
100
AcDbSpline
 70
8
 71
3
 72
8
 73
4
 74
0
 40
0
 40
0
 40
0
 40
0
 40
1
 40
1
 40
1
 40
1
 10
0.236078
 20
131.154311
 30
0.0
 10
-0.604865
 20
141.570966
 30
0.0
 10
-1.872605
 20
151.949958
 30
0.0
 10
-3.055533
 20
162.332703
 30
0.0
  0
SPLINE
  5
2a7
100
AcDbEntity
  8
Layer_1
 62
7
100
AcDbSpline
 70
8
 71
3
 72
8
 73
4
 74
0
 40
0
 40
0
 40
0
 40
0
 40
1
 40
1
 40
1
 40
1
 10
-3.055533
 20
162.332703
 30
0.0
 10
-3.670105
 20
164.980901
 30
0.0
 10
-3.196103
 20
168.754211
 30
0.0
 10
-4.627882
 20
170.649819
 30
0.0
  0
SPLINE
  5
2a8
100
AcDbEntity
  8
Layer_1
 62
7
100
AcDbSpline
 70
8
 71
3
 72
8
 73
4
 74
0
 40
0
 40
0
 40
0
 40
0
 40
1
 40
1
 40
1
 40
1
 10
-4.627882
 20
170.649819
 30
0.0
 10
-13.125154
 20
169.764013
 30
0.0
 10
-21.561008
 20
168.361019
 30
0.0
 10
-29.998958
 20
167.035558
 30
0.0
  0
SPLINE
  5
2a9
100
AcDbEntity
  8
Layer_1
 62
7
100
AcDbSpline
 70
8
 71
3
 72
8
 73
4
 74
0
 40
0
 40
0
 40
0
 40
0
 40
1
 40
1
 40
1
 40
1
 10
-29.998958
 20
167.035558
 30
0.0
 10
-32.886195
 20
166.285369
 30
0.0
 10
-36.672344
 20
166.493814
 30
0.0
 10
-38.953353
 20
164.951583
 30
0.0
  0
SPLINE
  5
2aa
100
AcDbEntity
  8
Layer_1
 62
7
100
AcDbSpline
 70
8
 71
3
 72
8
 73
4
 74
0
 40
0
 40
0
 40
0
 40
0
 40
1
 40
1
 40
1
 40
1
 10
-38.953353
 20
164.951583
 30
0.0
 10
-38.709742
 20
154.799876
 30
0.0
 10
-37.342866
 20
144.712939
 30
0.0
 10
-36.855758
 20
134.571862
 30
0.0
  0
SPLINE
  5
2ab
100
AcDbEntity
  8
Layer_1
 62
7
100
AcDbSpline
 70
8
 71
3
 72
8
 73
4
 74
0
 40
0
 40
0
 40
0
 40
0
 40
1
 40
1
 40
1
 40
1
 10
-36.855758
 20
134.571862
 30
0.0
 10
-36.376765
 20
131.731088
 30
0.0
 10
-37.423410
 20
128.454336
 30
0.0
 10
-35.759849
 20
125.950594
 30
0.0
  0
SPLINE
  5
2ac
100
AcDbEntity
  8
Layer_1
 62
7
100
AcDbSpline
 70
8
 71
3
 72
8
 73
4
 74
0
 40
0
 40
0
 40
0
 40
0
 40
1
 40
1
 40
1
 40
1
 10
-35.759849
 20
125.950594
 30
0.0
 10
-32.843142
 20
123.987054
 30
0.0
 10
-30.239979
 20
123.612416
 30
0.0
 10
-26.990849
 20
122.411923
 30
0.0
  0
SPLINE
  5
2ad
100
AcDbEntity
  8
Layer_1
 62
7
100
AcDbSpline
 70
8
 71
3
 72
8
 73
4
 74
0
 40
0
 40
0
 40
0
 40
0
 40
1
 40
1
 40
1
 40
1
 10
-26.990849
 20
122.411923
 30
0.0
 10
-23.706362
 20
122.032028
 30
0.0
 10
-22.066595
 20
118.031852
 30
0.0
 10
-23.792658
 20
115.346164
 30
0.0
  0
SPLINE
  5
2ae
100
AcDbEntity
  8
Layer_1
 62
7
100
AcDbSpline
 70
8
 71
3
 72
8
 73
4
 74
0
 40
0
 40
0
 40
0
 40
0
 40
1
 40
1
 40
1
 40
1
 10
-23.792658
 20
115.346164
 30
0.0
 10
-25.673541
 20
113.080700
 30
0.0
 10
-26.791795
 20
111.488672
 30
0.0
 10
-29.594012
 20
110.362932
 30
0.0
  0
SPLINE
  5
2af
100
AcDbEntity
  8
Layer_1
 62
7
100
AcDbSpline
 70
8
 71
3
 72
8
 73
4
 74
0
 40
0
 40
0
 40
0
 40
0
 40
1
 40
1
 40
1
 40
1
 10
-29.594012
 20
110.362932
 30
0.0
 10
-33.823245
 20
109.430434
 30
0.0
 10
-36.406464
 20
110.594046
 30
0.0
 10
-40.676102
 20
109.842314
 30
0.0
  0
SPLINE
  5
2b0
100
AcDbEntity
  8
Layer_1
 62
7
100
AcDbSpline
 70
8
 71
3
 72
8
 73
4
 74
0
 40
0
 40
0
 40
0
 40
0
 40
1
 40
1
 40
1
 40
1
 10
-40.676102
 20
109.842314
 30
0.0
 10
-41.160429
 20
112.505485
 30
0.0
 10
-41.558593
 20
113.993957
 30
0.0
 10
-43.279265
 20
116.238676
 30
0.0
  0
SPLINE
  5
2b1
100
AcDbEntity
  8
Layer_1
 62
7
100
AcDbSpline
 70
8
 71
3
 72
8
 73
4
 74
0
 40
0
 40
0
 40
0
 40
0
 40
1
 40
1
 40
1
 40
1
 10
-43.279265
 20
116.238676
 30
0.0
 10
-44.918194
 20
118.453010
 30
0.0
 10
-47.221225
 20
118.916229
 30
0.0
 10
-47.667471
 20
122.932541
 30
0.0
  0
SPLINE
  5
2b2
100
AcDbEntity
  8
Layer_1
 62
7
100
AcDbSpline
 70
8
 71
3
 72
8
 73
4
 74
0
 40
0
 40
0
 40
0
 40
0
 40
1
 40
1
 40
1
 40
1
 10
-47.667471
 20
122.932541
 30
0.0
 10
-48.028888
 20
130.640266
 30
0.0
 10
-49.163144
 20
137.594850
 30
0.0
 10
-51.617241
 20
144.919517
 30
0.0
  0
SPLINE
  5
2b3
100
AcDbEntity
  8
Layer_1
 62
7
100
AcDbSpline
 70
8
 71
3
 72
8
 73
4
 74
0
 40
0
 40
0
 40
0
 40
0
 40
1
 40
1
 40
1
 40
1
 10
-51.617241
 20
144.919517
 30
0.0
 10
-50.674304
 20
145.862435
 30
0.0
 10
-47.764855
 20
146.344172
 30
0.0
 10
-46.000329
 20
147.489953
 30
0.0
  0
SPLINE
  5
2b4
100
AcDbEntity
  8
Layer_1
 62
7
100
AcDbSpline
 70
8
 71
3
 72
8
 73
4
 74
0
 40
0
 40
0
 40
0
 40
0
 40
1
 40
1
 40
1
 40
1
 10
-46.000329
 20
147.489953
 30
0.0
 10
-43.832630
 20
148.395228
 30
0.0
 10
-40.610894
 20
149.780087
 30
0.0
 10
-41.141284
 20
152.768613
 30
0.0
  0
SPLINE
  5
2b5
100
AcDbEntity
  8
Layer_1
 62
7
100
AcDbSpline
 70
8
 71
3
 72
8
 73
4
 74
0
 40
0
 40
0
 40
0
 40
0
 40
1
 40
1
 40
1
 40
1
 10
-41.141284
 20
152.768613
 30
0.0
 10
-42.346101
 20
155.625541
 30
0.0
 10
-45.575667
 20
156.791439
 30
0.0
 10
-48.207767
 20
157.981055
 30
0.0
  0
SPLINE
  5
2b6
100
AcDbEntity
  8
Layer_1
 62
7
100
AcDbSpline
 70
8
 71
3
 72
8
 73
4
 74
0
 40
0
 40
0
 40
0
 40
0
 40
1
 40
1
 40
1
 40
1
 10
-48.207767
 20
157.981055
 30
0.0
 10
-55.329781
 20
160.584866
 30
0.0
 10
-62.267867
 20
163.192373
 30
0.0
 10
-69.898954
 20
163.032543
 30
0.0
  0
SPLINE
  5
2b7
100
AcDbEntity
  8
Layer_1
 62
7
100
AcDbSpline
 70
8
 71
3
 72
8
 73
4
 74
0
 40
0
 40
0
 40
0
 40
0
 40
1
 40
1
 40
1
 40
1
 10
-69.898954
 20
163.032543
 30
0.0
 10
-69.886629
 20
164.556543
 30
0.0
 10
-70.064956
 20
165.697429
 30
0.0
 10
-70.051278
 20
167.221429
 30
0.0
  0
SPLINE
  5
2b8
100
AcDbEntity
  8
Layer_1
 62
7
100
AcDbSpline
 70
8
 71
3
 72
8
 73
4
 74
0
 40
0
 40
0
 40
0
 40
0
 40
1
 40
1
 40
1
 40
1
 10
-70.051278
 20
167.221429
 30
0.0
 10
-70.129574
 20
173.188898
 30
0.0
 10
-69.903736
 20
178.943027
 30
0.0
 10
-71.257791
 20
184.804369
 30
0.0
  0
SPLINE
  5
2b9
100
AcDbEntity
  8
Layer_1
 62
7
100
AcDbSpline
 70
8
 71
3
 72
8
 73
4
 74
0
 40
0
 40
0
 40
0
 40
0
 40
1
 40
1
 40
1
 40
1
 10
-71.257791
 20
184.804369
 30
0.0
 10
-71.935323
 20
188.112344
 30
0.0
 10
-75.280827
 20
189.695190
 30
0.0
 10
-78.352906
 20
189.971281
 30
0.0
  0
SPLINE
  5
2ba
100
AcDbEntity
  8
Layer_1
 62
7
100
AcDbSpline
 70
8
 71
3
 72
8
 73
4
 74
0
 40
0
 40
0
 40
0
 40
0
 40
1
 40
1
 40
1
 40
1
 10
-78.352906
 20
189.971281
 30
0.0
 10
-93.189389
 20
191.556127
 30
0.0
 10
-108.450458
 20
189.370159
 30
0.0
 10
-122.261480
 20
183.729473
 30
0.0
  0
SPLINE
  5
2bb
100
AcDbEntity
  8
Layer_1
 62
7
100
AcDbSpline
 70
8
 71
3
 72
8
 73
4
 74
0
 40
0
 40
0
 40
0
 40
0
 40
1
 40
1
 40
1
 40
1
 10
-122.261480
 20
183.729473
 30
0.0
 10
-126.706740
 20
181.624714
 30
0.0
 10
-131.731654
 20
179.715276
 30
0.0
 10
-134.650743
 20
175.526467
 30
0.0
  0
SPLINE
  5
2bc
100
AcDbEntity
  8
Layer_1
 62
7
100
AcDbSpline
 70
8
 71
3
 72
8
 73
4
 74
0
 40
0
 40
0
 40
0
 40
0
 40
1
 40
1
 40
1
 40
1
 10
-134.650743
 20
175.526467
 30
0.0
 10
-136.665394
 20
171.981547
 30
0.0
 10
-136.545532
 20
167.514703
 30
0.0
 10
-135.528395
 20
163.679976
 30
0.0
  0
SPLINE
  5
2bd
100
AcDbEntity
  8
Layer_1
 62
7
100
AcDbSpline
 70
8
 71
3
 72
8
 73
4
 74
0
 40
0
 40
0
 40
0
 40
0
 40
1
 40
1
 40
1
 40
1
 10
-135.528395
 20
163.679976
 30
0.0
 10
-133.590153
 20
158.848249
 30
0.0
 10
-131.635604
 20
154.696720
 30
0.0
 10
-129.239514
 20
150.084906
 30
0.0
  0
SPLINE
  5
2be
100
AcDbEntity
  8
Layer_1
 62
7
100
AcDbSpline
 70
8
 71
3
 72
8
 73
4
 74
0
 40
0
 40
0
 40
0
 40
0
 40
1
 40
1
 40
1
 40
1
 10
-129.239514
 20
150.084906
 30
0.0
 10
-131.930460
 20
148.243152
 30
0.0
 10
-133.632063
 20
145.926348
 30
0.0
 10
-135.957458
 20
143.636176
 30
0.0
  0
SPLINE
  5
2bf
100
AcDbEntity
  8
Layer_1
 62
7
100
AcDbSpline
 70
8
 71
3
 72
8
 73
4
 74
0
 40
0
 40
0
 40
0
 40
0
 40
1
 40
1
 40
1
 40
1
 10
-135.957458
 20
143.636176
 30
0.0
 10
-139.213027
 20
140.272460
 30
0.0
 10
-143.052155
 20
137.082919
 30
0.0
 10
-144.728516
 20
132.586547
 30
0.0
  0
SPLINE
  5
2c0
100
AcDbEntity
  8
Layer_1
 62
7
100
AcDbSpline
 70
8
 71
3
 72
8
 73
4
 74
0
 40
0
 40
0
 40
0
 40
0
 40
1
 40
1
 40
1
 40
1
 10
-144.728516
 20
132.586547
 30
0.0
 10
-146.202415
 20
128.877855
 30
0.0
 10
-141.295325
 20
127.937966
 30
0.0
 10
-138.705078
 20
128.743743
 30
0.0
  0
SPLINE
  5
2c1
100
AcDbEntity
  8
Layer_1
 62
7
100
AcDbSpline
 70
8
 71
3
 72
8
 73
4
 74
0
 40
0
 40
0
 40
0
 40
0
 40
1
 40
1
 40
1
 40
1
 10
-138.705078
 20
128.743743
 30
0.0
 10
-136.391551
 20
128.395166
 30
0.0
 10
-133.287334
 20
130.524975
 30
0.0
 10
-131.793300
 20
128.869207
 30
0.0
  0
SPLINE
  5
2c2
100
AcDbEntity
  8
Layer_1
 62
7
100
AcDbSpline
 70
8
 71
3
 72
8
 73
4
 74
0
 40
0
 40
0
 40
0
 40
0
 40
1
 40
1
 40
1
 40
1
 10
-131.793300
 20
128.869207
 30
0.0
 10
-131.701345
 20
125.498100
 30
0.0
 10
-131.234373
 20
123.376958
 30
0.0
 10
-130.460486
 20
120.110645
 30
0.0
  0
SPLINE
  5
2c3
100
AcDbEntity
  8
Layer_1
 62
7
100
AcDbSpline
 70
8
 71
3
 72
8
 73
4
 74
0
 40
0
 40
0
 40
0
 40
0
 40
1
 40
1
 40
1
 40
1
 10
-130.460486
 20
120.110645
 30
0.0
 10
-130.055006
 20
119.062590
 30
0.0
 10
-129.994618
 20
117.820359
 30
0.0
 10
-130.955538
 20
117.064188
 30
0.0
  0
SPLINE
  5
2c4
100
AcDbEntity
  8
Layer_1
 62
7
100
AcDbSpline
 70
8
 71
3
 72
8
 73
4
 74
0
 40
0
 40
0
 40
0
 40
0
 40
1
 40
1
 40
1
 40
1
 10
-130.955538
 20
117.064188
 30
0.0
 10
-133.848833
 20
113.662316
 30
0.0
 10
-135.394931
 20
109.269005
 30
0.0
 10
-135.505516
 20
104.722817
 30
0.0
  0
SPLINE
  5
2c5
100
AcDbEntity
  8
Layer_1
 62
7
100
AcDbSpline
 70
8
 71
3
 72
8
 73
4
 74
0
 40
0
 40
0
 40
0
 40
0
 40
1
 40
1
 40
1
 40
1
 10
-135.505516
 20
104.722817
 30
0.0
 10
-136.012417
 20
101.933421
 30
0.0
 10
-134.995490
 20
99.170333
 30
0.0
 10
-136.103572
 20
96.560845
 30
0.0
  0
SPLINE
  5
2c6
100
AcDbEntity
  8
Layer_1
 62
7
100
AcDbSpline
 70
8
 71
3
 72
8
 73
4
 74
0
 40
0
 40
0
 40
0
 40
0
 40
1
 40
1
 40
1
 40
1
 10
-136.103572
 20
96.560845
 30
0.0
 10
-142.483436
 20
95.419788
 30
0.0
 10
-148.231107
 20
95.520105
 30
0.0
 10
-154.642727
 20
94.560195
 30
0.0
  0
SPLINE
  5
2c7
100
AcDbEntity
  8
Layer_1
 62
7
100
AcDbSpline
 70
8
 71
3
 72
8
 73
4
 74
0
 40
0
 40
0
 40
0
 40
0
 40
1
 40
1
 40
1
 40
1
 10
-154.642727
 20
94.560195
 30
0.0
 10
-157.298602
 20
94.108100
 30
0.0
 10
-161.038002
 20
93.651395
 30
0.0
 10
-161.851895
 20
90.579088
 30
0.0
  0
SPLINE
  5
2c8
100
AcDbEntity
  8
Layer_1
 62
7
100
AcDbSpline
 70
8
 71
3
 72
8
 73
4
 74
0
 40
0
 40
0
 40
0
 40
0
 40
1
 40
1
 40
1
 40
1
 10
-161.851895
 20
90.579088
 30
0.0
 10
-161.759407
 20
88.080794
 30
0.0
 10
-160.219043
 20
86.793262
 30
0.0
 10
-158.723504
 20
85.060474
 30
0.0
  0
SPLINE
  5
2c9
100
AcDbEntity
  8
Layer_1
 62
7
100
AcDbSpline
 70
8
 71
3
 72
8
 73
4
 74
0
 40
0
 40
0
 40
0
 40
0
 40
1
 40
1
 40
1
 40
1
 10
-158.723504
 20
85.060474
 30
0.0
 10
-162.532227
 20
81.290746
 30
0.0
 10
-165.987212
 20
77.438321
 30
0.0
 10
-167.305071
 20
72.006252
 30
0.0
  0
SPLINE
  5
2ca
100
AcDbEntity
  8
Layer_1
 62
7
100
AcDbSpline
 70
8
 71
3
 72
8
 73
4
 74
0
 40
0
 40
0
 40
0
 40
0
 40
1
 40
1
 40
1
 40
1
 10
-167.305071
 20
72.006252
 30
0.0
 10
-168.827757
 20
65.597832
 30
0.0
 10
-165.631929
 20
59.055433
 30
0.0
 10
-161.386560
 20
54.404357
 30
0.0
  0
SPLINE
  5
2cb
100
AcDbEntity
  8
Layer_1
 62
7
100
AcDbSpline
 70
8
 71
3
 72
8
 73
4
 74
0
 40
0
 40
0
 40
0
 40
0
 40
1
 40
1
 40
1
 40
1
 10
-161.386560
 20
54.404357
 30
0.0
 10
-159.802038
 20
52.239000
 30
0.0
 10
-158.453527
 20
52.082829
 30
0.0
 10
-156.756153
 20
50.239970
 30
0.0
  0
LWPOLYLINE
  5
2cc
100
AcDbEntity
  8
Layer_1
 62
7
100
AcDbPolyline
 90
64
 70
0
 10
-158.413408
 20
82.673490
 30
0.0
 10
-159.863913
 20
81.248169
 30
0.0
 10
-160.569849
 20
80.532956
 30
0.0
 10
-161.259573
 20
79.809380
 30
0.0
 10
-161.926628
 20
79.076717
 30
0.0
 10
-162.565984
 20
78.332871
 30
0.0
 10
-163.172764
 20
77.575862
 30
0.0
 10
-163.746608
 20
76.797727
 30
0.0
 10
-164.012279
 20
76.410650
 30
0.0
 10
-164.270635
 20
76.013686
 30
0.0
 10
-164.517447
 20
75.611884
 30
0.0
 10
-164.752219
 20
75.204957
 30
0.0
 10
-164.974437
 20
74.792600
 30
0.0
 10
-165.183625
 20
74.374510
 30
0.0
 10
-165.379307
 20
73.950305
 30
0.0
 10
-165.561006
 20
73.519622
 30
0.0
 10
-165.728246
 20
73.082044
 30
0.0
 10
-165.880570
 20
72.637131
 30
0.0
 10
-166.017482
 20
72.184427
 30
0.0
 10
-166.137345
 20
71.727798
 30
0.0
 10
-166.255226
 20
71.178701
 30
0.0
 10
-166.348628
 20
70.628156
 30
0.0
 10
-166.418027
 20
70.077135
 30
0.0
 10
-166.463995
 20
69.525751
 30
0.0
 10
-166.487122
 20
68.974197
 30
0.0
 10
-166.487922
 20
68.422661
 30
0.0
 10
-166.466967
 20
67.871354
 30
0.0
 10
-166.424771
 20
67.320543
 30
0.0
 10
-166.361849
 20
66.770493
 30
0.0
 10
-166.278715
 20
66.221510
 30
0.0
 10
-166.175940
 20
65.673937
 30
0.0
 10
-166.054001
 20
65.128135
 30
0.0
 10
-165.913469
 20
64.584429
 30
0.0
 10
-165.754897
 20
64.043257
 30
0.0
 10
-165.578837
 20
63.504980
 30
0.0
 10
-165.385841
 20
62.970037
 30
0.0
 10
-165.176501
 20
62.438828
 30
0.0
 10
-164.951425
 20
61.911790
 30
0.0
 10
-164.711204
 20
61.389344
 30
0.0
 10
-164.456449
 20
60.871927
 30
0.0
 10
-164.187787
 20
60.359977
 30
0.0
 10
-163.905847
 20
59.853933
 30
0.0
 10
-163.611257
 20
59.354214
 30
0.0
 10
-163.304686
 20
58.861276
 30
0.0
 10
-162.986760
 20
58.375558
 30
0.0
 10
-162.658167
 20
57.897460
 30
0.0
 10
-162.319553
 20
57.427458
 30
0.0
 10
-161.971605
 20
56.965934
 30
0.0
 10
-161.615008
 20
56.513363
 30
0.0
 10
-161.250410
 20
56.070146
 30
0.0
 10
-160.878535
 20
55.636701
 30
0.0
 10
-160.470770
 20
55.180701
 30
0.0
 10
-160.171856
 20
54.808579
 30
0.0
 10
-159.901994
 20
54.525839
 30
0.0
 10
-159.606243
 20
54.259939
 30
0.0
 10
-159.285041
 20
54.007279
 30
0.0
 10
-158.939588
 20
53.764791
 30
0.0
 10
-158.576952
 20
53.532781
 30
0.0
 10
-157.775157
 20
53.065047
 30
0.0
 10
-156.938195
 20
52.595007
 30
0.0
 10
-156.504064
 20
52.341642
 30
0.0
 10
-156.068010
 20
52.071265
 30
0.0
 10
-155.633213
 20
51.777629
 30
0.0
 10
-155.204245
 20
51.454674
 30
0.0
  0
SPLINE
  5
2cd
100
AcDbEntity
  8
Layer_1
 62
7
100
AcDbSpline
 70
8
 71
3
 72
8
 73
4
 74
0
 40
0
 40
0
 40
0
 40
0
 40
1
 40
1
 40
1
 40
1
 10
-155.635061
 20
49.265105
 30
0.0
 10
-151.270020
 20
48.779501
 30
0.0
 10
-144.038468
 20
48.392348
 30
0.0
 10
-140.748000
 20
48.215145
 30
0.0
  0
SPLINE
  5
2ce
100
AcDbEntity
  8
Layer_1
 62
7
100
AcDbSpline
 70
8
 71
3
 72
8
 73
4
 74
0
 40
0
 40
0
 40
0
 40
0
 40
1
 40
1
 40
1
 40
1
 10
-140.748000
 20
48.215145
 30
0.0
 10
-135.743127
 20
47.727179
 30
0.0
 10
-130.802871
 20
48.690462
 30
0.0
 10
-125.951331
 20
49.795876
 30
0.0
  0
SPLINE
  5
2cf
100
AcDbEntity
  8
Layer_1
 62
7
100
AcDbSpline
 70
8
 71
3
 72
8
 73
4
 74
0
 40
0
 40
0
 40
0
 40
0
 40
1
 40
1
 40
1
 40
1
 10
-125.951331
 20
49.795876
 30
0.0
 10
-123.371390
 20
47.476500
 30
0.0
 10
-120.903367
 20
44.981636
 30
0.0
 10
-117.851157
 20
43.268851
 30
0.0
  0
SPLINE
  5
2d0
100
AcDbEntity
  8
Layer_1
 62
7
100
AcDbSpline
 70
8
 71
3
 72
8
 73
4
 74
0
 40
0
 40
0
 40
0
 40
0
 40
1
 40
1
 40
1
 40
1
 10
-117.851157
 20
43.268851
 30
0.0
 10
-111.518004
 20
39.644988
 30
0.0
 10
-104.489144
 20
36.734491
 30
0.0
 10
-97.128662
 20
36.339089
 30
0.0
  0
SPLINE
  5
2d1
100
AcDbEntity
  8
Layer_1
 62
7
100
AcDbSpline
 70
8
 71
3
 72
8
 73
4
 74
0
 40
0
 40
0
 40
0
 40
0
 40
1
 40
1
 40
1
 40
1
 10
-97.128662
 20
36.339089
 30
0.0
 10
-93.198057
 20
35.289644
 30
0.0
 10
-90.193110
 20
32.278487
 30
0.0
 10
-86.581439
 20
30.538002
 30
0.0
  0
SPLINE
  5
2d2
100
AcDbEntity
  8
Layer_1
 62
7
100
AcDbSpline
 70
8
 71
3
 72
8
 73
4
 74
0
 40
0
 40
0
 40
0
 40
0
 40
1
 40
1
 40
1
 40
1
 10
-86.581439
 20
30.538002
 30
0.0
 10
-84.470452
 20
33.567714
 30
0.0
 10
-84.497293
 20
37.841449
 30
0.0
 10
-81.681818
 20
40.411141
 30
0.0
  0
SPLINE
  5
2d3
100
AcDbEntity
  8
Layer_1
 62
7
100
AcDbSpline
 70
8
 71
3
 72
8
 73
4
 74
0
 40
0
 40
0
 40
0
 40
0
 40
1
 40
1
 40
1
 40
1
 10
-81.681818
 20
40.411141
 30
0.0
 10
-77.572713
 20
42.821576
 30
0.0
 10
-73.391086
 20
45.143599
 30
0.0
 10
-69.435449
 20
47.820105
 30
0.0
  0
SPLINE
  5
2d4
100
AcDbEntity
  8
Layer_1
 62
7
100
AcDbSpline
 70
8
 71
3
 72
8
 73
4
 74
0
 40
0
 40
0
 40
0
 40
0
 40
1
 40
1
 40
1
 40
1
 10
-69.435449
 20
47.820105
 30
0.0
 10
-65.024459
 20
50.862028
 30
0.0
 10
-59.539660
 20
50.841245
 30
0.0
 10
-54.404161
 20
51.173705
 30
0.0
  0
SPLINE
  5
2d5
100
AcDbEntity
  8
Layer_1
 62
7
100
AcDbSpline
 70
8
 71
3
 72
8
 73
4
 74
0
 40
0
 40
0
 40
0
 40
0
 40
1
 40
1
 40
1
 40
1
 10
-54.404161
 20
51.173705
 30
0.0
 10
-54.329713
 20
52.291845
 30
0.0
 10
-54.254999
 20
53.410023
 30
0.0
 10
-54.180266
 20
54.528163
 30
0.0
  0
SPLINE
  5
2d6
100
AcDbEntity
  8
Layer_1
 62
7
100
AcDbSpline
 70
8
 71
3
 72
8
 73
4
 74
0
 40
0
 40
0
 40
0
 40
0
 40
1
 40
1
 40
1
 40
1
 10
-54.180266
 20
54.528163
 30
0.0
 10
-53.743735
 20
59.798860
 30
0.0
 10
-53.735468
 20
65.159091
 30
0.0
 10
-52.677373
 20
70.334329
 30
0.0
  0
SPLINE
  5
2d7
100
AcDbEntity
  8
Layer_1
 62
7
100
AcDbSpline
 70
8
 71
3
 72
8
 73
4
 74
0
 40
0
 40
0
 40
0
 40
0
 40
1
 40
1
 40
1
 40
1
 10
-52.677373
 20
70.334329
 30
0.0
 10
-49.224256
 20
66.901424
 30
0.0
 10
-46.398170
 20
62.880826
 30
0.0
 10
-43.296582
 20
59.127499
 30
0.0
  0
SPLINE
  5
2d8
100
AcDbEntity
  8
Layer_1
 62
7
100
AcDbSpline
 70
8
 71
3
 72
8
 73
4
 74
0
 40
0
 40
0
 40
0
 40
0
 40
1
 40
1
 40
1
 40
1
 10
-43.296582
 20
59.127499
 30
0.0
 10
-33.760419
 20
57.324036
 30
0.0
 10
-24.337508
 20
54.826352
 30
0.0
 10
-15.341431
 20
51.149626
 30
0.0
  0
SPLINE
  5
2d9
100
AcDbEntity
  8
Layer_1
 62
7
100
AcDbSpline
 70
8
 71
3
 72
8
 73
4
 74
0
 40
0
 40
0
 40
0
 40
0
 40
1
 40
1
 40
1
 40
1
 10
-15.341431
 20
51.149626
 30
0.0
 10
-12.542833
 20
49.853236
 30
0.0
 10
-4.610756
 20
44.116614
 30
0.0
 10
-0.590349
 20
40.971154
 30
0.0
  0
LWPOLYLINE
  5
2da
100
AcDbEntity
  8
Layer_1
 62
7
100
AcDbPolyline
 90
2
 70
0
 10
-156.756153
 20
50.239970
 30
0.0
 10
-155.635061
 20
49.265105
 30
0.0
  0
LWPOLYLINE
  5
2db
100
AcDbEntity
  8
Layer_1
 62
7
100
AcDbPolyline
 90
2
 70
0
 10
-0.590349
 20
40.971154
 30
0.0
 10
-0.971159
 20
43.017981
 30
0.0
  0
SPLINE
  5
2dc
100
AcDbEntity
  8
Layer_1
 62
7
100
AcDbSpline
 70
8
 71
3
 72
8
 73
4
 74
0
 40
0
 40
0
 40
0
 40
0
 40
1
 40
1
 40
1
 40
1
 10
-44.642141
 20
55.502666
 30
0.0
 10
-46.016161
 20
55.766374
 30
0.0
 10
-47.437619
 20
55.436628
 30
0.0
 10
-48.555208
 20
54.594921
 30
0.0
  0
SPLINE
  5
2dd
100
AcDbEntity
  8
Layer_1
 62
7
100
AcDbSpline
 70
8
 71
3
 72
8
 73
4
 74
0
 40
0
 40
0
 40
0
 40
0
 40
1
 40
1
 40
1
 40
1
 10
-48.555208
 20
54.594921
 30
0.0
 10
-49.672797
 20
53.753214
 30
0.0
 10
-50.382242
 20
52.478082
 30
0.0
 10
-50.508207
 20
51.084666
 30
0.0
  0
SPLINE
  5
2de
100
AcDbEntity
  8
Layer_1
 62
7
100
AcDbSpline
 70
8
 71
3
 72
8
 73
4
 74
0
 40
0
 40
0
 40
0
 40
0
 40
1
 40
1
 40
1
 40
1
 10
-50.508207
 20
51.084666
 30
0.0
 10
-50.508207
 20
51.084666
 30
0.0
 10
-50.560366
 20
50.508060
 30
0.0
 10
-50.560366
 20
50.508060
 30
0.0
  0
SPLINE
  5
2df
100
AcDbEntity
  8
Layer_1
 62
7
100
AcDbSpline
 70
8
 71
3
 72
8
 73
4
 74
0
 40
0
 40
0
 40
0
 40
0
 40
1
 40
1
 40
1
 40
1
 10
-50.560366
 20
50.508060
 30
0.0
 10
-50.713099
 20
48.818193
 30
0.0
 10
-52.079031
 20
47.494276
 30
0.0
 10
-53.772844
 20
47.394395
 30
0.0
  0
LWPOLYLINE
  5
2e0
100
AcDbEntity
  8
Layer_1
 62
7
100
AcDbPolyline
 90
83
 70
0
 10
-21.712799
 20
-11.469076
 30
0.0
 10
-20.882009
 20
-10.668595
 30
0.0
 10
-20.071108
 20
-9.849445
 30
0.0
 10
-19.280818
 20
-9.012198
 30
0.0
 10
-18.511865
 20
-8.157043
 30
0.0
 10
-17.764953
 20
-7.284744
 30
0.0
 10
-17.040824
 20
-6.395680
 30
0.0
 10
-16.340146
 20
-5.490234
 30
0.0
 10
-15.663623
 20
-4.568976
 30
0.0
 10
-15.011923
 20
-3.632287
 30
0.0
 10
-14.385730
 20
-2.680549
 30
0.0
 10
-13.785713
 20
-1.714143
 30
0.0
 10
-13.212479
 20
-0.733830
 30
0.0
 10
-12.666716
 20
0.260123
 30
0.0
 10
-12.149013
 20
1.267316
 30
0.0
 10
-11.660018
 20
2.287329
 30
0.0
 10
-11.200342
 20
3.319762
 30
0.0
 10
-10.770593
 20
4.364274
 30
0.0
 10
-10.371343
 20
5.420463
 30
0.0
 10
-10.003221
 20
6.488006
 30
0.0
 10
-9.666798
 20
7.566579
 30
0.0
 10
-9.362684
 20
8.655877
 30
0.0
 10
-9.087354
 20
9.772207
 30
0.0
 10
-8.780287
 20
11.145636
 30
0.0
 10
-8.488155
 20
12.539277
 30
0.0
 10
-8.215683
 20
13.935775
 30
0.0
 10
-7.963747
 20
15.334617
 30
0.0
 10
-7.733280
 20
16.735306
 30
0.0
 10
-7.525178
 20
18.137348
 30
0.0
 10
-7.340316
 20
19.540209
 30
0.0
 10
-7.179573
 20
20.943394
 30
0.0
 10
-7.043860
 20
22.346426
 30
0.0
 10
-6.934018
 20
23.748830
 30
0.0
 10
-6.850922
 20
25.150091
 30
0.0
 10
-6.795391
 20
26.549790
 30
0.0
 10
-6.768321
 20
27.947431
 30
0.0
 10
-6.770512
 20
29.342596
 30
0.0
 10
-6.802821
 20
30.734865
 30
0.0
 10
-6.862695
 20
32.049601
 30
0.0
 10
-6.940628
 20
32.771996
 30
0.0
 10
-7.041993
 20
33.576916
 30
0.0
 10
-7.157951
 20
34.379206
 30
0.0
 10
-7.288767
 20
35.178144
 30
0.0
 10
-7.434690
 20
35.973006
 30
0.0
 10
-7.595929
 20
36.763104
 30
0.0
 10
-7.772751
 20
37.547736
 30
0.0
 10
-7.965366
 20
38.326214
 30
0.0
 10
-8.173983
 20
39.097872
 30
0.0
 10
-8.398830
 20
39.862063
 30
0.0
 10
-8.640098
 20
40.618100
 30
0.0
 10
-8.897959
 20
41.365394
 30
0.0
 10
-9.172641
 20
42.103296
 30
0.0
 10
-9.464334
 20
42.831234
 30
0.0
 10
-9.773192
 20
43.548638
 30
0.0
 10
-9.899455
 20
43.822006
 30
0.0
 10
-10.160383
 20
44.087944
 30
0.0
 10
-10.459106
 20
44.355691
 30
0.0
 10
-10.789871
 20
44.618943
 30
0.0
 10
-11.153650
 20
44.878461
 30
0.0
 10
-11.550443
 20
45.134570
 30
0.0
 10
-11.979411
 20
45.387535
 30
0.0
 10
-12.439011
 20
45.637718
 30
0.0
 10
-12.927262
 20
45.885749
 30
0.0
 10
-13.431897
 20
46.127818
 30
0.0
 10
-14.549903
 20
46.632871
 30
0.0
 10
-15.724488
 20
47.146021
 30
0.0
 10
-16.827940
 20
47.640673
 30
0.0
 10
-18.418596
 20
48.276010
 30
0.0
 10
-20.064821
 20
48.903803
 30
0.0
 10
-21.721371
 20
49.506792
 30
0.0
 10
-23.387884
 20
50.085627
 30
0.0
 10
-25.063922
 20
50.640953
 30
0.0
 10
-26.749066
 20
51.173420
 30
0.0
 10
-28.442878
 20
51.683693
 30
0.0
 10
-30.144938
 20
52.172383
 30
0.0
 10
-31.854809
 20
52.640174
 30
0.0
 10
-33.572033
 20
53.087697
 30
0.0
 10
-35.296172
 20
53.515598
 30
0.0
 10
-37.026789
 20
53.924544
 30
0.0
 10
-38.763406
 20
54.315184
 30
0.0
 10
-40.505604
 20
54.688183
 30
0.0
 10
-42.252890
 20
55.044189
 30
0.0
 10
-44.642141
 20
55.502666
 30
0.0
  0
SPLINE
  5
2e1
100
AcDbEntity
  8
Layer_1
 62
7
100
AcDbSpline
 70
8
 71
3
 72
8
 73
4
 74
0
 40
0
 40
0
 40
0
 40
0
 40
1
 40
1
 40
1
 40
1
 10
-83.600876
 20
28.140369
 30
0.0
 10
-84.563921
 20
26.694512
 30
0.0
 10
-86.457137
 20
26.199047
 30
0.0
 10
-88.004989
 20
26.987787
 30
0.0
  0
LWPOLYLINE
  5
2e2
100
AcDbEntity
  8
Layer_1
 62
7
100
AcDbPolyline
 90
46
 70
0
 10
-53.772844
 20
47.394395
 30
0.0
 10
-56.112679
 20
47.255921
 30
0.0
 10
-58.033281
 20
47.136382
 30
0.0
 10
-58.950100
 20
47.065230
 30
0.0
 10
-59.851051
 20
46.979696
 30
0.0
 10
-60.727446
 20
46.876502
 30
0.0
 10
-61.576981
 20
46.752296
 30
0.0
 10
-62.397541
 20
46.604029
 30
0.0
 10
-63.209566
 20
46.424121
 30
0.0
 10
-63.573078
 20
46.330910
 30
0.0
 10
-63.947906
 20
46.225144
 30
0.0
 10
-64.314580
 20
46.111587
 30
0.0
 10
-64.673101
 20
45.989934
 30
0.0
 10
-65.023564
 20
45.859898
 30
0.0
 10
-65.366102
 20
45.721195
 30
0.0
 10
-65.700963
 20
45.573463
 30
0.0
 10
-66.028394
 20
45.416319
 30
0.0
 10
-66.348758
 20
45.249308
 30
0.0
 10
-66.662455
 20
45.071895
 30
0.0
 10
-66.969941
 20
44.883472
 30
0.0
 10
-67.331491
 20
44.643708
 30
0.0
 10
-68.856119
 20
43.635087
 30
0.0
 10
-70.421115
 20
42.640944
 30
0.0
 10
-71.989482
 20
41.677414
 30
0.0
 10
-73.561145
 20
40.736649
 30
0.0
 10
-76.671610
 20
38.918136
 30
0.0
 10
-79.340287
 20
37.365542
 30
0.0
 10
-79.446014
 20
37.241526
 30
0.0
 10
-79.551742
 20
37.105128
 30
0.0
 10
-79.656517
 20
36.957110
 30
0.0
 10
-79.760720
 20
36.796137
 30
0.0
 10
-79.864543
 20
36.621639
 30
0.0
 10
-79.955030
 20
36.456666
 30
0.0
 10
-80.175934
 20
36.004857
 30
0.0
 10
-80.381426
 20
35.524645
 30
0.0
 10
-80.587185
 20
34.988159
 30
0.0
 10
-80.795326
 20
34.400714
 30
0.0
 10
-81.242067
 20
33.079177
 30
0.0
 10
-81.492422
 20
32.360287
 30
0.0
 10
-81.774286
 20
31.604783
 30
0.0
 10
-82.098384
 20
30.819085
 30
0.0
 10
-82.464296
 20
30.037426
 30
0.0
 10
-82.690591
 20
29.603448
 30
0.0
 10
-82.924297
 20
29.189015
 30
0.0
 10
-83.178786
 20
28.773268
 30
0.0
 10
-83.600876
 20
28.140369
 30
0.0
  0
SPLINE
  5
2e3
100
AcDbEntity
  8
Layer_1
 62
7
100
AcDbSpline
 70
8
 71
3
 72
8
 73
4
 74
0
 40
0
 40
0
 40
0
 40
0
 40
1
 40
1
 40
1
 40
1
 10
-124.547156
 20
43.402506
 30
0.0
 10
-124.547156
 20
43.402506
 30
0.0
 10
-125.299174
 20
44.060321
 30
0.0
 10
-125.299174
 20
44.060321
 30
0.0
  0
SPLINE
  5
2e4
100
AcDbEntity
  8
Layer_1
 62
7
100
AcDbSpline
 70
8
 71
3
 72
8
 73
4
 74
0
 40
0
 40
0
 40
0
 40
0
 40
1
 40
1
 40
1
 40
1
 10
-125.299174
 20
44.060321
 30
0.0
 10
-126.282607
 20
44.920547
 30
0.0
 10
-127.566105
 20
45.357345
 30
0.0
 10
-128.870115
 20
45.275578
 30
0.0
  0
LWPOLYLINE
  5
2e5
100
AcDbEntity
  8
Layer_1
 62
7
100
AcDbPolyline
 90
44
 70
0
 10
-88.004989
 20
26.987787
 30
0.0
 10
-89.039499
 20
27.513110
 30
0.0
 10
-89.809005
 20
27.940230
 30
0.0
 10
-90.543801
 20
28.377199
 30
0.0
 10
-91.254500
 20
28.822036
 30
0.0
 10
-92.562377
 20
29.677990
 30
0.0
 10
-93.812610
 20
30.503598
 30
0.0
 10
-94.397769
 20
30.878312
 30
0.0
 10
-94.969554
 20
31.229670
 30
0.0
 10
-95.525262
 20
31.551824
 30
0.0
 10
-96.065863
 20
31.842089
 30
0.0
 10
-96.592500
 20
32.098426
 30
0.0
 10
-97.106736
 20
32.319597
 30
0.0
 10
-97.639069
 20
32.515526
 30
0.0
 10
-97.790726
 20
32.563837
 30
0.0
 10
-98.102613
 20
32.583934
 30
0.0
 10
-98.868747
 20
32.649485
 30
0.0
 10
-99.631032
 20
32.730581
 30
0.0
 10
-100.389356
 20
32.826765
 30
0.0
 10
-101.143602
 20
32.937617
 30
0.0
 10
-101.893677
 20
33.062699
 30
0.0
 10
-102.639504
 20
33.201573
 30
0.0
 10
-103.380949
 20
33.353802
 30
0.0
 10
-104.117974
 20
33.518985
 30
0.0
 10
-104.850504
 20
33.696664
 30
0.0
 10
-105.578480
 20
33.886440
 30
0.0
 10
-106.316249
 20
34.091894
 30
0.0
 10
-107.733836
 20
34.523567
 30
0.0
 10
-109.147555
 20
35.001627
 30
0.0
 10
-110.541977
 20
35.518301
 30
0.0
 10
-111.916854
 20
36.070465
 30
0.0
 10
-113.271956
 20
36.655072
 30
0.0
 10
-114.607037
 20
37.269129
 30
0.0
 10
-115.921887
 20
37.909667
 30
0.0
 10
-117.216278
 20
38.573788
 30
0.0
 10
-118.489961
 20
39.258635
 30
0.0
 10
-119.743508
 20
39.961847
 30
0.0
 10
-120.390084
 20
40.339189
 30
0.0
 10
-121.042870
 20
40.748860
 30
0.0
 10
-121.674111
 20
41.171636
 30
0.0
 10
-122.284968
 20
41.605214
 30
0.0
 10
-122.876757
 20
42.047441
 30
0.0
 10
-123.463135
 20
42.505936
 30
0.0
 10
-124.547156
 20
43.402506
 30
0.0
  0
SPLINE
  5
2e6
100
AcDbEntity
  8
Layer_1
 62
7
100
AcDbSpline
 70
8
 71
3
 72
8
 73
4
 74
0
 40
0
 40
0
 40
0
 40
0
 40
1
 40
1
 40
1
 40
1
 10
-145.530540
 20
44.796775
 30
0.0
 10
-145.530540
 20
44.796775
 30
0.0
 10
-145.995399
 20
44.851068
 30
0.0
 10
-145.995399
 20
44.851068
 30
0.0
  0
SPLINE
  5
2e7
100
AcDbEntity
  8
Layer_1
 62
7
100
AcDbSpline
 70
8
 71
3
 72
8
 73
4
 74
0
 40
0
 40
0
 40
0
 40
0
 40
1
 40
1
 40
1
 40
1
 10
-145.995399
 20
44.851068
 30
0.0
 10
-148.158704
 20
45.103743
 30
0.0
 10
-150.233216
 20
43.913576
 30
0.0
 10
-151.106971
 20
41.918511
 30
0.0
  0
LWPOLYLINE
  5
2e8
100
AcDbEntity
  8
Layer_1
 62
7
100
AcDbPolyline
 90
17
 70
0
 10
-128.870115
 20
45.275578
 30
0.0
 10
-128.870344
 20
45.275521
 30
0.0
 10
-129.846828
 20
45.091879
 30
0.0
 10
-130.823636
 20
44.922334
 30
0.0
 10
-131.810121
 20
44.767267
 30
0.0
 10
-132.806360
 20
44.628964
 30
0.0
 10
-133.812390
 20
44.509901
 30
0.0
 10
-134.828155
 20
44.412403
 30
0.0
 10
-135.853655
 20
44.339042
 30
0.0
 10
-136.888718
 20
44.292274
 30
0.0
 10
-137.933153
 20
44.274672
 30
0.0
 10
-138.986656
 20
44.288788
 30
0.0
 10
-140.048751
 20
44.337251
 30
0.0
 10
-141.023349
 20
44.415013
 30
0.0
 10
-142.492618
 20
44.510720
 30
0.0
 10
-144.019056
 20
44.641365
 30
0.0
 10
-145.530540
 20
44.796775
 30
0.0
  0
LWPOLYLINE
  5
2e9
100
AcDbEntity
  8
Layer_1
 62
7
100
AcDbPolyline
 90
145
 70
0
 10
-151.106971
 20
41.918511
 30
0.0
 10
-151.144385
 20
41.807773
 30
0.0
 10
-151.550283
 20
40.540110
 30
0.0
 10
-151.932998
 20
39.270599
 30
0.0
 10
-152.291043
 20
37.999354
 30
0.0
 10
-152.622913
 20
36.726414
 30
0.0
 10
-152.927141
 20
35.451836
 30
0.0
 10
-153.202280
 20
34.175638
 30
0.0
 10
-153.446920
 20
32.897859
 30
0.0
 10
-153.659652
 20
31.618423
 30
0.0
 10
-153.839084
 20
30.337273
 30
0.0
 10
-153.983864
 20
29.054293
 30
0.0
 10
-154.093725
 20
27.756264
 30
0.0
 10
-154.180212
 20
26.368796
 30
0.0
 10
-154.249268
 20
24.962734
 30
0.0
 10
-154.298798
 20
23.557206
 30
0.0
 10
-154.327830
 20
22.152935
 30
0.0
 10
-154.335412
 20
20.750589
 30
0.0
 10
-154.320591
 20
19.350890
 30
0.0
 10
-154.282434
 20
17.954525
 30
0.0
 10
-154.220007
 20
16.562160
 30
0.0
 10
-154.132396
 20
15.174501
 30
0.0
 10
-154.018668
 20
13.792176
 30
0.0
 10
-153.877946
 20
12.415852
 30
0.0
 10
-153.709315
 20
11.046157
 30
0.0
 10
-153.511919
 20
9.683701
 30
0.0
 10
-153.284824
 20
8.329112
 30
0.0
 10
-153.027192
 20
6.982944
 30
0.0
 10
-152.752605
 20
5.712766
 30
0.0
 10
-152.538674
 20
4.950081
 30
0.0
 10
-152.287766
 20
4.109690
 30
0.0
 10
-152.022571
 20
3.273071
 30
0.0
 10
-151.743069
 20
2.440815
 30
0.0
 10
-151.449204
 20
1.613492
 30
0.0
 10
-151.140975
 20
0.791656
 30
0.0
 10
-150.818401
 20
-0.024084
 30
0.0
 10
-150.481426
 20
-0.833157
 30
0.0
 10
-150.130087
 20
-1.634971
 30
0.0
 10
-149.764346
 20
-2.428975
 30
0.0
 10
-149.384241
 20
-3.214788
 30
0.0
 10
-148.989735
 20
-3.991647
 30
0.0
 10
-148.580865
 20
-4.759171
 30
0.0
 10
-148.157631
 20
-5.516790
 30
0.0
 10
-147.720033
 20
-6.263931
 30
0.0
 10
-147.268091
 20
-7.000023
 30
0.0
 10
-146.801804
 20
-7.724685
 30
0.0
 10
-146.321192
 20
-8.437345
 30
0.0
 10
-145.826273
 20
-9.137433
 30
0.0
 10
-145.317028
 20
-9.824757
 30
0.0
 10
-144.793477
 20
-10.498555
 30
0.0
 10
-144.255619
 20
-11.158447
 30
0.0
 10
-143.703436
 20
-11.804052
 30
0.0
 10
-143.136946
 20
-12.434797
 30
0.0
 10
-142.556073
 20
-13.050493
 30
0.0
 10
-141.960837
 20
-13.650568
 30
0.0
 10
-141.351161
 20
-14.234641
 30
0.0
 10
-140.727007
 20
-14.802331
 30
0.0
 10
-140.088298
 20
-15.353257
 30
0.0
 10
-139.434941
 20
-15.886848
 30
0.0
 10
-138.766838
 20
-16.402912
 30
0.0
 10
-138.073361
 20
-16.908880
 30
0.0
 10
-137.091086
 20
-17.594299
 30
0.0
 10
-136.102143
 20
-18.246381
 30
0.0
 10
-135.097808
 20
-18.871983
 30
0.0
 10
-134.078442
 20
-19.472058
 30
0.0
 10
-133.044389
 20
-20.047177
 30
0.0
 10
-131.996030
 20
-20.597913
 30
0.0
 10
-130.933764
 20
-21.125026
 30
0.0
 10
-129.858029
 20
-21.629089
 30
0.0
 10
-128.769227
 20
-22.110673
 30
0.0
 10
-127.667851
 20
-22.570350
 30
0.0
 10
-126.554359
 20
-23.008881
 30
0.0
 10
-125.429247
 20
-23.426838
 30
0.0
 10
-124.293048
 20
-23.824792
 30
0.0
 10
-123.146238
 20
-24.203316
 30
0.0
 10
-121.989408
 20
-24.562980
 30
0.0
 10
-120.823071
 20
-24.904356
 30
0.0
 10
-119.647801
 20
-25.228206
 30
0.0
 10
-118.464167
 20
-25.535101
 30
0.0
 10
-117.272761
 20
-25.825614
 30
0.0
 10
-116.074154
 20
-26.100315
 30
0.0
 10
-114.868937
 20
-26.359966
 30
0.0
 10
-113.657700
 20
-26.605140
 30
0.0
 10
-112.441052
 20
-26.836597
 30
0.0
 10
-111.219605
 20
-27.054910
 30
0.0
 10
-109.993928
 20
-27.260650
 30
0.0
 10
-108.772727
 20
-27.453436
 30
0.0
 10
-106.296494
 20
-27.810052
 30
0.0
 10
-103.822337
 20
-28.126092
 30
0.0
 10
-101.358505
 20
-28.407079
 30
0.0
 10
-98.721090
 20
-28.660254
 30
0.0
 10
-96.069235
 20
-28.878186
 30
0.0
 10
-94.757966
 20
-28.969626
 30
0.0
 10
-93.441687
 20
-29.049636
 30
0.0
 10
-92.127771
 20
-29.116311
 30
0.0
 10
-90.816273
 20
-29.169651
 30
0.0
 10
-89.507348
 20
-29.207751
 30
0.0
 10
-88.201051
 20
-29.230611
 30
0.0
 10
-86.897479
 20
-29.235792
 30
0.0
 10
-85.596745
 20
-29.223257
 30
0.0
 10
-84.298907
 20
-29.192777
 30
0.0
 10
-83.004040
 20
-29.141342
 30
0.0
 10
-81.712183
 20
-29.070857
 30
0.0
 10
-80.355080
 20
-28.973702
 30
0.0
 10
-77.247035
 20
-28.809872
 30
0.0
 10
-74.200940
 20
-28.634612
 30
0.0
 10
-71.355613
 20
-28.433063
 30
0.0
 10
-68.500913
 20
-28.201606
 30
0.0
 10
-65.643032
 20
-27.933763
 30
0.0
 10
-64.227522
 20
-27.785173
 30
0.0
 10
-62.808201
 20
-27.625153
 30
0.0
 10
-61.392196
 20
-27.451798
 30
0.0
 10
-59.980000
 20
-27.267013
 30
0.0
 10
-58.572148
 20
-27.067559
 30
0.0
 10
-57.169211
 20
-26.853437
 30
0.0
 10
-55.771722
 20
-26.624075
 30
0.0
 10
-54.380177
 20
-26.378521
 30
0.0
 10
-52.995146
 20
-26.116012
 30
0.0
 10
-51.617127
 20
-25.835786
 30
0.0
 10
-50.246651
 20
-25.537082
 30
0.0
 10
-48.884233
 20
-25.219138
 30
0.0
 10
-47.530368
 20
-24.881381
 30
0.0
 10
-46.185572
 20
-24.522860
 30
0.0
 10
-44.850319
 20
-24.142813
 30
0.0
 10
-43.525068
 20
-23.740667
 30
0.0
 10
-42.210313
 20
-23.315471
 30
0.0
 10
-40.906474
 20
-22.866653
 30
0.0
 10
-39.614026
 20
-22.393451
 30
0.0
 10
-38.333333
 20
-21.895103
 30
0.0
 10
-37.064851
 20
-21.370847
 30
0.0
 10
-35.808941
 20
-20.819921
 30
0.0
 10
-34.565967
 20
-20.241563
 30
0.0
 10
-33.336270
 20
-19.635011
 30
0.0
 10
-32.120233
 20
-18.999503
 30
0.0
 10
-30.931074
 20
-18.341326
 30
0.0
 10
-29.959182
 20
-17.761634
 30
0.0
 10
-28.983822
 20
-17.149558
 30
0.0
 10
-28.021377
 20
-16.514812
 30
0.0
 10
-27.072687
 20
-15.857777
 30
0.0
 10
-26.138533
 20
-15.178835
 30
0.0
 10
-25.219675
 20
-14.478557
 30
0.0
 10
-24.316895
 20
-13.757324
 30
0.0
 10
-23.430994
 20
-13.015517
 30
0.0
 10
-22.562695
 20
-12.253708
 30
0.0
 10
-21.712798
 20
-11.472277
 30
0.0
  0
SPLINE
  5
2ea
100
AcDbEntity
  8
Layer_1
 62
7
100
AcDbSpline
 70
8
 71
3
 72
8
 73
4
 74
0
 40
0
 40
0
 40
0
 40
0
 40
1
 40
1
 40
1
 40
1
 10
-146.271643
 20
42.485896
 30
0.0
 10
-147.362086
 20
42.613257
 30
0.0
 10
-148.413143
 20
42.034376
 30
0.0
 10
-148.888370
 20
41.044706
 30
0.0
  0
LWPOLYLINE
  5
2eb
100
AcDbEntity
  8
Layer_1
 62
7
100
AcDbPolyline
 90
10
 70
0
 10
-135.714933
 20
41.961621
 30
0.0
 10
-136.814899
 20
41.911938
 30
0.0
 10
-137.929057
 20
41.893155
 30
0.0
 10
-139.056893
 20
41.908262
 30
0.0
 10
-140.197741
 20
41.960325
 30
0.0
 10
-141.195427
 20
42.039916
 30
0.0
 10
-142.671555
 20
42.136081
 30
0.0
 10
-144.242379
 20
42.270516
 30
0.0
 10
-145.790459
 20
42.429698
 30
0.0
 10
-146.271643
 20
42.485896
 30
0.0
  0
SPLINE
  5
2ec
100
AcDbEntity
  8
Layer_1
 62
7
100
AcDbSpline
 70
8
 71
3
 72
8
 73
4
 74
0
 40
0
 40
0
 40
0
 40
0
 40
1
 40
1
 40
1
 40
1
 10
-45.090939
 20
53.164087
 30
0.0
 10
-45.804330
 20
53.301004
 30
0.0
 10
-46.542350
 20
53.129802
 30
0.0
 10
-47.122604
 20
52.692792
 30
0.0
  0
SPLINE
  5
2ed
100
AcDbEntity
  8
Layer_1
 62
7
100
AcDbSpline
 70
8
 71
3
 72
8
 73
4
 74
0
 40
0
 40
0
 40
0
 40
0
 40
1
 40
1
 40
1
 40
1
 10
-47.122604
 20
52.692792
 30
0.0
 10
-47.702857
 20
52.255781
 30
0.0
 10
-48.071206
 20
51.593737
 30
0.0
 10
-48.136615
 20
50.870277
 30
0.0
  0
LWPOLYLINE
  5
2ee
100
AcDbEntity
  8
Layer_1
 62
7
100
AcDbPolyline
 90
224
 70
0
 10
-148.888370
 20
41.044706
 30
0.0
 10
-149.276247
 20
39.833317
 30
0.0
 10
-149.646826
 20
38.604096
 30
0.0
 10
-149.992679
 20
37.376152
 30
0.0
 10
-150.312452
 20
36.149561
 30
0.0
 10
-150.604889
 20
34.924417
 30
0.0
 10
-150.868693
 20
33.700760
 30
0.0
 10
-151.102685
 20
32.478626
 30
0.0
 10
-151.305643
 20
31.257940
 30
0.0
 10
-151.476446
 20
30.038569
 30
0.0
 10
-151.613910
 20
28.820321
 30
0.0
 10
-151.718742
 20
27.581766
 30
0.0
 10
-151.802601
 20
26.236322
 30
0.0
 10
-151.870076
 20
24.862379
 30
0.0
 10
-151.918425
 20
23.490665
 30
0.0
 10
-151.946714
 20
22.121884
 30
0.0
 10
-151.954105
 20
20.756761
 30
0.0
 10
-151.939684
 20
19.396038
 30
0.0
 10
-151.902651
 20
18.040383
 30
0.0
 10
-151.842129
 20
16.690538
 30
0.0
 10
-151.757300
 20
15.347151
 30
0.0
 10
-151.647362
 20
14.010908
 30
0.0
 10
-151.511536
 20
12.682457
 30
0.0
 10
-151.349020
 20
11.362406
 30
0.0
 10
-151.159053
 20
10.051347
 30
0.0
 10
-150.940874
 20
8.749832
 30
0.0
 10
-150.693719
 20
7.458413
 30
0.0
 10
-150.440354
 20
6.286419
 30
0.0
 10
-150.251264
 20
5.612278
 30
0.0
 10
-150.011767
 20
4.810120
 30
0.0
 10
-149.758783
 20
4.011963
 30
0.0
 10
-149.492274
 20
3.218455
 30
0.0
 10
-149.212277
 20
2.430147
 30
0.0
 10
-148.918812
 20
1.647668
 30
0.0
 10
-148.611916
 20
0.871590
 30
0.0
 10
-148.291590
 20
0.102484
 30
0.0
 10
-147.957910
 20
-0.659078
 30
0.0
 10
-147.610915
 20
-1.412505
 30
0.0
 10
-147.250622
 20
-2.157360
 30
0.0
 10
-146.877109
 20
-2.892881
 30
0.0
 10
-146.490432
 20
-3.618686
 30
0.0
 10
-146.090630
 20
-4.334204
 30
0.0
 10
-145.677778
 20
-5.039054
 30
0.0
 10
-145.251953
 20
-5.732664
 30
0.0
 10
-144.813194
 20
-6.414464
 30
0.0
 10
-144.361575
 20
-7.084071
 30
0.0
 10
-143.897155
 20
-7.741106
 30
0.0
 10
-143.419991
 20
-8.384996
 30
0.0
 10
-142.930139
 20
-9.015360
 30
0.0
 10
-142.427638
 20
-9.631818
 30
0.0
 10
-141.912526
 20
-10.233989
 30
0.0
 10
-141.384822
 20
-10.821681
 30
0.0
 10
-140.844545
 20
-11.394324
 30
0.0
 10
-140.291695
 20
-11.951537
 30
0.0
 10
-139.726234
 20
-12.493128
 30
0.0
 10
-139.148105
 20
-13.018908
 30
0.0
 10
-138.557269
 20
-13.528496
 30
0.0
 10
-137.953613
 20
-14.021510
 30
0.0
 10
-137.337021
 20
-14.497760
 30
0.0
 10
-136.690274
 20
-14.969628
 30
0.0
 10
-135.754214
 20
-15.622662
 30
0.0
 10
-134.817011
 20
-16.240454
 30
0.0
 10
-133.864073
 20
-16.834052
 30
0.0
 10
-132.895590
 20
-17.404028
 30
0.0
 10
-131.911791
 20
-17.951144
 30
0.0
 10
-130.912923
 20
-18.475971
 30
0.0
 10
-129.899273
 20
-18.978891
 30
0.0
 10
-128.871125
 20
-19.460666
 30
0.0
 10
-127.828842
 20
-19.921676
 30
0.0
 10
-126.772806
 20
-20.362493
 30
0.0
 10
-125.703415
 20
-20.783688
 30
0.0
 10
-124.621108
 20
-21.185643
 30
0.0
 10
-123.526324
 20
-21.569120
 30
0.0
 10
-122.419576
 20
-21.934308
 30
0.0
 10
-121.301360
 20
-22.281971
 30
0.0
 10
-120.172209
 20
-22.612488
 30
0.0
 10
-119.032657
 20
-22.926432
 30
0.0
 10
-117.883256
 20
-23.224374
 30
0.0
 10
-116.724597
 20
-23.506886
 30
0.0
 10
-115.557251
 20
-23.774538
 30
0.0
 10
-114.381809
 20
-24.027903
 30
0.0
 10
-113.198880
 20
-24.267362
 30
0.0
 10
-112.009056
 20
-24.493676
 30
0.0
 10
-110.812925
 20
-24.707417
 30
0.0
 10
-109.611137
 20
-24.909156
 30
0.0
 10
-108.417426
 20
-25.097751
 30
0.0
 10
-105.975921
 20
-25.449224
 30
0.0
 10
-103.536568
 20
-25.760882
 30
0.0
 10
-101.109827
 20
-26.037678
 30
0.0
 10
-98.509845
 20
-26.287233
 30
0.0
 10
-95.888717
 20
-26.502498
 30
0.0
 10
-94.602690
 20
-26.592033
 30
0.0
 10
-93.308928
 20
-26.670138
 30
0.0
 10
-92.019319
 20
-26.734908
 30
0.0
 10
-90.733920
 20
-26.786343
 30
0.0
 10
-89.452884
 20
-26.822538
 30
0.0
 10
-88.176286
 20
-26.843493
 30
0.0
 10
-86.904223
 20
-26.848541
 30
0.0
 10
-85.636750
 20
-26.836349
 30
0.0
 10
-84.373944
 20
-26.805869
 30
0.0
 10
-83.115863
 20
-26.756339
 30
0.0
 10
-81.862526
 20
-26.687759
 30
0.0
 10
-80.502946
 20
-26.590604
 30
0.0
 10
-77.378442
 20
-26.424869
 30
0.0
 10
-74.353625
 20
-26.249609
 30
0.0
 10
-71.535940
 20
-26.049965
 30
0.0
 10
-68.708234
 20
-25.820794
 30
0.0
 10
-65.878280
 20
-25.555427
 30
0.0
 10
-64.485402
 20
-25.408742
 30
0.0
 10
-63.086084
 20
-25.250627
 30
0.0
 10
-61.691509
 20
-25.081082
 30
0.0
 10
-60.302212
 20
-24.898202
 30
0.0
 10
-58.918763
 20
-24.702178
 30
0.0
 10
-57.541696
 20
-24.492056
 30
0.0
 10
-56.171524
 20
-24.267076
 30
0.0
 10
-54.808821
 20
-24.026665
 30
0.0
 10
-53.454099
 20
-23.769871
 30
0.0
 10
-52.107893
 20
-23.496122
 30
0.0
 10
-50.770697
 20
-23.204657
 30
0.0
 10
-49.443026
 20
-22.894904
 30
0.0
 10
-48.125376
 20
-22.566101
 30
0.0
 10
-46.818222
 20
-22.217677
 30
0.0
 10
-45.522022
 20
-21.848869
 30
0.0
 10
-44.237214
 20
-21.458915
 30
0.0
 10
-42.964217
 20
-21.047245
 30
0.0
 10
-41.703449
 20
-20.613286
 30
0.0
 10
-40.455274
 20
-20.156276
 30
0.0
 10
-39.220053
 20
-19.675645
 30
0.0
 10
-37.998091
 20
-19.170629
 30
0.0
 10
-36.789711
 20
-18.640468
 30
0.0
 10
-35.595162
 20
-18.084589
 30
0.0
 10
-34.414691
 20
-17.502230
 30
0.0
 10
-33.248507
 20
-16.892630
 30
0.0
 10
-32.117870
 20
-16.266838
 30
0.0
 10
-31.202118
 20
-15.720674
 30
0.0
 10
-30.272440
 20
-15.137173
 30
0.0
 10
-29.355049
 20
-14.532145
 30
0.0
 10
-28.450764
 20
-13.905781
 30
0.0
 10
-27.560406
 20
-13.258652
 30
0.0
 10
-26.684753
 20
-12.591331
 30
0.0
 10
-25.824608
 20
-11.904197
 30
0.0
 10
-24.980750
 20
-11.197633
 30
0.0
 10
-24.153942
 20
-10.472209
 30
0.0
 10
-23.344945
 20
-9.728497
 30
0.0
 10
-22.554523
 20
-8.966878
 30
0.0
 10
-21.783360
 20
-8.187923
 30
0.0
 10
-21.032237
 20
-7.392014
 30
0.0
 10
-20.301822
 20
-6.579722
 30
0.0
 10
-19.592819
 20
-5.751619
 30
0.0
 10
-18.905914
 20
-4.908275
 30
0.0
 10
-18.241755
 20
-4.050073
 30
0.0
 10
-17.600989
 20
-3.177392
 30
0.0
 10
-16.984265
 20
-2.290805
 30
0.0
 10
-16.392172
 20
-1.390883
 30
0.0
 10
-15.825339
 20
-0.478198
 30
0.0
 10
-15.284319
 20
0.447042
 30
0.0
 10
-14.769683
 20
1.377672
 30
0.0
 10
-14.281984
 20
2.326496
 30
0.0
 10
-13.821774
 20
3.286501
 30
0.0
 10
-13.389549
 20
4.257270
 30
0.0
 10
-12.985822
 20
5.238479
 30
0.0
 10
-12.611128
 20
6.229764
 30
0.0
 10
-12.265923
 20
7.230842
 30
0.0
 10
-11.950702
 20
8.241425
 30
0.0
 10
-11.665962
 20
9.261267
 30
0.0
 10
-11.405567
 20
10.317151
 30
0.0
 10
-11.107625
 20
11.649718
 30
0.0
 10
-10.822161
 20
13.011564
 30
0.0
 10
-10.556166
 20
14.374839
 30
0.0
 10
-10.310478
 20
15.738991
 30
0.0
 10
-10.085974
 20
17.103447
 30
0.0
 10
-9.883472
 20
18.467732
 30
0.0
 10
-9.703793
 20
19.831274
 30
0.0
 10
-9.547754
 20
21.193539
 30
0.0
 10
-9.416138
 20
22.554052
 30
0.0
 10
-9.309763
 20
23.912298
 30
0.0
 10
-9.229372
 20
25.267782
 30
0.0
 10
-9.175727
 20
26.620046
 30
0.0
 10
-9.149609
 20
27.968615
 30
0.0
 10
-9.151724
 20
29.313087
 30
0.0
 10
-9.182813
 20
30.653064
 30
0.0
 10
-9.238135
 20
31.867559
 30
0.0
 10
-9.305876
 20
32.495504
 30
0.0
 10
-9.401869
 20
33.257809
 30
0.0
 10
-9.511521
 20
34.016475
 30
0.0
 10
-9.635022
 20
34.770741
 30
0.0
 10
-9.772544
 20
35.519901
 30
0.0
 10
-9.924258
 20
36.263213
 30
0.0
 10
-10.090279
 20
36.999972
 30
0.0
 10
-10.270759
 20
37.729454
 30
0.0
 10
-10.465850
 20
38.450991
 30
0.0
 10
-10.675610
 20
39.163957
 30
0.0
 10
-10.900171
 20
39.867664
 30
0.0
 10
-11.139610
 20
40.561522
 30
0.0
 10
-11.394023
 20
41.244960
 30
0.0
 10
-11.663466
 20
41.917425
 30
0.0
 10
-11.887799
 20
42.438461
 30
0.0
 10
-11.996537
 20
42.535940
 30
0.0
 10
-12.223765
 20
42.716782
 30
0.0
 10
-12.491513
 20
42.907796
 30
0.0
 10
-12.801418
 20
43.107821
 30
0.0
 10
-13.153767
 20
43.315599
 30
0.0
 10
-13.547683
 20
43.530026
 30
0.0
 10
-13.981604
 20
43.750454
 30
0.0
 10
-14.437165
 20
43.968976
 30
0.0
 10
-15.516767
 20
44.456694
 30
0.0
 10
-16.688190
 20
44.968473
 30
0.0
 10
-17.757009
 20
45.447599
 30
0.0
 10
-19.284533
 20
46.057714
 30
0.0
 10
-20.896354
 20
46.672381
 30
0.0
 10
-22.519318
 20
47.263140
 30
0.0
 10
-24.153046
 20
47.830583
 30
0.0
 10
-25.797176
 20
48.375337
 30
0.0
 10
-27.451268
 20
48.898011
 30
0.0
 10
-29.114924
 20
49.399179
 30
0.0
 10
-30.787742
 20
49.879487
 30
0.0
 10
-32.469267
 20
50.339525
 30
0.0
 10
-34.159097
 20
50.779904
 30
0.0
 10
-35.856795
 20
51.201252
 30
0.0
 10
-37.561903
 20
51.604159
 30
0.0
 10
-39.273965
 20
51.989293
 30
0.0
 10
-40.992561
 20
52.357225
 30
0.0
 10
-42.714985
 20
52.708164
 30
0.0
 10
-45.090939
 20
53.164087
 30
0.0
  0
SPLINE
  5
2ef
100
AcDbEntity
  8
Layer_1
 62
7
100
AcDbSpline
 70
8
 71
3
 72
8
 73
4
 74
0
 40
0
 40
0
 40
0
 40
0
 40
1
 40
1
 40
1
 40
1
 10
-48.136634
 20
50.870125
 30
0.0
 10
-48.136634
 20
50.870125
 30
0.0
 10
-48.188831
 20
50.293614
 30
0.0
 10
-48.188831
 20
50.293614
 30
0.0
  0
SPLINE
  5
2f0
100
AcDbEntity
  8
Layer_1
 62
7
100
AcDbSpline
 70
8
 71
3
 72
8
 73
4
 74
0
 40
0
 40
0
 40
0
 40
0
 40
1
 40
1
 40
1
 40
1
 10
-48.188831
 20
50.293614
 30
0.0
 10
-48.447693
 20
47.430106
 30
0.0
 10
-50.762235
 20
45.186688
 30
0.0
 10
-53.632426
 20
45.017298
 30
0.0
  0
LWPOLYLINE
  5
2f1
100
AcDbEntity
  8
Layer_1
 62
7
100
AcDbPolyline
 90
2
 70
0
 10
-48.136615
 20
50.870277
 30
0.0
 10
-48.136634
 20
50.870125
 30
0.0
  0
SPLINE
  5
2f2
100
AcDbEntity
  8
Layer_1
 62
7
100
AcDbSpline
 70
8
 71
3
 72
8
 73
4
 74
0
 40
0
 40
0
 40
0
 40
0
 40
1
 40
1
 40
1
 40
1
 10
-81.619391
 20
26.819728
 30
0.0
 10
-83.252016
 20
24.369249
 30
0.0
 10
-86.460689
 20
23.529236
 30
0.0
 10
-89.084628
 20
24.865370
 30
0.0
  0
LWPOLYLINE
  5
2f3
100
AcDbEntity
  8
Layer_1
 62
7
100
AcDbPolyline
 90
43
 70
0
 10
-53.632426
 20
45.017298
 30
0.0
 10
-55.968375
 20
44.878995
 30
0.0
 10
-57.867184
 20
44.760885
 30
0.0
 10
-58.745408
 20
44.692686
 30
0.0
 10
-59.599286
 20
44.611533
 30
0.0
 10
-60.415922
 20
44.515330
 30
0.0
 10
-61.192914
 20
44.401792
 30
0.0
 10
-61.928130
 20
44.269014
 30
0.0
 10
-62.656106
 20
44.107660
 30
0.0
 10
-62.953896
 20
44.031270
 30
0.0
 10
-63.272240
 20
43.941354
 30
0.0
 10
-63.579612
 20
43.846104
 30
0.0
 10
-63.876221
 20
43.745520
 30
0.0
 10
-64.162371
 20
43.639564
 30
0.0
 10
-64.438424
 20
43.527778
 30
0.0
 10
-64.704953
 20
43.410183
 30
0.0
 10
-64.962528
 20
43.286567
 30
0.0
 10
-65.211911
 20
43.156551
 30
0.0
 10
-65.453904
 20
43.019696
 30
0.0
 10
-65.689400
 20
42.875392
 30
0.0
 10
-66.016507
 20
42.658451
 30
0.0
 10
-67.560681
 20
41.636933
 30
0.0
 10
-69.159395
 20
40.621358
 30
0.0
 10
-70.754699
 20
39.641274
 30
0.0
 10
-72.348689
 20
38.687154
 30
0.0
 10
-75.471937
 20
36.861155
 30
0.0
 10
-77.733743
 20
35.545276
 30
0.0
 10
-77.736982
 20
35.540266
 30
0.0
 10
-77.796284
 20
35.440520
 30
0.0
 10
-77.840214
 20
35.360339
 30
0.0
 10
-78.010502
 20
35.012409
 30
0.0
 10
-78.174351
 20
34.629542
 30
0.0
 10
-78.352887
 20
34.164018
 30
0.0
 10
-78.545025
 20
33.621740
 30
0.0
 10
-78.989710
 20
32.306281
 30
0.0
 10
-79.252257
 20
31.552434
 30
0.0
 10
-79.557457
 20
30.734351
 30
0.0
 10
-79.918207
 20
29.859765
 30
0.0
 10
-80.329287
 20
28.981617
 30
0.0
 10
-80.597225
 20
28.467801
 30
0.0
 10
-80.871050
 20
27.982197
 30
0.0
 10
-81.172020
 20
27.490555
 30
0.0
 10
-81.619391
 20
26.819728
 30
0.0
  0
SPLINE
  5
2f4
100
AcDbEntity
  8
Layer_1
 62
7
100
AcDbSpline
 70
8
 71
3
 72
8
 73
4
 74
0
 40
0
 40
0
 40
0
 40
0
 40
1
 40
1
 40
1
 40
1
 10
-126.866951
 20
42.267983
 30
0.0
 10
-127.345525
 20
42.686604
 30
0.0
 10
-127.962208
 20
42.913102
 30
0.0
 10
-128.597967
 20
42.903757
 30
0.0
  0
LWPOLYLINE
  5
2f5
100
AcDbEntity
  8
Layer_1
 62
7
100
AcDbPolyline
 90
43
 70
0
 10
-89.084628
 20
24.865370
 30
0.0
 10
-90.156762
 20
25.409781
 30
0.0
 10
-90.995667
 20
25.875401
 30
0.0
 10
-91.784223
 20
26.344355
 30
0.0
 10
-92.538336
 20
26.816375
 30
0.0
 10
-93.870465
 20
27.688199
 30
0.0
 10
-95.110848
 20
28.507292
 30
0.0
 10
-95.663298
 20
28.861069
 30
0.0
 10
-96.190259
 20
29.184881
 30
0.0
 10
-96.685959
 20
29.472250
 30
0.0
 10
-97.150570
 20
29.721710
 30
0.0
 10
-97.584567
 20
29.932955
 30
0.0
 10
-97.989018
 20
30.106920
 30
0.0
 10
-98.262842
 20
30.207695
 30
0.0
 10
-99.096223
 20
30.278999
 30
0.0
 10
-99.906819
 20
30.365238
 30
0.0
 10
-100.712329
 20
30.467403
 30
0.0
 10
-101.512601
 20
30.585018
 30
0.0
 10
-102.307519
 20
30.717568
 30
0.0
 10
-103.096951
 20
30.864577
 30
0.0
 10
-103.880821
 20
31.025511
 30
0.0
 10
-104.659051
 20
31.199914
 30
0.0
 10
-105.431548
 20
31.387290
 30
0.0
 10
-106.198272
 20
31.587181
 30
0.0
 10
-106.982599
 20
31.805589
 30
0.0
 10
-108.462250
 20
32.256160
 30
0.0
 10
-109.942816
 20
32.756832
 30
0.0
 10
-111.399532
 20
33.296595
 30
0.0
 10
-112.832358
 20
33.872038
 30
0.0
 10
-114.241220
 20
34.479848
 30
0.0
 10
-115.626098
 20
35.116784
 30
0.0
 10
-116.986973
 20
35.779724
 30
0.0
 10
-118.323769
 20
36.465620
 30
0.0
 10
-119.636428
 20
37.171441
 30
0.0
 10
-120.926208
 20
37.894979
 30
0.0
 10
-121.623400
 20
38.301849
 30
0.0
 10
-122.338613
 20
38.750686
 30
0.0
 10
-123.026052
 20
39.211106
 30
0.0
 10
-123.687048
 20
39.680269
 30
0.0
 10
-124.323033
 20
40.155528
 30
0.0
 10
-124.955626
 20
40.650162
 30
0.0
 10
-126.090168
 20
41.588526
 30
0.0
 10
-126.866951
 20
42.267983
 30
0.0
  0
SPLINE
  5
2f6
100
AcDbEntity
  8
Layer_1
 62
2
100
AcDbSpline
 70
8
 71
3
 72
8
 73
4
 74
0
 40
0
 40
0
 40
0
 40
0
 40
1
 40
1
 40
1
 40
1
 10
-154.797642
 20
51.008999
 30
0.0
 10
-156.931623
 20
46.409910
 30
0.0
 10
-158.650637
 20
39.436543
 30
0.0
 10
-159.581935
 20
34.445367
 30
0.0
  0
SPLINE
  5
2f7
100
AcDbEntity
  8
Layer_1
 62
2
100
AcDbSpline
 70
8
 71
3
 72
8
 73
4
 74
0
 40
0
 40
0
 40
0
 40
0
 40
1
 40
1
 40
1
 40
1
 10
-159.581935
 20
34.445367
 30
0.0
 10
-161.975205
 20
23.399282
 30
0.0
 10
-161.339183
 20
11.799108
 30
0.0
 10
-158.070755
 20
0.998368
 30
0.0
  0
SPLINE
  5
2f8
100
AcDbEntity
  8
Layer_1
 62
2
100
AcDbSpline
 70
8
 71
3
 72
8
 73
4
 74
0
 40
0
 40
0
 40
0
 40
0
 40
1
 40
1
 40
1
 40
1
 10
-158.070755
 20
0.998368
 30
0.0
 10
-156.002478
 20
-6.467708
 30
0.0
 10
-151.819365
 20
-13.287818
 30
0.0
 10
-146.048700
 20
-18.459950
 30
0.0
  0
SPLINE
  5
2f9
100
AcDbEntity
  8
Layer_1
 62
2
100
AcDbSpline
 70
8
 71
3
 72
8
 73
4
 74
0
 40
0
 40
0
 40
0
 40
0
 40
1
 40
1
 40
1
 40
1
 10
-146.048700
 20
-18.459950
 30
0.0
 10
-135.170217
 20
-28.370789
 30
0.0
 10
-120.455826
 20
-32.624578
 30
0.0
 10
-106.180556
 20
-34.618046
 30
0.0
  0
LWPOLYLINE
  5
2fa
100
AcDbEntity
  8
Layer_1
 62
7
100
AcDbPolyline
 90
8
 70
0
 10
-128.597967
 20
42.903757
 30
0.0
 10
-129.423023
 20
42.748576
 30
0.0
 10
-130.434978
 20
42.572859
 30
0.0
 10
-131.461525
 20
42.411467
 30
0.0
 10
-132.502741
 20
42.266973
 30
0.0
 10
-133.558720
 20
42.141986
 30
0.0
 10
-134.629483
 20
42.039269
 30
0.0
 10
-135.714933
 20
41.961621
 30
0.0
  0
SPLINE
  5
2fb
100
AcDbEntity
  8
Layer_1
 62
2
100
AcDbSpline
 70
8
 71
3
 72
8
 73
4
 74
0
 40
0
 40
0
 40
0
 40
0
 40
1
 40
1
 40
1
 40
1
 10
-106.180708
 20
-34.618046
 30
0.0
 10
-104.647945
 20
-34.821690
 30
0.0
 10
-103.095999
 20
-34.892366
 30
0.0
 10
-101.550815
 20
-34.963803
 30
0.0
  0
SPLINE
  5
2fc
100
AcDbEntity
  8
Layer_1
 62
2
100
AcDbSpline
 70
8
 71
3
 72
8
 73
4
 74
0
 40
0
 40
0
 40
0
 40
0
 40
1
 40
1
 40
1
 40
1
 10
-101.550815
 20
-34.963803
 30
0.0
 10
-88.174515
 20
-35.333945
 30
0.0
 10
-74.768382
 20
-35.080008
 30
0.0
 10
-61.422524
 20
-34.089789
 30
0.0
  0
SPLINE
  5
2fd
100
AcDbEntity
  8
Layer_1
 62
2
100
AcDbSpline
 70
8
 71
3
 72
8
 73
4
 74
0
 40
0
 40
0
 40
0
 40
0
 40
1
 40
1
 40
1
 40
1
 10
-61.422524
 20
-34.089789
 30
0.0
 10
-54.020227
 20
-33.264639
 30
0.0
 10
-46.744632
 20
-31.424008
 30
0.0
 10
-39.649536
 20
-29.187348
 30
0.0
  0
SPLINE
  5
2fe
100
AcDbEntity
  8
Layer_1
 62
2
100
AcDbSpline
 70
8
 71
3
 72
8
 73
4
 74
0
 40
0
 40
0
 40
0
 40
0
 40
1
 40
1
 40
1
 40
1
 10
-39.649536
 20
-29.187348
 30
0.0
 10
-28.727009
 20
-25.733107
 30
0.0
 10
-18.661293
 20
-19.263746
 30
0.0
 10
-11.704557
 20
-10.074216
 30
0.0
  0
SPLINE
  5
2ff
100
AcDbEntity
  8
Layer_1
 62
2
100
AcDbSpline
 70
8
 71
3
 72
8
 73
4
 74
0
 40
0
 40
0
 40
0
 40
0
 40
1
 40
1
 40
1
 40
1
 10
-11.704557
 20
-10.074216
 30
0.0
 10
-2.634509
 20
1.570458
 30
0.0
 10
2.318072
 20
22.833154
 30
0.0
 10
-2.730102
 20
44.964510
 30
0.0
  0
LWPOLYLINE
  5
300
100
AcDbEntity
  8
Layer_1
 62
2
100
AcDbPolyline
 90
2
 70
0
 10
-106.180556
 20
-34.618046
 30
0.0
 10
-106.180708
 20
-34.618046
 30
0.0
  0
ENDSEC
  0
SECTION
  2
OBJECTS
  0
DICTIONARY
  5
C
330
0
100
AcDbDictionary
  3
ACAD_GROUP
350
D
  3
ACAD_MLINESTYLE
350
17
  0
DICTIONARY
  5
D
330
C
100
AcDbDictionary
  0
DICTIONARY
  5
1A
330
C
100
AcDbDictionary
  0
DICTIONARY
  5
17
330
C
100
AcDbDictionary
  3
STANDARD
350
18
  0
DICTIONARY
  5
19
330
C
100
AcDbDictionary
  0
ENDSEC
  0
EOF
