  0
SECTION
  2
HEADER
  9
$ACADVER
  1
AC1015
  9
$ACADMAINTVER
 70
     6
  9
$DWGCODEPAGE
  3
ANSI_1252
  9
$INSBASE
 10
0.0
 20
0.0
 30
0.0
  9
$EXTMIN
 10
-3.1560734408
 20
-9.9391483749
 30
0.0
  9
$EXTMAX
 10
3.1638657881
 20
4.6469439562
 30
0.0
  9
$LIMMIN
 10
0.0
 20
0.0
  9
$LIMMAX
 10
12.0
 20
9.0
  9
$ORTHOMODE
 70
     0
  9
$REGENMODE
 70
     1
  9
$FILLMODE
 70
     1
  9
$QTEXTMODE
 70
     0
  9
$MIRRTEXT
 70
     1
  9
$LTSCALE
 40
1.0
  9
$ATTMODE
 70
     1
  9
$TEXTSIZE
 40
0.1377952756
  9
$TRACEWID
 40
0.05
  9
$TEXTSTYLE
  7
Standard
  9
$CLAYER
  8
0
  9
$CELTYPE
  6
ByLayer
  9
$CECOLOR
 62
   256
  9
$CELTSCALE
 40
1.0
  9
$DISPSILH
 70
     0
  9
$DIMSCALE
 40
1.0
  9
$DIMASZ
 40
0.13
  9
$DIMEXO
 40
0.0393700787
  9
$DIMDLI
 40
0.38
  9
$DIMRND
 40
0.0
  9
$DIMDLE
 40
0.0
  9
$DIMEXE
 40
0.0393700787
  9
$DIMTP
 40
0.0
  9
$DIMTM
 40
0.0
  9
$DIMTXT
 40
0.1377952756
  9
$DIMCEN
 40
0.09
  9
$DIMTSZ
 40
0.0
  9
$DIMTOL
 70
     0
  9
$DIMLIM
 70
     0
  9
$DIMTIH
 70
     1
  9
$DIMTOH
 70
     1
  9
$DIMSE1
 70
     0
  9
$DIMSE2
 70
     0
  9
$DIMTAD
 70
     1
  9
$DIMZIN
 70
     1
  9
$DIMBLK
  1

  9
$DIMASO
 70
     1
  9
$DIMSHO
 70
     1
  9
$DIMPOST
  1

  9
$DIMAPOST
  1

  9
$DIMALT
 70
     0
  9
$DIMALTD
 70
     2
  9
$DIMALTF
 40
25.4
  9
$DIMLFAC
 40
1.0
  9
$DIMTOFL
 70
     0
  9
$DIMTVP
 40
0.0
  9
$DIMTIX
 70
     0
  9
$DIMSOXD
 70
     0
  9
$DIMSAH
 70
     0
  9
$DIMBLK1
  1

  9
$DIMBLK2
  1

  9
$DIMSTYLE
  2
Standard
  9
$DIMCLRD
 70
     0
  9
$DIMCLRE
 70
     0
  9
$DIMCLRT
 70
     0
  9
$DIMTFAC
 40
1.0
  9
$DIMGAP
 40
0.06
  9
$DIMJUST
 70
     0
  9
$DIMSD1
 70
     0
  9
$DIMSD2
 70
     0
  9
$DIMTOLJ
 70
     1
  9
$DIMTZIN
 70
     1
  9
$DIMALTZ
 70
     0
  9
$DIMALTTZ
 70
     0
  9
$DIMUPT
 70
     0
  9
$DIMDEC
 70
     2
  9
$DIMTDEC
 70
     2
  9
$DIMALTU
 70
     2
  9
$DIMALTTD
 70
     2
  9
$DIMTXSTY
  7
Standard
  9
$DIMAUNIT
 70
     0
  9
$DIMADEC
 70
     2
  9
$DIMALTRND
 40
0.0
  9
$DIMAZIN
 70
     0
  9
$DIMDSEP
 70
    46
  9
$DIMATFIT
 70
     3
  9
$DIMFRAC
 70
     0
  9
$DIMLDRBLK
  1

  9
$DIMLUNIT
 70
     2
  9
$DIMLWD
 70
    -2
  9
$DIMLWE
 70
    -2
  9
$DIMTMOVE
 70
     0
  9
$LUNITS
 70
     2
  9
$LUPREC
 70
     2
  9
$SKETCHINC
 40
0.1
  9
$FILLETRAD
 40
0.5
  9
$AUNITS
 70
     0
  9
$AUPREC
 70
     2
  9
$MENU
  1
.
  9
$ELEVATION
 40
0.0
  9
$PELEVATION
 40
0.0
  9
$THICKNESS
 40
0.0
  9
$LIMCHECK
 70
     0
  9
$CHAMFERA
 40
0.0
  9
$CHAMFERB
 40
0.0
  9
$CHAMFERC
 40
0.0
  9
$CHAMFERD
 40
0.0
  9
$SKPOLY
 70
     0
  9
$TDCREATE
 40
2458802.648296076
  9
$TDUCREATE
 40
2458802.98162941
  9
$TDUPDATE
 40
2458802.648337303
  9
$TDUUPDATE
 40
2458802.981670637
  9
$TDINDWG
 40
0.0000000116
  9
$TDUSRTIMER
 40
0.0000000116
  9
$USRTIMER
 70
     1
  9
$ANGBASE
 50
0.0
  9
$ANGDIR
 70
     0
  9
$PDMODE
 70
     0
  9
$PDSIZE
 40
-1.0
  9
$PLINEWID
 40
0.0
  9
$SPLFRAME
 70
     0
  9
$SPLINETYPE
 70
     6
  9
$SPLINESEGS
 70
     8
  9
$HANDSEED
  5
FD
  9
$SURFTAB1
 70
     6
  9
$SURFTAB2
 70
     6
  9
$SURFTYPE
 70
     6
  9
$SURFU
 70
     6
  9
$SURFV
 70
     6
  9
$UCSBASE
  2

  9
$UCSNAME
  2

  9
$UCSORG
 10
0.0
 20
0.0
 30
0.0
  9
$UCSXDIR
 10
1.0
 20
0.0
 30
0.0
  9
$UCSYDIR
 10
0.0
 20
1.0
 30
0.0
  9
$UCSORTHOREF
  2

  9
$UCSORTHOVIEW
 70
     0
  9
$UCSORGTOP
 10
0.0
 20
0.0
 30
0.0
  9
$UCSORGBOTTOM
 10
0.0
 20
0.0
 30
0.0
  9
$UCSORGLEFT
 10
0.0
 20
0.0
 30
0.0
  9
$UCSORGRIGHT
 10
0.0
 20
0.0
 30
0.0
  9
$UCSORGFRONT
 10
0.0
 20
0.0
 30
0.0
  9
$UCSORGBACK
 10
0.0
 20
0.0
 30
0.0
  9
$PUCSBASE
  2

  9
$PUCSNAME
  2

  9
$PUCSORG
 10
0.0
 20
0.0
 30
0.0
  9
$PUCSXDIR
 10
1.0
 20
0.0
 30
0.0
  9
$PUCSYDIR
 10
0.0
 20
1.0
 30
0.0
  9
$PUCSORTHOREF
  2

  9
$PUCSORTHOVIEW
 70
     0
  9
$PUCSORGTOP
 10
0.0
 20
0.0
 30
0.0
  9
$PUCSORGBOTTOM
 10
0.0
 20
0.0
 30
0.0
  9
$PUCSORGLEFT
 10
0.0
 20
0.0
 30
0.0
  9
$PUCSORGRIGHT
 10
0.0
 20
0.0
 30
0.0
  9
$PUCSORGFRONT
 10
0.0
 20
0.0
 30
0.0
  9
$PUCSORGBACK
 10
0.0
 20
0.0
 30
0.0
  9
$USERI1
 70
     0
  9
$USERI2
 70
     0
  9
$USERI3
 70
     0
  9
$USERI4
 70
     0
  9
$USERI5
 70
     0
  9
$USERR1
 40
0.0
  9
$USERR2
 40
0.0
  9
$USERR3
 40
0.0
  9
$USERR4
 40
0.0
  9
$USERR5
 40
0.0
  9
$WORLDVIEW
 70
     1
  9
$SHADEDGE
 70
     3
  9
$SHADEDIF
 70
    70
  9
$TILEMODE
 70
     1
  9
$MAXACTVP
 70
    64
  9
$PINSBASE
 10
0.0
 20
0.0
 30
0.0
  9
$PLIMCHECK
 70
     0
  9
$PEXTMIN
 10
1.0000000000E+20
 20
1.0000000000E+20
 30
1.0000000000E+20
  9
$PEXTMAX
 10
-1.0000000000E+20
 20
-1.0000000000E+20
 30
-1.0000000000E+20
  9
$PLIMMIN
 10
0.0
 20
0.0
  9
$PLIMMAX
 10
12.0
 20
9.0
  9
$UNITMODE
 70
     0
  9
$VISRETAIN
 70
     1
  9
$PLINEGEN
 70
     0
  9
$PSLTSCALE
 70
     1
  9
$TREEDEPTH
 70
  3020
  9
$CMLSTYLE
  2
Standard
  9
$CMLJUST
 70
     0
  9
$CMLSCALE
 40
1.0
  9
$PROXYGRAPHICS
 70
     1
  9
$MEASUREMENT
 70
     0
  9
$CELWEIGHT
370
    -1
  9
$ENDCAPS
280
     0
  9
$JOINSTYLE
280
     0
  9
$LWDISPLAY
290
     1
  9
$INSUNITS
 70
     1
  9
$HYPERLINKBASE
  1

  9
$STYLESHEET
  1

  9
$XEDIT
290
     1
  9
$CEPSNTYPE
380
     0
  9
$PSTYLEMODE
290
     1
  9
$FINGERPRINTGUID
  2
{b034a726-d0ec-41ef-8323-d9ae2aae4ac9}
  9
$VERSIONGUID
  2
{FAEB1C32-E019-11D5-929B-00C0DF256EC4}
  9
$EXTNAMES
290
     1
  9
$PSVPSCALE
 40
0.0
  9
$OLESTARTUP
290
     0
  0
ENDSEC
  0
SECTION
  2
CLASSES
  0
CLASS
  1
ACDBDICTIONARYWDFLT
  2
AcDbDictionaryWithDefault
  3
ObjectDBX Classes
 90
        0
280
     0
281
     0
  0
CLASS
  1
VISUALSTYLE
  2
AcDbVisualStyle
  3
ObjectDBX Classes
 90
     4095
280
     0
281
     0
  0
CLASS
  1
MATERIAL
  2
AcDbMaterial
  3
ObjectDBX Classes
 90
     1153
280
     0
281
     0
  0
CLASS
  1
SCALE
  2
AcDbScale
  3
ObjectDBX Classes
 90
     1153
280
     0
281
     0
  0
CLASS
  1
TABLESTYLE
  2
AcDbTableStyle
  3
ObjectDBX Classes
 90
     4095
280
     0
281
     0
  0
CLASS
  1
MLEADERSTYLE
  2
AcDbMLeaderStyle
  3
ACDB_MLEADERSTYLE_CLASS
 90
     4095
280
     0
281
     0
  0
CLASS
  1
SUN
  2
AcDbSun
  3
SCENEOE
 90
     1153
280
     0
281
     0
  0
CLASS
  1
ACDBPLACEHOLDER
  2
AcDbPlaceHolder
  3
ObjectDBX Classes
 90
        0
280
     0
281
     0
  0
CLASS
  1
LAYOUT
  2
AcDbLayout
  3
ObjectDBX Classes
 90
        0
280
     0
281
     0
  0
ENDSEC
  0
SECTION
  2
TABLES
  0
TABLE
  2
VPORT
  5
8
330
0
100
AcDbSymbolTable
 70
     1
  0
VPORT
  5
29
330
8
100
AcDbSymbolTableRecord
100
AcDbViewportTableRecord
  2
*Active
 70
     0
 10
0.0
 20
0.0
 11
1.0
 21
1.0
 12
0.0038961737
 22
-2.6461022094
 13
0.0
 23
0.0
 14
0.5
 24
0.5
 15
0.5
 25
0.5
 16
0.0
 26
0.0
 36
1.0
 17
0.0
 27
0.0
 37
0.0
 40
14.8778141776
 41
0.4332852889
 42
50.0
 43
0.0
 44
0.0
 50
0.0
 51
0.0
 71
     0
 72
   100
 73
     1
 74
     3
 75
     0
 76
     0
 77
     0
 78
     0
281
     0
 65
     1
110
0.0
120
0.0
130
0.0
111
1.0
121
0.0
131
0.0
112
0.0
122
1.0
132
0.0
 79
     0
146
0.0
  0
ENDTAB
  0
TABLE
  2
LTYPE
  5
5
330
0
100
AcDbSymbolTable
 70
     6
  0
LTYPE
  5
14
330
5
100
AcDbSymbolTableRecord
100
AcDbLinetypeTableRecord
  2
ByBlock
 70
     0
  3

 72
    65
 73
     0
 40
0.0
  0
LTYPE
  5
15
330
5
100
AcDbSymbolTableRecord
100
AcDbLinetypeTableRecord
  2
ByLayer
 70
     0
  3

 72
    65
 73
     0
 40
0.0
  0
LTYPE
  5
16
330
5
100
AcDbSymbolTableRecord
100
AcDbLinetypeTableRecord
  2
Continuous
 70
     0
  3
Solid line
 72
    65
 73
     0
 40
0.0
  0
LTYPE
  5
6E
330
5
100
AcDbSymbolTableRecord
100
AcDbLinetypeTableRecord
  2
HIDDEN
 70
     0
  3
Hidden __ __ __ __ __ __ __ __ __ __ __ __ __ __
 72
    65
 73
     2
 40
0.075
 49
0.05
 74
     0
 49
-0.025
 74
     0
  0
LTYPE
  5
6F
330
5
100
AcDbSymbolTableRecord
100
AcDbLinetypeTableRecord
  2
PHANTOM
 70
     0
  3
Phantom ______  __  __  ______  __  __  ______
 72
    65
 73
     6
 40
0.5
 49
0.25
 74
     0
 49
-0.05
 74
     0
 49
0.05
 74
     0
 49
-0.05
 74
     0
 49
0.05
 74
     0
 49
-0.05
 74
     0
  0
LTYPE
  5
70
330
5
100
AcDbSymbolTableRecord
100
AcDbLinetypeTableRecord
  2
CENTER
 70
     0
  3
Center ____ _ ____ _ ____ _ ____ _ ____ _ ____
 72
    65
 73
     4
 40
0.4
 49
0.25
 74
     0
 49
-0.05
 74
     0
 49
0.05
 74
     0
 49
-0.05
 74
     0
  0
LTYPE
  5
71
330
5
100
AcDbSymbolTableRecord
100
AcDbLinetypeTableRecord
  2
CENTERX2
 70
     0
  3
Center (2x) ________  __  ________  __  _____
 72
    65
 73
     4
 40
0.8
 49
0.5
 74
     0
 49
-0.1
 74
     0
 49
0.1
 74
     0
 49
-0.1
 74
     0
  0
LTYPE
  5
72
330
5
100
AcDbSymbolTableRecord
100
AcDbLinetypeTableRecord
  2
DOT2
 70
     0
  3
Dot (.5x) ........................................
 72
    65
 73
     2
 40
0.025
 49
0.0
 74
     0
 49
-0.025
 74
     0
  0
ENDTAB
  0
TABLE
  2
LAYER
  5
2
330
0
100
AcDbSymbolTable
 70
     1
  0
LAYER
  5
10
330
2
100
AcDbSymbolTableRecord
100
AcDbLayerTableRecord
  2
0
 70
     0
 62
     7
  6
Continuous
370
    -3
390
F
  0
ENDTAB
  0
TABLE
  2
STYLE
  5
3
330
0
100
AcDbSymbolTable
 70
     1
  0
STYLE
  5
11
330
3
100
AcDbSymbolTableRecord
100
AcDbTextStyleTableRecord
  2
Standard
 70
     0
 40
0.0
 41
1.0
 50
0.0
 71
     0
 42
0.1377952756
  3
txt
  4

  0
ENDTAB
  0
TABLE
  2
VIEW
  5
6
330
0
100
AcDbSymbolTable
 70
     0
  0
ENDTAB
  0
TABLE
  2
UCS
  5
7
330
0
100
AcDbSymbolTable
 70
     0
  0
ENDTAB
  0
TABLE
  2
APPID
  5
9
330
0
100
AcDbSymbolTable
 70
     1
  0
APPID
  5
12
330
9
100
AcDbSymbolTableRecord
100
AcDbRegAppTableRecord
  2
ACAD
 70
     0
  0
ENDTAB
  0
TABLE
  2
DIMSTYLE
  5
A
330
0
100
AcDbSymbolTable
 70
     1
100
AcDbDimStyleTable
  0
DIMSTYLE
105
27
330
A
100
AcDbSymbolTableRecord
100
AcDbDimStyleTableRecord
  2
Standard
 70
     0
178
     0
340
11
  0
ENDTAB
  0
TABLE
  2
BLOCK_RECORD
  5
1
330
0
100
AcDbSymbolTable
 70
     1
  0
BLOCK_RECORD
  5
1F
330
1
100
AcDbSymbolTableRecord
100
AcDbBlockTableRecord
  2
*Model_Space
340
22
  0
BLOCK_RECORD
  5
1B
330
1
100
AcDbSymbolTableRecord
100
AcDbBlockTableRecord
  2
*Paper_Space
340
1E
  0
BLOCK_RECORD
  5
23
330
1
100
AcDbSymbolTableRecord
100
AcDbBlockTableRecord
  2
*Paper_Space0
340
26
  0
ENDTAB
  0
ENDSEC
  0
SECTION
  2
BLOCKS
  0
BLOCK
  5
20
330
1F
100
AcDbEntity
  8
0
100
AcDbBlockBegin
  2
*Model_Space
 70
     0
 10
0.0
 20
0.0
 30
0.0
  3
*Model_Space
  1

  0
ENDBLK
  5
21
330
1F
100
AcDbEntity
  8
0
100
AcDbBlockEnd
  0
BLOCK
  5
1C
330
1B
100
AcDbEntity
 67
     1
  8
0
100
AcDbBlockBegin
  2
*Paper_Space
 70
     0
 10
0.0
 20
0.0
 30
0.0
  3
*Paper_Space
  1

  0
ENDBLK
  5
1D
330
1B
100
AcDbEntity
 67
     1
  8
0
100
AcDbBlockEnd
  0
BLOCK
  5
24
330
23
100
AcDbEntity
  8
0
100
AcDbBlockBegin
  2
*Paper_Space0
 70
     0
 10
0.0
 20
0.0
 30
0.0
  3
*Paper_Space0
  1

  0
ENDBLK
  5
25
330
23
100
AcDbEntity
  8
0
100
AcDbBlockEnd
  0
ENDSEC
  0
SECTION
  2
ENTITIES
  0
SPLINE
  5
77
330
1F
100
AcDbEntity
  8
0
  6
Continuous
 62
     7
370
    25
100
AcDbSpline
210
0.0
220
0.0
230
1.0
 70
     8
 71
     3
 72
    21
 73
    17
 74
     0
 42
0.000000001
 43
0.00000001
 40
0.0
 40
0.0
 40
0.0
 40
0.0
 40
0.0482796857313888
 40
0.1252810804896179
 40
0.2021969433024615
 40
0.2790222896519275
 40
0.3557600083389503
 40
0.4324220486371745
 40
0.5089583062500151
 40
0.584810737442407
 40
0.6622018201154611
 40
0.7408522520291213
 40
0.8211254657497039
 40
0.9033935165044872
 40
0.9878309168643413
 40
1.0
 40
1.0
 40
1.0
 40
1.0
 10
0.8170979521904914
 20
4.12190233957301
 30
0.0
 10
0.7878817256873648
 20
4.09635692186307
 30
0.0
 10
0.7120684645053144
 20
4.030069051845325
 30
0.0
 10
0.595852222076384
 20
3.915542962445674
 30
0.0
 10
0.4683149203522025
 20
3.779660395311462
 30
0.0
 10
0.3474328624879832
 20
3.637774212077209
 30
0.0
 10
0.2332743750083709
 20
3.490641731673437
 30
0.0
 10
0.1262471607314237
 20
3.338621405833367
 30
0.0
 10
0.0269576421620622
 20
3.182553521291286
 30
0.0
 10
-0.0653014174312581
 20
3.021961782427727
 30
0.0
 10
-0.1509660933039058
 20
2.856359217059163
 30
0.0
 10
-0.2305771030378535
 20
2.684492082218145
 30
0.0
 10
-0.3039923972648888
 20
2.506393473228826
 30
0.0
 10
-0.3712404378533912
 20
2.321870907892376
 30
0.0
 10
-0.4142364656796075
 20
2.186761472532345
 30
0.0
 10
-0.4358559632331674
 20
2.113774503948621
 30
0.0
 10
-0.4385792738595464
 20
2.104580664608051
 30
0.0
  0
SPLINE
  5
78
330
1F
100
AcDbEntity
  8
0
  6
Continuous
 62
     7
370
    25
100
AcDbSpline
210
0.0
220
0.0
230
1.0
 70
     8
 71
     3
 72
    19
 73
    15
 74
     0
 42
0.000000001
 43
0.00000001
 40
0.0
 40
0.0
 40
0.0
 40
0.0
 40
0.050572960225415
 40
0.1402694382792908
 40
0.2300877151242306
 40
0.320091552457305
 40
0.4102625364899596
 40
0.5005799166290177
 40
0.5910222435952307
 40
0.6815688043971048
 40
0.7722006554194445
 40
0.8629012563152593
 40
0.9536567476391475
 40
1.0
 40
1.0
 40
1.0
 40
1.0
 10
2.181604728921353
 20
4.646943956164206
 30
0.0
 10
2.157449592459383
 20
4.647206030220587
 30
0.0
 10
2.090452774239169
 20
4.647932920252573
 30
0.0
 10
1.979780585104267
 20
4.641508398019235
 30
0.0
 10
1.849976580239954
 20
4.625033784927039
 30
0.0
 10
1.720313117189376
 20
4.599035166276784
 30
0.0
 10
1.591431699622101
 20
4.563798573145005
 30
0.0
 10
1.463977681640862
 20
4.519446857720474
 30
0.0
 10
1.338596472490843
 20
4.466213384382725
 30
0.0
 10
1.215928485986965
 20
4.404352990063368
 30
0.0
 10
1.096567694179196
 20
4.3342079137208
 30
0.0
 10
0.9812078098639656
 20
4.256018549983904
 30
0.0
 10
0.8882233715300402
 20
4.184546627970836
 30
0.0
 10
0.8345971450104507
 20
4.138365017305365
 30
0.0
 10
0.8164699639585778
 20
4.122754326937391
 30
0.0
  0
SPLINE
  5
7A
330
1F
100
AcDbEntity
  8
0
  6
Continuous
 62
     7
370
    25
100
AcDbSpline
210
0.0
220
0.0
230
1.0
 70
     8
 71
     3
 72
    14
 73
    10
 74
     0
 42
0.000000001
 43
0.00000001
 40
0.0
 40
0.0
 40
0.0
 40
0.0
 40
0.2722124298857164
 40
0.2722124298857164
 40
0.5059237502475059
 40
0.5059237502475059
 40
0.752961875123753
 40
0.752961875123753
 40
1.0
 40
1.0
 40
1.0
 40
1.0
 10
0.4759864242635529
 20
1.879088137212424
 30
0.0
 10
0.5737047639880711
 20
2.205591712030057
 30
0.0
 10
0.7132561261191429
 20
2.522177376002793
 30
0.0
 10
1.056494481100777
 20
3.042144806307637
 30
0.0
 10
1.252831693511485
 20
3.26288484091935
 30
0.0
 10
1.705474194231783
 20
3.645405576405985
 30
0.0
 10
1.966532028903919
 20
3.804988834248166
 30
0.0
 10
2.509739592650848
 20
4.029817668374766
 30
0.0
 10
2.791669667835843
 20
4.095004417817069
 30
0.0
 10
3.066250035402404
 20
4.105294855274753
 30
0.0
  0
SPLINE
  5
82
330
1F
100
AcDbEntity
  8
0
  6
Continuous
 62
     7
370
    25
100
AcDbSpline
210
0.0
220
0.0
230
1.0
 70
     8
 71
     3
 72
    37
 73
    33
 74
     0
 42
0.000000001
 43
0.00000001
 40
0.0
 40
0.0
 40
0.0
 40
0.0
 40
0.0312500000000002
 40
0.0312500000000002
 40
0.0625000000000004
 40
0.0937500000000006
 40
0.0937500000000006
 40
0.1250000000000008
 40
0.1250000000000008
 40
0.2500000000000013
 40
0.2500000000000013
 40
0.3125000000000017
 40
0.3125000000000017
 40
0.3437500000000018
 40
0.3437500000000018
 40
0.3750000000000019
 40
0.3750000000000019
 40
0.5000000000000017
 40
0.5000000000000017
 40
0.6250000000000014
 40
0.6250000000000014
 40
0.6875000000000014
 40
0.6875000000000014
 40
0.7187500000000013
 40
0.7187500000000013
 40
0.7500000000000012
 40
0.7500000000000012
 40
0.8750000000000006
 40
0.8750000000000006
 40
0.9375000000000002
 40
0.9375000000000002
 40
1.0
 40
1.0
 40
1.0
 40
1.0
 10
3.084900608280818
 20
4.364043046181884
 30
0.0
 10
3.045835946844181
 20
4.362304752092895
 30
0.0
 10
3.006735516596339
 20
4.359708715541752
 30
0.0
 10
2.928448939931696
 20
4.352461153443828
 30
0.0
 10
2.850081860129874
 20
4.34328311178075
 30
0.0
 10
2.771556072986138
 20
4.330299239796766
 30
0.0
 10
2.692951510372262
 20
4.315426318010863
 30
0.0
 10
2.65367659629319
 20
4.307054173231496
 30
0.0
 10
2.458647603244199
 20
4.260906038603951
 30
0.0
 10
2.305755401903313
 20
4.210195143189506
 30
0.0
 10
2.080799535956373
 20
4.114823660954753
 30
0.0
 10
2.006550633703231
 20
4.079789299401028
 30
0.0
 10
1.896294501344588
 20
4.02231626890383
 30
0.0
 10
1.859729013267251
 20
4.002336791069805
 30
0.0
 10
1.786977716277057
 20
3.960705304649241
 30
0.0
 10
1.750717403697802
 20
3.939005479463705
 30
0.0
 10
1.571486611000915
 20
3.826915586816221
 30
0.0
 10
1.43471404031939
 20
3.725978756903229
 30
0.0
 10
1.174806950374159
 20
3.500870065927307
 30
0.0
 10
1.054710723826203
 20
3.379397942929496
 30
0.0
 10
0.8888114728069956
 20
3.184474116298687
 30
0.0
 10
0.8359017980133203
 20
3.117356221211907
 30
0.0
 10
0.760234664216667
 20
3.01336377622046
 30
0.0
 10
0.7356298584900306
 20
2.978145823641409
 30
0.0
 10
0.6876915558537599
 20
2.906569879767617
 30
0.0
 10
0.6643127001215087
 20
2.870120125876668
 30
0.0
 10
0.5515647879584455
 20
2.686616730423071
 30
0.0
 10
0.4739669512794523
 20
2.53522686326129
 30
0.0
 10
0.3729748218405951
 20
2.302534080335234
 30
0.0
 10
0.341900449398384
 20
2.224027061803444
 30
0.0
 10
0.2845702832717601
 20
2.065258843589324
 30
0.0
 10
0.2582842784328349
 20
1.98487646912316
 30
0.0
 10
0.2344198772842981
 20
1.904148106108686
 30
0.0
  0
LWPOLYLINE
  5
84
330
1F
100
AcDbEntity
  8
0
  6
Continuous
 62
     7
370
    25
100
AcDbPolyline
 90
       17
 70
   128
 43
0.0
 10
-2.60875998
 20
-9.2201615597
 10
-2.5960572021
 20
-9.1918219874
 10
-2.5745459969
 20
-9.1690049333
 10
-2.5475012503
 20
-9.1551840869
 10
-2.5190402798
 20
-9.1524635469
 10
-2.4934960102
 20
-9.1612574909
 10
-2.474757325
 20
-9.1802271205
 10
-2.4656770191
 20
-9.2064844817
 10
-2.4676374868
 20
-9.2360321291
 10
-2.4803402646
 20
-9.2643717015
 10
-2.5018514699
 20
-9.2871887556
 10
-2.5288962165
 20
-9.301009602
 10
-2.557357187
 20
-9.303730142
 10
-2.5829014566
 20
-9.294936198
 10
-2.6016401418
 20
-9.2759665684
 10
-2.6107204477
 20
-9.2497092072
 10
-2.60875998
 20
-9.2201615597
  0
LWPOLYLINE
  5
85
330
1F
100
AcDbEntity
  8
0
  6
Continuous
 62
     7
370
    25
100
AcDbPolyline
 90
       17
 70
   128
 43
0.0
 10
-2.1121228463
 20
-7.3435303134
 10
-2.0994200685
 20
-7.3151907411
 10
-2.0779088632
 20
-7.2923736869
 10
-2.0508641166
 20
-7.2785528406
 10
-2.0224031461
 20
-7.2758323006
 10
-1.9968588765
 20
-7.2846262446
 10
-1.9781201913
 20
-7.3035958742
 10
-1.9690398854
 20
-7.3298532353
 10
-1.9710003531
 20
-7.3594008828
 10
-1.9837031309
 20
-7.3877404551
 10
-2.0052143362
 20
-7.4105575093
 10
-2.0322590828
 20
-7.4243783557
 10
-2.0607200533
 20
-7.4270988956
 10
-2.0862643229
 20
-7.4183049517
 10
-2.1050030081
 20
-7.3993353221
 10
-2.114083314
 20
-7.3730779609
 10
-2.1121228463
 20
-7.3435303134
  0
LWPOLYLINE
  5
86
330
1F
100
AcDbEntity
  8
0
  6
Continuous
 62
     7
370
    25
100
AcDbPolyline
 90
       17
 70
   128
 43
0.0
 10
-1.6154857126
 20
-5.4668990671
 10
-1.6027829348
 20
-5.4385594948
 10
-1.5812717295
 20
-5.4157424406
 10
-1.5542269829
 20
-5.4019215943
 10
-1.5257660124
 20
-5.3992010543
 10
-1.5002217428
 20
-5.4079949982
 10
-1.4814830576
 20
-5.4269646279
 10
-1.4724027517
 20
-5.453221989
 10
-1.4743632194
 20
-5.4827696365
 10
-1.4870659973
 20
-5.5111092088
 10
-1.5085772025
 20
-5.533926263
 10
-1.5356219491
 20
-5.5477471093
 10
-1.5640829196
 20
-5.5504676493
 10
-1.5896271892
 20
-5.5416737054
 10
-1.6083658744
 20
-5.5227040757
 10
-1.6174461803
 20
-5.4964467146
 10
-1.6154857126
 20
-5.4668990671
  0
LWPOLYLINE
  5
87
330
1F
100
AcDbEntity
  8
0
  6
Continuous
 62
     7
370
    25
100
AcDbPolyline
 90
       17
 70
   128
 43
0.0
 10
-1.1188140076
 20
-3.5901371869
 10
-1.1061112297
 20
-3.5617976145
 10
-1.0846000245
 20
-3.5389805604
 10
-1.0575552779
 20
-3.525159714
 10
-1.0290943074
 20
-3.522439174
 10
-1.0035500378
 20
-3.531233118
 10
-0.9848113526
 20
-3.5502027476
 10
-0.9757310467
 20
-3.5764601088
 10
-0.9776915144
 20
-3.6060077563
 10
-0.9903942922
 20
-3.6343473286
 10
-1.0119054975
 20
-3.6571643827
 10
-1.0389502441
 20
-3.6709852291
 10
-1.0674112146
 20
-3.6737057691
 10
-1.0929554842
 20
-3.6649118251
 10
-1.1116941694
 20
-3.6459421955
 10
-1.1207744753
 20
-3.6196848343
 10
-1.1188140076
 20
-3.5901371869
  0
LWPOLYLINE
  5
88
330
1F
100
AcDbEntity
  8
0
  6
Continuous
 62
     7
370
    25
100
AcDbPolyline
 90
       17
 70
   128
 43
0.0
 10
-0.6237603488
 20
-1.7133079958
 10
-0.6110575709
 20
-1.6849684235
 10
-0.5895463657
 20
-1.6621513693
 10
-0.5625016191
 20
-1.648330523
 10
-0.5340406486
 20
-1.645609983
 10
-0.508496379
 20
-1.6544039269
 10
-0.4897576938
 20
-1.6733735566
 10
-0.4806773879
 20
-1.6996309177
 10
-0.4826378556
 20
-1.7291785652
 10
-0.4953406334
 20
-1.7575181375
 10
-0.5168518387
 20
-1.7803351917
 10
-0.5438965853
 20
-1.7941560381
 10
-0.5723575558
 20
-1.796876578
 10
-0.5979018254
 20
-1.7880826341
 10
-0.6166405106
 20
-1.7691130045
 10
-0.6257208165
 20
-1.7428556433
 10
-0.6237603488
 20
-1.7133079958
  0
LWPOLYLINE
  5
89
330
1F
100
AcDbEntity
  8
0
  6
Continuous
 62
     7
370
    25
100
AcDbPolyline
 90
       17
 70
   128
 43
0.0
 10
2.6686957802
 20
4.185816079
 10
2.6813985581
 20
4.2141556514
 10
2.7029097633
 20
4.2369727055
 10
2.7299545099
 20
4.2507935519
 10
2.7584154804
 20
4.2535140919
 10
2.78395975
 20
4.2447201479
 10
2.8026984352
 20
4.2257505183
 10
2.8117787411
 20
4.1994931571
 10
2.8098182734
 20
4.1699455097
 10
2.7971154956
 20
4.1416059373
 10
2.7756042903
 20
4.1187888832
 10
2.7485595437
 20
4.1049680368
 10
2.7200985732
 20
4.1022474968
 10
2.6945543036
 20
4.1110414408
 10
2.6758156184
 20
4.1300110704
 10
2.6667353125
 20
4.1562684316
 10
2.6686957802
 20
4.185816079
  0
LWPOLYLINE
  5
8A
330
1F
100
AcDbEntity
  8
0
  6
Continuous
 62
     7
370
    25
100
AcDbPolyline
 90
       17
 70
   128
 43
0.0
 10
1.1975439375
 20
3.4243234044
 10
1.2102467154
 20
3.4526629767
 10
1.2317579206
 20
3.4754800309
 10
1.2588026672
 20
3.4893008772
 10
1.2872636377
 20
3.4920214172
 10
1.3128079073
 20
3.4832274733
 10
1.3315465925
 20
3.4642578436
 10
1.3406268984
 20
3.4380004825
 10
1.3386664307
 20
3.408452835
 10
1.3259636529
 20
3.3801132627
 10
1.3044524476
 20
3.3572962085
 10
1.277407701
 20
3.3434753622
 10
1.2489467305
 20
3.3407548222
 10
1.2234024609
 20
3.3495487661
 10
1.2046637757
 20
3.3685183958
 10
1.1955834698
 20
3.3947757569
 10
1.1975439375
 20
3.4243234044
  0
LWPOLYLINE
  5
8B
330
1F
100
AcDbEntity
  8
0
  6
Continuous
 62
     7
370
    25
100
AcDbPolyline
 90
       17
 70
   128
 43
0.0
 10
0.3282124997
 20
2.0448682786
 10
0.3409152776
 20
2.0732078509
 10
0.3624264828
 20
2.0960249051
 10
0.3894712294
 20
2.1098457515
 10
0.4179321999
 20
2.1125662914
 10
0.4434764695
 20
2.1037723475
 10
0.4622151548
 20
2.0848027179
 10
0.4712954607
 20
2.0585453567
 10
0.469334993
 20
2.0289977092
 10
0.4566322151
 20
2.0006581369
 10
0.4351210099
 20
1.9778410827
 10
0.4080762633
 20
1.9640202364
 10
0.3796152928
 20
1.9612996964
 10
0.3540710232
 20
1.9700936403
 10
0.3353323379
 20
1.98906327
 10
0.326252032
 20
2.0153206311
 10
0.3282124997
 20
2.0448682786
  0
LWPOLYLINE
  5
8C
330
1F
100
AcDbEntity
  8
0
  6
Continuous
 62
     7
370
    25
100
AcDbPolyline
 90
       17
 70
   128
 43
0.0
 10
-0.1477739245
 20
0.1657801414
 10
-0.1350711467
 20
0.1941197137
 10
-0.1135599414
 20
0.2169367679
 10
-0.0865151948
 20
0.2307576142
 10
-0.0580542243
 20
0.2334781542
 10
-0.0325099547
 20
0.2246842103
 10
-0.0137712695
 20
0.2057145806
 10
-0.0046909636
 20
0.1794572195
 10
-0.0066514313
 20
0.149909572
 10
-0.0193542092
 20
0.1215699997
 10
-0.0408654144
 20
0.0987529455
 10
-0.067910161
 20
0.0849320992
 10
-0.0963711315
 20
0.0822115592
 10
-0.1219154011
 20
0.0910055031
 10
-0.1406540863
 20
0.1099751328
 10
-0.1497343922
 20
0.1362324939
 10
-0.1477739245
 20
0.1657801414
  0
LWPOLYLINE
  5
91
330
1F
100
AcDbEntity
  8
0
  6
Continuous
 62
     7
370
    25
100
AcDbPolyline
 90
        6
 70
   128
 43
0.0
 10
-3.1291256892
 20
-9.672802101
 10
-3.1460138138
 20
-9.6796326353
 10
-3.1549872131
 20
-9.6889632832
 10
-3.1557404389
 20
-9.7004764359
 10
-3.1482478518
 20
-9.7137801936
 10
-3.1327644944
 20
-9.7284217056
  0
SPLINE
  5
94
330
1F
100
AcDbEntity
  8
0
  6
Continuous
 62
     7
370
    25
100
AcDbSpline
210
0.0
220
0.0
230
1.0
 70
     8
 71
     3
 72
    18
 73
    14
 74
     0
 42
0.000000001
 43
0.00000001
 40
0.0
 40
0.0
 40
0.0
 40
0.0
 40
0.2499999999999991
 40
0.2499999999999991
 40
0.374999999999999
 40
0.374999999999999
 40
0.437499999999999
 40
0.437499999999999
 40
0.499999999999999
 40
0.499999999999999
 40
0.7499999999999996
 40
0.7499999999999996
 40
1.0
 40
1.0
 40
1.0
 40
1.0
 10
0.8768139563346027
 20
4.016867521511399
 30
0.0
 10
0.7332799095339324
 20
3.89085295736516
 30
0.0
 10
0.60066312393179
 20
3.755201879827484
 30
0.0
 10
0.4175625183958772
 20
3.537757134923836
 30
0.0
 10
0.3591857580574817
 20
3.462930455387859
 30
0.0
 10
0.275709560413238
 20
3.347081183548576
 30
0.0
 10
0.2485668508414338
 20
3.307862159026163
 30
0.0
 10
0.1956794041027066
 20
3.228190139340206
 30
0.0
 10
0.1698786495305295
 20
3.187630292679679
 30
0.0
 10
0.0453889893278546
 20
2.983493313327369
 30
0.0
 10
-0.0402556340376481
 20
2.815471963342596
 30
0.0
 10
-0.1883808969978356
 20
2.471603748013624
 30
0.0
 10
-0.2508414212127011
 20
2.295750087067453
 30
0.0
 10
-0.3031241189401401
 20
2.116458039257825
 30
0.0
  0
SPLINE
  5
96
330
1F
100
AcDbEntity
  8
0
  6
Continuous
 62
     7
370
    25
100
AcDbSpline
210
0.0
220
0.0
230
1.0
 70
     8
 71
     3
 72
    14
 73
    10
 74
     0
 42
0.000000001
 43
0.00000001
 40
0.0
 40
0.0
 40
0.0
 40
0.0
 40
0.2722124298857164
 40
0.2722124298857164
 40
0.5059237502475059
 40
0.5059237502475059
 40
0.752961875123753
 40
0.752961875123753
 40
0.7949467129717631
 40
0.7949467129717631
 40
0.7949467129717631
 40
0.7949467129717631
 10
-0.0828239692763073
 20
2.096416787538906
 30
0.0
 10
0.0230913521917823
 20
2.455335166467515
 30
0.0
 10
0.176448413133828
 20
2.810665649015116
 30
0.0
 10
0.5675719826419097
 20
3.410319646610979
 30
0.0
 10
0.7903319584469819
 20
3.663235479892559
 30
0.0
 10
1.306131957259135
 20
4.103910678804936
 30
0.0
 10
1.602455205790645
 20
4.28713228709507
 30
0.0
 10
1.964510898401494
 20
4.439393916234202
 30
0.0
 10
2.017484307761995
 20
4.459979048017831
 30
0.0
 10
2.070748184420466
 20
4.478982695871164
 30
0.0
  0
SPLINE
  5
AA
330
1F
100
AcDbEntity
  8
0
  6
Continuous
 62
     7
370
    25
100
AcDbSpline
210
0.0
220
0.0
230
1.0
 70
     8
 71
     3
 72
    14
 73
    10
 74
     0
 42
0.000000001
 43
0.00000001
 40
0.0
 40
0.0
 40
0.0
 40
0.0
 40
0.2722124298857164
 40
0.2722124298857164
 40
0.5059237502475059
 40
0.5059237502475059
 40
0.752961875123753
 40
0.752961875123753
 40
1.0
 40
1.0
 40
1.0
 40
1.0
 10
0.1054469768770235
 20
1.948847028863711
 30
0.0
 10
0.211362298345113
 20
2.307765407792319
 30
0.0
 10
0.3647193592872742
 20
2.66309589033983
 30
0.0
 10
0.7558429287951416
 20
3.262749887935862
 30
0.0
 10
0.9786029046003126
 20
3.515665721217364
 30
0.0
 10
1.494402903412465
 20
3.956340920129739
 30
0.0
 10
1.790726151943871
 20
4.139562528419957
 30
0.0
 10
2.409649704317231
 20
4.399849302858678
 30
0.0
 10
2.732250008185697
 20
4.476914469011854
 30
0.0
 10
3.049853336887435
 20
4.49104713952842
 30
0.0
  0
SPLINE
  5
AD
330
1F
100
AcDbEntity
  8
0
  6
Continuous
 62
     7
370
    25
100
AcDbSpline
210
0.0
220
0.0
230
1.0
 70
     8
 71
     3
 72
    16
 73
    12
 74
     0
 42
0.000000001
 43
0.00000001
 40
0.0
 40
0.0
 40
0.0
 40
0.0
 40
0.2500000000000005
 40
0.2500000000000005
 40
0.500000000000001
 40
0.500000000000001
 40
0.6250000000000009
 40
0.6250000000000009
 40
0.7500000000000008
 40
0.7500000000000008
 40
1.0
 40
1.0
 40
1.0
 40
1.0
 10
2.071172249626608
 20
4.479133939146982
 30
0.0
 10
2.136933115853143
 20
4.502577906585624
 30
0.0
 10
2.204329273903634
 20
4.522104102253143
 30
0.0
 10
2.341069617906145
 20
4.55475942710686
 30
0.0
 10
2.410434630847575
 20
4.56786643787207
 30
0.0
 10
2.515238460338229
 20
4.583396375708453
 30
0.0
 10
2.550337281316919
 20
4.587886072179852
 30
0.0
 10
2.62039175570309
 20
4.595567250291202
 30
0.0
 10
2.655363379766319
 20
4.598762587655341
 30
0.0
 10
2.7599023570058
 20
4.606618885256623
 30
0.0
 10
2.8290939137288
 20
4.609557308025455
 30
0.0
 10
2.897167420517704
 20
4.61072478651614
 30
0.0
  0
SPLINE
  5
AF
330
1F
100
AcDbEntity
  8
0
  6
Continuous
 62
     7
370
    25
100
AcDbSpline
210
0.0
220
0.0
230
1.0
 70
     8
 71
     3
 72
    20
 73
    16
 74
     0
 42
0.000000001
 43
0.00000001
 40
0.0
 40
0.0
 40
0.0
 40
0.0
 40
0.1250000000000011
 40
0.1250000000000011
 40
0.2500000000000022
 40
0.2500000000000022
 40
0.3750000000000032
 40
0.3750000000000032
 40
0.5000000000000043
 40
0.5000000000000043
 40
0.6250000000000054
 40
0.6250000000000054
 40
0.7500000000000064
 40
0.7500000000000064
 40
1.0
 40
1.0
 40
1.0
 40
1.0
 10
3.049853336887445
 20
4.491047139528412
 30
0.0
 10
3.052617090836371
 20
4.488880865275197
 30
0.0
 10
3.055290600294524
 20
4.486140223861621
 30
0.0
 10
3.060464531229187
 20
4.479557310877794
 30
0.0
 10
3.062990568437214
 20
4.475664241997157
 30
0.0
 10
3.067715346800536
 20
4.466966950440749
 30
0.0
 10
3.06990929703237
 20
4.462191452703254
 30
0.0
 10
3.073963430694706
 20
4.451794637343731
 30
0.0
 10
3.075829237562189
 20
4.446130913066828
 30
0.0
 10
3.079061310305273
 20
4.434421228663855
 30
0.0
 10
3.080451074821312
 20
4.428325209223554
 30
0.0
 10
3.082767404290049
 20
4.415639458071669
 30
0.0
 10
3.083672058388044
 20
4.409143732064821
 30
0.0
 10
3.085578564201101
 20
4.389704077627414
 30
0.0
 10
3.085796911486311
 20
4.376477883140397
 30
0.0
 10
3.084900608280818
 20
4.364043046181882
 30
0.0
  0
SPLINE
  5
B0
330
1F
100
AcDbEntity
  8
0
  6
Continuous
 62
     7
370
    25
100
AcDbSpline
210
0.0
220
0.0
230
1.0
 70
     8
 71
     3
 72
    22
 73
    18
 74
     0
 42
0.000000001
 43
0.00000001
 40
0.0
 40
0.0
 40
0.0
 40
0.0
 40
0.125
 40
0.125
 40
0.25
 40
0.25
 40
0.375
 40
0.375
 40
0.5
 40
0.5
 40
0.625
 40
0.625
 40
0.75
 40
0.75
 40
0.875
 40
0.875
 40
1.0
 40
1.0
 40
1.0
 40
1.0
 10
0.1054469768770333
 20
1.948847028863703
 30
0.0
 10
0.1082098520080368
 20
1.946681443441936
 30
0.0
 10
0.1114909727534532
 20
1.944475009116486
 30
0.0
 10
0.1190472774767773
 20
1.939983768838704
 30
0.0
 10
0.123376913990523
 20
1.937673628912365
 30
0.0
 10
0.1328117847946189
 20
1.933107190470602
 30
0.0
 10
0.137888193776259
 20
1.930859219464399
 30
0.0
 10
0.1487523790225316
 20
1.926433053245839
 30
0.0
 10
0.1545824103979012
 20
1.924243567254095
 30
0.0
 10
0.1664740782934182
 20
1.920121815001711
 30
0.0
 10
0.1725886986040159
 20
1.918165774009676
 30
0.0
 10
0.185163441621609
 20
1.914468209758896
 30
0.0
 10
0.1915315554855899
 20
1.912756511755717
 30
0.0
 10
0.2040955460024004
 20
1.909688022503777
 30
0.0
 10
0.210375987313602
 20
1.908309616234669
 30
0.0
 10
0.2227135579000003
 20
1.905924157199275
 30
0.0
 10
0.2287487005247905
 20
1.904923818464636
 30
0.0
 10
0.2344198772843649
 20
1.904148106108682
 30
0.0
  0
SPLINE
  5
B5
330
1F
100
AcDbEntity
  8
0
  6
Continuous
 62
     7
370
    25
100
AcDbSpline
210
0.0
220
0.0
230
1.0
 70
     8
 71
     3
 72
    14
 73
    10
 74
     0
 42
0.000000001
 43
0.00000001
 40
0.0
 40
0.0
 40
0.0
 40
0.0
 40
0.2722124298857164
 40
0.2722124298857164
 40
0.5059237502475059
 40
0.5059237502475059
 40
0.752961875123753
 40
0.752961875123753
 40
1.0
 40
1.0
 40
1.0
 40
1.0
 10
0.5596624003317041
 20
1.813501577801222
 30
0.0
 10
0.6573807400562226
 20
2.140005152618855
 30
0.0
 10
0.7969321021872966
 20
2.456590816591589
 30
0.0
 10
1.140170457168927
 20
2.976558246896437
 30
0.0
 10
1.336507669579636
 20
3.197298281508149
 30
0.0
 10
1.789150170299935
 20
3.579819016994782
 30
0.0
 10
2.050208004972071
 20
3.739402274836964
 30
0.0
 10
2.593415568719
 20
3.964231108963565
 30
0.0
 10
2.875345643903995
 20
4.029417858405867
 30
0.0
 10
3.149926011470555
 20
4.039708295863552
 30
0.0
  0
LWPOLYLINE
  5
B8
330
1F
100
AcDbEntity
  8
0
  6
Continuous
 62
     7
370
    25
100
AcDbPolyline
 90
        8
 70
   128
 43
0.0
 10
2.0711722496
 20
4.4791339391
 10
2.0812402117
 20
4.5235950691
 10
2.0949371708
 20
4.5631953184
 10
2.1117371512
 20
4.5964140008
 10
2.1309950181
 20
4.6219754884
 10
2.1519712514
 20
4.6388981962
 10
2.1738603446
 20
4.6465322768
 10
2.1816047289
 20
4.6469439562
  0
LWPOLYLINE
  5
BA
330
1F
100
AcDbEntity
  8
0
  6
Continuous
 62
     7
370
    25
100
AcDbPolyline
 90
        9
 70
   128
 43
0.0
 10
3.1625472604
 20
4.2148088324
 10
3.1638657881
 20
4.2625590634
 10
3.1611141195
 20
4.3116248481
 10
3.1543979997
 20
4.360120616
 10
3.1439755253
 20
4.4061827019
 10
3.1302472262
 20
4.4480409658
 10
3.1137406734
 20
4.4840868179
 10
3.0950902042
 20
4.5129350364
 10
3.0750125458
 20
4.5334770004
  0
LWPOLYLINE
  5
C1
330
1F
100
AcDbEntity
  8
0
  6
Continuous
 62
     8
370
    25
100
AcDbPolyline
 90
        7
 70
   128
 43
0.0
 10
-1.3730734618
 20
-1.5847572398
 10
-1.3708372606
 20
-1.5792450474
 10
-1.3591934254
 20
-1.5688650425
 10
-1.3386998646
 20
-1.561159326
 10
-1.3101441344
 20
-1.5564240243
 10
-1.2746236155
 20
-1.5548411125
 10
-1.2335033415
 20
-1.5564714208
  0
LWPOLYLINE
  5
C2
330
1F
100
AcDbEntity
  8
0
  6
Continuous
 62
     8
370
    25
100
AcDbPolyline
 90
        7
 70
   128
 43
0.0
 10
-1.2335033415
 20
-1.5564714208
 10
-1.2742445609
 20
-1.5532389496
 10
-1.309400592
 20
-1.5532812688
 10
-1.3376204082
 20
-1.5565967521
 10
-1.357819538
 20
-1.5630579874
 10
-1.36922174
 20
-1.5724166729
 10
-1.3712542424
 20
-1.5770666829
  0
LWPOLYLINE
  5
C3
330
1F
100
AcDbEntity
  8
0
  6
Continuous
 62
     8
370
    25
100
AcDbPolyline
 90
        7
 70
   128
 43
0.0
 10
-0.3031241189
 20
2.1164580393
 10
-0.3438653383
 20
2.1196905105
 10
-0.3790213694
 20
2.1196481913
 10
-0.4072411857
 20
2.116332708
 10
-0.4274403154
 20
2.1098714727
 10
-0.4388425174
 20
2.1005127871
 10
-0.4408750198
 20
2.0958627772
  0
LWPOLYLINE
  5
C4
330
1F
100
AcDbEntity
  8
0
  6
Continuous
 62
     8
370
    25
100
AcDbPolyline
 90
        7
 70
   128
 43
0.0
 10
-0.3031241189
 20
2.1164580393
 10
-0.3433705852
 20
2.1215067237
 10
-0.3780508762
 20
2.1232108217
 10
-0.405832248
 20
2.1215048456
 10
-0.4256470779
 20
2.1164543553
 10
-0.4367338931
 20
2.1082534381
 10
-0.4385160321
 20
2.10451932
  0
LWPOLYLINE
  5
C5
330
1F
100
AcDbEntity
  8
0
  6
Continuous
 62
     8
370
    25
100
AcDbPolyline
 90
        7
 70
   128
 43
0.0
 10
0.8768139563
 20
4.0168675215
 10
0.853588758
 20
4.0484768789
 10
0.835275617
 20
4.0757209381
 10
0.8225782972
 20
4.0975527251
 10
0.8159847494
 20
4.1131332566
 10
0.8157483599
 20
4.1218637816
 10
0.8164191477
 20
4.122708776
  0
LINE
  5
C6
330
1F
100
AcDbEntity
  8
0
  6
Continuous
 62
     7
370
    25
100
AcDbLine
 10
-1.3730734618
 20
-1.5847572398
 30
0.0
 11
-3.1560734408
 21
-9.6921611523
 31
0.0
  0
LINE
  5
C7
330
1F
100
AcDbEntity
  8
0
  6
Continuous
 62
     7
370
    25
100
AcDbLine
 10
-0.4408750198
 20
2.0958627772
 30
0.0
 11
-1.3712542424
 21
-1.5770666829
 31
0.0
  0
LINE
  5
C8
330
1F
100
AcDbEntity
  8
0
  6
Continuous
 62
     7
370
    25
100
AcDbLine
 10
2.9362671442
 20
4.6292447947
 30
0.0
 11
2.1816047289
 21
4.6469439562
 31
0.0
  0
LINE
  5
C9
330
1F
100
AcDbEntity
  8
0
  6
Continuous
 62
     7
370
    25
100
AcDbLine
 10
0.4759864243
 20
1.8790881372
 30
0.0
 11
-0.4759864243
 21
-1.8790881372
 31
0.0
  0
LINE
  5
CA
330
1F
100
AcDbEntity
  8
0
  6
Continuous
 62
     7
370
    25
100
AcDbLine
 10
-2.5866942424
 20
-9.8547709341
 30
0.0
 11
-0.4759864243
 21
-1.8790881372
 31
0.0
  0
LINE
  5
CB
330
1F
100
AcDbEntity
  8
0
  6
Continuous
 62
     7
370
    25
100
AcDbLine
 10
-2.5914541067
 20
-9.8735618155
 30
0.0
 11
-2.5866942424
 21
-9.8547709341
 31
0.0
  0
LINE
  5
CC
330
1F
100
AcDbEntity
  8
0
  6
Continuous
 62
     7
370
    25
100
AcDbLine
 10
-2.5914541067
 20
-9.8735618155
 30
0.0
 11
-2.8324957419
 21
-9.8464543862
 31
0.0
  0
LINE
  5
CD
330
1F
100
AcDbEntity
  8
0
  6
Continuous
 62
     7
370
    25
100
AcDbLine
 10
-2.8324957419
 20
-9.8464543862
 30
0.0
 11
-2.8277358776
 21
-9.8276635048
 31
0.0
  0
LINE
  5
CE
330
1F
100
AcDbEntity
  8
0
  6
Continuous
 62
     7
370
    25
100
AcDbLine
 10
-0.7171745655
 20
-1.8525343068
 30
0.0
 11
-2.8277358776
 21
-9.8276635048
 31
0.0
  0
LINE
  5
CF
330
1F
100
AcDbEntity
  8
0
  6
Continuous
 62
     7
370
    25
100
AcDbLine
 10
0.2344198773
 20
1.9041481061
 30
0.0
 11
-0.7171745655
 21
-1.8525343068
 31
0.0
  0
LINE
  5
D0
330
1F
100
AcDbEntity
  8
0
  6
Continuous
 62
     7
370
    25
100
AcDbLine
 10
3.0849006083
 20
4.3640430462
 30
0.0
 11
3.0662500354
 21
4.1052948553
 31
0.0
  0
LINE
  5
D1
330
1F
100
AcDbEntity
  8
0
  6
Continuous
 62
     7
370
    25
100
AcDbLine
 10
-2.5077781306
 20
-9.9391483749
 30
0.0
 11
-2.5914541067
 21
-9.8735618155
 31
0.0
  0
LINE
  5
D2
330
1F
100
AcDbEntity
  8
0
  6
Continuous
 62
     7
370
    25
100
AcDbLine
 10
-3.0281695243
 20
-9.8104049048
 30
0.0
 11
-3.1327644944
 21
-9.7284217056
 31
0.0
  0
LINE
  5
D3
330
1F
100
AcDbEntity
  8
0
  6
Continuous
 62
     7
370
    25
100
AcDbLine
 10
-2.9619935541
 20
-9.8038029238
 30
0.0
 11
-3.1291256892
 21
-9.672802101
 31
0.0
  0
LINE
  5
D4
330
1F
100
AcDbEntity
  8
0
  6
Continuous
 62
     7
370
    25
100
AcDbLine
 10
-2.7043066759
 20
-9.9170468668
 30
0.0
 11
-2.5077781306
 21
-9.9391483749
 31
0.0
  0
LINE
  5
D5
330
1F
100
AcDbEntity
  8
0
  6
Continuous
 62
     7
370
    25
100
AcDbLine
 10
-0.0828239693
 20
2.0964167875
 30
0.0
 11
-1.0347968178
 21
-1.6617594869
 31
0.0
  0
LINE
  5
D6
330
1F
100
AcDbEntity
  8
0
  6
Continuous
 62
     7
370
    25
100
AcDbLine
 10
-2.3477108904
 20
-6.622837516
 30
0.0
 11
-1.0347968178
 21
-1.6617594869
 31
0.0
  0
LINE
  5
D7
330
1F
100
AcDbEntity
  8
0
  6
Continuous
 62
     7
370
    25
100
AcDbLine
 10
-1.2335033415
 20
-1.5564714208
 30
0.0
 11
-2.3477108904
 21
-6.622837516
 31
0.0
  0
LINE
  5
D8
330
1F
100
AcDbEntity
  8
0
  6
Continuous
 62
     7
370
    25
100
AcDbLine
 10
-0.3031241189
 20
2.1164580393
 30
0.0
 11
-1.2335033415
 21
-1.5564714208
 31
0.0
  0
LINE
  5
D9
330
1F
100
AcDbEntity
  8
0
  6
Continuous
 62
     7
370
    25
100
AcDbLine
 10
-0.8465258717
 20
-1.8093292456
 30
0.0
 11
-1.0347968178
 21
-1.6617594869
 31
0.0
  0
LINE
  5
DA
330
1F
100
AcDbEntity
  8
0
  6
Continuous
 62
     7
370
    25
100
AcDbLine
 10
-2.9572336898
 20
-9.7850120424
 30
0.0
 11
-0.8465258717
 21
-1.8093292456
 31
0.0
  0
LINE
  5
DB
330
1F
100
AcDbEntity
  8
0
  6
Continuous
 62
     7
370
    25
100
AcDbLine
 10
-2.9572336898
 20
-9.7850120424
 30
0.0
 11
-3.124585642
 21
-9.6538389236
 31
0.0
  0
LINE
  5
DC
330
1F
100
AcDbEntity
  8
0
  6
Continuous
 62
     7
370
    25
100
AcDbLine
 10
-3.124585642
 20
-9.6538389236
 30
0.0
 11
-3.1291256892
 21
-9.672802101
 31
0.0
  0
LINE
  5
DD
330
1F
100
AcDbEntity
  8
0
  6
Continuous
 62
     7
370
    25
100
AcDbLine
 10
-2.9619935541
 20
-9.8038029238
 30
0.0
 11
-2.9572336898
 21
-9.7850120424
 31
0.0
  0
LINE
  5
DE
330
1F
100
AcDbEntity
  8
0
  6
Continuous
 62
     7
370
    25
100
AcDbLine
 10
-2.5030182664
 20
-9.9203574935
 30
0.0
 11
-2.5866942424
 21
-9.8547709341
 31
0.0
  0
LINE
  5
DF
330
1F
100
AcDbEntity
  8
0
  6
Continuous
 62
     7
370
    25
100
AcDbLine
 10
-0.3923104482
 20
-1.9446746966
 30
0.0
 11
-0.4759864243
 21
-1.8790881372
 31
0.0
  0
LINE
  5
E0
330
1F
100
AcDbEntity
  8
0
  6
Continuous
 62
     7
370
    25
100
AcDbLine
 10
-2.5030182664
 20
-9.9203574935
 30
0.0
 11
-0.3923104482
 21
-1.9446746966
 31
0.0
  0
LINE
  5
E1
330
1F
100
AcDbEntity
  8
0
  6
Continuous
 62
     7
370
    25
100
AcDbLine
 10
-2.5077781306
 20
-9.9391483749
 30
0.0
 11
-2.5030182664
 21
-9.9203574935
 31
0.0
  0
LINE
  5
E2
330
1F
100
AcDbEntity
  8
0
  6
Continuous
 62
     7
370
    25
100
AcDbLine
 10
-0.0828239693
 20
2.0964167875
 30
0.0
 11
0.1054469769
 21
1.9488470289
 31
0.0
  0
LINE
  5
E3
330
1F
100
AcDbEntity
  8
0
  6
Continuous
 62
     7
370
    25
100
AcDbLine
 10
2.0707481844
 20
4.4789826959
 30
0.0
 11
2.0711722292
 21
4.4791339522
 31
0.0
  0
LINE
  5
E4
330
1F
100
AcDbEntity
  8
0
  6
Continuous
 62
     7
370
    25
100
AcDbLine
 10
2.8971674205
 20
4.6107247865
 30
0.0
 11
3.0498533369
 21
4.4910471395
 31
0.0
  0
LINE
  5
E5
330
1F
100
AcDbEntity
  8
0
  6
Continuous
 62
     7
370
    25
100
AcDbLine
 10
-0.8465258717
 20
-1.8093292456
 30
0.0
 11
0.1054469769
 21
1.9488470289
 31
0.0
  0
LINE
  5
E6
330
1F
100
AcDbEntity
  8
0
  6
Continuous
 62
     7
370
    25
100
AcDbLine
 10
0.4759864243
 20
1.8790881372
 30
0.0
 11
0.5596624003
 21
1.8135015778
 31
0.0
  0
LINE
  5
E7
330
1F
100
AcDbEntity
  8
0
  6
Continuous
 62
     7
370
    25
100
AcDbLine
 10
3.0662500354
 20
4.1052948553
 30
0.0
 11
3.1499260115
 21
4.0397082959
 31
0.0
  0
LINE
  5
E8
330
1F
100
AcDbEntity
  8
0
  6
Continuous
 62
     7
370
    25
100
AcDbLine
 10
0.5596624003
 20
1.8135015778
 30
0.0
 11
-0.3923104482
 21
-1.9446746966
 31
0.0
  0
LINE
  5
E9
330
1F
100
AcDbEntity
  8
0
  6
Continuous
 62
     7
370
    25
100
AcDbLine
 10
3.0750125458
 20
4.5334770004
 30
0.0
 11
2.9704175757
 21
4.6154601997
 31
0.0
  0
LINE
  5
EA
330
1F
100
AcDbEntity
  8
0
  6
Continuous
 62
     7
370
    25
100
AcDbLine
 10
3.1499260115
 20
4.0397082959
 30
0.0
 11
3.1625472604
 21
4.2148088324
 31
0.0
  0
ARC
  5
EB
330
1F
100
AcDbEntity
  8
0
  6
Continuous
 62
     7
370
    25
100
AcDbCircle
 10
-1.1289083714
 20
-1.6384546201
 30
0.0
 40
0.2500000000013347
100
AcDbArc
 50
165.785557299
 51
167.5968207311
  0
ARC
  5
EC
330
1F
100
AcDbEntity
  8
0
  6
Continuous
 62
     7
370
    25
100
AcDbCircle
 10
-0.1985291489
 20
2.03447484
 30
0.0
 40
0.2499999999991693
100
AcDbArc
 50
163.742980857
 51
165.785557299
  0
ARC
  5
ED
330
1F
100
AcDbEntity
  8
0
  6
Continuous
 62
     7
370
    25
100
AcDbCircle
 10
-2.8049068845
 20
-9.5447739454
 30
0.0
 40
0.3029393229593969
100
AcDbArc
 50
238.7655180647
 51
264.7748007039
  0
ARC
  5
EE
330
1F
100
AcDbEntity
  8
0
  6
Continuous
 62
     7
370
    25
100
AcDbCircle
 10
-2.6353359056
 20
-9.1624949539
 30
0.0
 40
0.7576975362891077
100
AcDbArc
 50
238.771190693
 51
264.777320012
  0
ARC
  5
EF
330
1F
100
AcDbEntity
  8
0
  6
Continuous
 62
     7
370
    25
100
AcDbCircle
 10
2.0716589948
 20
2.70331717
 30
0.0
 40
1.775688371280119
100
AcDbArc
 50
90.0295247914
 51
132.2906013395
  0
ARC
  5
F0
330
1F
100
AcDbEntity
  8
0
  6
Continuous
 62
     7
370
    25
100
AcDbCircle
 10
175.9580393748
 20
-53.9393735739
 30
0.0
 40
184.4770857374088
100
AcDbArc
 50
165.1381047202
 51
166.1099294177
  0
ARC
  5
F1
330
1F
100
AcDbEntity
  8
0
  6
Continuous
 62
     7
370
    25
100
AcDbCircle
 10
-0.6871601804
 20
-1.5474399865
 30
0.0
 40
0.3065671338610859
100
AcDbArc
 50
238.6785170406
 51
264.3814693974
  0
ARC
  5
F2
330
1F
100
AcDbEntity
  8
0
  6
Continuous
 62
     7
370
    25
100
AcDbCircle
 10
-2.8001470202
 20
-9.5259830641
 30
0.0
 40
0.302939322959419
100
AcDbArc
 50
238.7655180647
 51
264.7748007039
  0
ARC
  5
F3
330
1F
100
AcDbEntity
  8
0
  6
Continuous
 62
     7
370
    25
100
AcDbCircle
 10
-2.4362902227
 20
-9.3079743541
 30
0.0
 40
0.0914700720663911
100
AcDbArc
 50
108.4653541271
 51
175.3548213067
  0
ARC
  5
F4
330
1F
100
AcDbEntity
  8
0
  6
Continuous
 62
     7
370
    25
100
AcDbCircle
 10
-1.939653089
 20
-7.4313431078
 30
0.0
 40
0.0914700720654809
100
AcDbArc
 50
108.4653541215
 51
175.3548213125
  0
ARC
  5
F5
330
1F
100
AcDbEntity
  8
0
  6
Continuous
 62
     7
370
    25
100
AcDbCircle
 10
-1.4430159553
 20
-5.5547118615
 30
0.0
 40
0.0914700720654672
100
AcDbArc
 50
108.4653541214
 51
175.3548213126
  0
ARC
  5
F6
330
1F
100
AcDbEntity
  8
0
  6
Continuous
 62
     7
370
    25
100
AcDbCircle
 10
-0.9463442503
 20
-3.6779499813
 30
0.0
 40
0.0914700720656682
100
AcDbArc
 50
108.4653541226
 51
175.3548213113
  0
ARC
  5
F7
330
1F
100
AcDbEntity
  8
0
  6
Continuous
 62
     7
370
    25
100
AcDbCircle
 10
-0.4512905915
 20
-1.8011207902
 30
0.0
 40
0.0914700720656573
100
AcDbArc
 50
108.4653541226
 51
175.3548213114
  0
ARC
  5
F8
330
1F
100
AcDbEntity
  8
0
  6
Continuous
 62
     7
370
    25
100
AcDbCircle
 10
2.9360386678
 20
4.5783474201
 30
0.0
 40
0.0505892055964076
100
AcDbArc
 50
47.1899472327
 51
140.2077753574
  0
ARC
  5
F9
330
1F
100
AcDbEntity
  8
0
  6
Continuous
 62
     7
370
    25
100
AcDbCircle
 10
0.0246958328
 20
0.077967347
 30
0.0
 40
0.0914700720656572
100
AcDbArc
 50
108.4653541226
 51
175.3548213114
  0
ARC
  5
FA
330
1F
100
AcDbEntity
  8
0
  6
Continuous
 62
     7
370
    25
100
AcDbCircle
 10
2.8411655375
 20
4.0980032846
 30
0.0
 40
0.0914700720656643
100
AcDbArc
 50
108.4653541226
 51
175.3548213113
  0
ARC
  5
FB
330
1F
100
AcDbEntity
  8
0
  6
Continuous
 62
     7
370
    25
100
AcDbCircle
 10
0.500682257
 20
1.9570554842
 30
0.0
 40
0.0914700720656591
100
AcDbArc
 50
108.4653541226
 51
175.3548213114
  0
ARC
  5
FC
330
1F
100
AcDbEntity
  8
0
  6
Continuous
 62
     7
370
    25
100
AcDbCircle
 10
1.3700136948
 20
3.33651061
 30
0.0
 40
0.0914700720656439
100
AcDbArc
 50
108.4653541225
 51
175.3548213115
  0
ENDSEC
  0
SECTION
  2
OBJECTS
  0
DICTIONARY
  5
C
330
0
100
AcDbDictionary
281
     1
  3
ACAD_GROUP
350
D
  3
ACAD_LAYOUT
350
1A
  3
ACAD_MLINESTYLE
350
17
  3
ACAD_PLOTSETTINGS
350
19
  3
ACAD_PLOTSTYLENAME
350
E
  3
ACAD_SCALELIST
350
47
  0
DICTIONARY
  5
D
102
{ACAD_REACTORS
330
C
102
}
330
C
100
AcDbDictionary
281
     1
  0
DICTIONARY
  5
1A
102
{ACAD_REACTORS
330
C
102
}
330
C
100
AcDbDictionary
281
     1
  3
Layout1
350
1E
  3
Layout2
350
26
  3
Model
350
22
  0
DICTIONARY
  5
17
102
{ACAD_REACTORS
330
C
102
}
330
C
100
AcDbDictionary
281
     1
  3
Standard
350
18
  0
DICTIONARY
  5
19
102
{ACAD_REACTORS
330
C
102
}
330
C
100
AcDbDictionary
281
     1
  0
ACDBDICTIONARYWDFLT
  5
E
102
{ACAD_REACTORS
330
C
102
}
330
C
100
AcDbDictionary
281
     1
  3
Normal
350
F
100
AcDbDictionaryWithDefault
340
F
  0
DICTIONARY
  5
47
102
{ACAD_REACTORS
330
C
102
}
330
C
100
AcDbDictionary
281
     1
  3
A0
350
48
  3
A1
350
49
  3
A2
350
4A
  3
A3
350
4B
  3
A4
350
4C
  3
A5
350
4D
  3
A6
350
4E
  3
A7
350
4F
  3
A8
350
50
  3
A9
350
51
  3
B0
350
52
  3
B1
350
53
  3
B2
350
54
  3
B3
350
55
  3
B4
350
56
  3
B5
350
57
  3
B6
350
58
  3
B7
350
59
  3
B8
350
5A
  3
B9
350
5B
  3
C0
350
5C
  3
C1
350
5D
  3
C2
350
5E
  3
C3
350
5F
  3
C4
350
60
  3
C5
350
61
  3
C6
350
62
  3
C7
350
63
  3
C8
350
64
  3
C9
350
65
  3
D0
350
66
  3
D1
350
67
  3
D2
350
68
  0
LAYOUT
  5
1E
102
{ACAD_REACTORS
330
1A
102
}
330
1A
100
AcDbPlotSettings
  1

  2
none_device
  4

  6

 40
0.0
 41
0.0
 42
0.0
 43
0.0
 44
0.0
 45
0.0
 46
0.0
 47
0.0
 48
0.0
 49
0.0
140
0.0
141
0.0
142
1.0
143
1.0
 70
   688
 72
     0
 73
     0
 74
     5
  7

 75
    16
147
1.0
148
0.0
149
0.0
100
AcDbLayout
  1
Layout1
 70
     1
 71
     1
 10
0.0
 20
0.0
 11
12.0
 21
9.0
 12
0.0
 22
0.0
 32
0.0
 14
1.0000000000E+20
 24
1.0000000000E+20
 34
1.0000000000E+20
 15
-1.0000000000E+20
 25
-1.0000000000E+20
 35
-1.0000000000E+20
146
0.0
 13
0.0
 23
0.0
 33
0.0
 16
1.0
 26
0.0
 36
0.0
 17
0.0
 27
1.0
 37
0.0
 76
     0
330
1B
  0
LAYOUT
  5
26
102
{ACAD_REACTORS
330
1A
102
}
330
1A
100
AcDbPlotSettings
  1

  2
none_device
  4

  6

 40
0.0
 41
0.0
 42
0.0
 43
0.0
 44
0.0
 45
0.0
 46
0.0
 47
0.0
 48
0.0
 49
0.0
140
0.0
141
0.0
142
1.0
143
1.0
 70
   688
 72
     0
 73
     0
 74
     5
  7

 75
    16
147
1.0
148
0.0
149
0.0
100
AcDbLayout
  1
Layout2
 70
     1
 71
     2
 10
0.0
 20
0.0
 11
0.0
 21
0.0
 12
0.0
 22
0.0
 32
0.0
 14
0.0
 24
0.0
 34
0.0
 15
0.0
 25
0.0
 35
0.0
146
0.0
 13
0.0
 23
0.0
 33
0.0
 16
1.0
 26
0.0
 36
0.0
 17
0.0
 27
1.0
 37
0.0
 76
     0
330
23
  0
LAYOUT
  5
22
102
{ACAD_REACTORS
330
1A
102
}
330
1A
100
AcDbPlotSettings
  1

  2
none_device
  4
ANSI_A_(11.00_x_8.50_Inches)
  6

 40
6.35
 41
19.05
 42
6.35000508
 43
19.05000254
 44
279.4
 45
215.9
 46
133.292903892
 47
127.675327961
 48
0.0
 49
0.0
140
0.0
141
0.0
142
0.576919425
143
1.0
 70
  1696
 72
     0
 73
     0
 74
     0
  7

 75
     0
147
0.5913241897
148
-39.4088153714
149
0.0
100
AcDbLayout
  1
Model
 70
     1
 71
     0
 10
0.0
 20
0.0
 11
12.0
 21
9.0
 12
0.0
 22
0.0
 32
0.0
 14
-3.1560734408
 24
-9.9391483749
 34
0.0
 15
3.1638657881
 25
4.6469439562
 35
0.0
146
0.0
 13
0.0
 23
0.0
 33
0.0
 16
1.0
 26
0.0
 36
0.0
 17
0.0
 27
1.0
 37
0.0
 76
     0
330
1F
331
29
  0
MLINESTYLE
  5
18
102
{ACAD_REACTORS
330
17
102
}
330
17
100
AcDbMlineStyle
  2
Standard
 70
     0
  3

 62
   256
 51
90.0
 52
90.0
 71
     2
 49
0.5
 62
   256
  6
BYLAYER
 49
-0.5
 62
   256
  6
BYLAYER
  0
ACDBPLACEHOLDER
  5
F
102
{ACAD_REACTORS
330
E
102
}
330
E
  0
SCALE
  5
48
102
{ACAD_REACTORS
330
47
102
}
330
47
100
AcDbScale
 70
     0
300
1:1
140
1.0
141
1.0
290
     1
  0
SCALE
  5
49
102
{ACAD_REACTORS
330
47
102
}
330
47
100
AcDbScale
 70
     0
300
1:2
140
1.0
141
2.0
290
     0
  0
SCALE
  5
4A
102
{ACAD_REACTORS
330
47
102
}
330
47
100
AcDbScale
 70
     0
300
1:4
140
1.0
141
4.0
290
     0
  0
SCALE
  5
4B
102
{ACAD_REACTORS
330
47
102
}
330
47
100
AcDbScale
 70
     0
300
1:5
140
1.0
141
5.0
290
     0
  0
SCALE
  5
4C
102
{ACAD_REACTORS
330
47
102
}
330
47
100
AcDbScale
 70
     0
300
1:8
140
1.0
141
8.0
290
     0
  0
SCALE
  5
4D
102
{ACAD_REACTORS
330
47
102
}
330
47
100
AcDbScale
 70
     0
300
1:10
140
1.0
141
10.0
290
     0
  0
SCALE
  5
4E
102
{ACAD_REACTORS
330
47
102
}
330
47
100
AcDbScale
 70
     0
300
1:16
140
1.0
141
16.0
290
     0
  0
SCALE
  5
4F
102
{ACAD_REACTORS
330
47
102
}
330
47
100
AcDbScale
 70
     0
300
1:20
140
1.0
141
20.0
290
     0
  0
SCALE
  5
50
102
{ACAD_REACTORS
330
47
102
}
330
47
100
AcDbScale
 70
     0
300
1:30
140
1.0
141
30.0
290
     0
  0
SCALE
  5
51
102
{ACAD_REACTORS
330
47
102
}
330
47
100
AcDbScale
 70
     0
300
1:40
140
1.0
141
40.0
290
     0
  0
SCALE
  5
52
102
{ACAD_REACTORS
330
47
102
}
330
47
100
AcDbScale
 70
     0
300
1:50
140
1.0
141
50.0
290
     0
  0
SCALE
  5
53
102
{ACAD_REACTORS
330
47
102
}
330
47
100
AcDbScale
 70
     0
300
1:100
140
1.0
141
100.0
290
     0
  0
SCALE
  5
54
102
{ACAD_REACTORS
330
47
102
}
330
47
100
AcDbScale
 70
     0
300
2:1
140
2.0
141
1.0
290
     0
  0
SCALE
  5
55
102
{ACAD_REACTORS
330
47
102
}
330
47
100
AcDbScale
 70
     0
300
4:1
140
4.0
141
1.0
290
     0
  0
SCALE
  5
56
102
{ACAD_REACTORS
330
47
102
}
330
47
100
AcDbScale
 70
     0
300
8:1
140
8.0
141
1.0
290
     0
  0
SCALE
  5
57
102
{ACAD_REACTORS
330
47
102
}
330
47
100
AcDbScale
 70
     0
300
10:1
140
10.0
141
1.0
290
     0
  0
SCALE
  5
58
102
{ACAD_REACTORS
330
47
102
}
330
47
100
AcDbScale
 70
     0
300
100:1
140
100.0
141
1.0
290
     0
  0
SCALE
  5
59
102
{ACAD_REACTORS
330
47
102
}
330
47
100
AcDbScale
 70
     0
300
1/128" = 1'-0"
140
0.0078125
141
12.0
290
     0
  0
SCALE
  5
5A
102
{ACAD_REACTORS
330
47
102
}
330
47
100
AcDbScale
 70
     0
300
1/64" = 1'-0"
140
0.015625
141
12.0
290
     0
  0
SCALE
  5
5B
102
{ACAD_REACTORS
330
47
102
}
330
47
100
AcDbScale
 70
     0
300
1/32" = 1'-0"
140
0.03125
141
12.0
290
     0
  0
SCALE
  5
5C
102
{ACAD_REACTORS
330
47
102
}
330
47
100
AcDbScale
 70
     0
300
1/16" = 1'-0"
140
0.0625
141
12.0
290
     0
  0
SCALE
  5
5D
102
{ACAD_REACTORS
330
47
102
}
330
47
100
AcDbScale
 70
     0
300
3/32" = 1'-0"
140
0.09375
141
12.0
290
     0
  0
SCALE
  5
5E
102
{ACAD_REACTORS
330
47
102
}
330
47
100
AcDbScale
 70
     0
300
1/8" = 1'-0"
140
0.125
141
12.0
290
     0
  0
SCALE
  5
5F
102
{ACAD_REACTORS
330
47
102
}
330
47
100
AcDbScale
 70
     0
300
3/16" = 1'-0"
140
0.1875
141
12.0
290
     0
  0
SCALE
  5
60
102
{ACAD_REACTORS
330
47
102
}
330
47
100
AcDbScale
 70
     0
300
1/4" = 1'-0"
140
0.25
141
12.0
290
     0
  0
SCALE
  5
61
102
{ACAD_REACTORS
330
47
102
}
330
47
100
AcDbScale
 70
     0
300
3/8" = 1'-0"
140
0.375
141
12.0
290
     0
  0
SCALE
  5
62
102
{ACAD_REACTORS
330
47
102
}
330
47
100
AcDbScale
 70
     0
300
1/2" = 1'-0"
140
0.5
141
12.0
290
     0
  0
SCALE
  5
63
102
{ACAD_REACTORS
330
47
102
}
330
47
100
AcDbScale
 70
     0
300
3/4" = 1'-0"
140
0.75
141
12.0
290
     0
  0
SCALE
  5
64
102
{ACAD_REACTORS
330
47
102
}
330
47
100
AcDbScale
 70
     0
300
1" = 1'-0"
140
1.0
141
12.0
290
     0
  0
SCALE
  5
65
102
{ACAD_REACTORS
330
47
102
}
330
47
100
AcDbScale
 70
     0
300
1-1/2" = 1'-0"
140
1.5
141
12.0
290
     0
  0
SCALE
  5
66
102
{ACAD_REACTORS
330
47
102
}
330
47
100
AcDbScale
 70
     0
300
3" = 1'-0"
140
3.0
141
12.0
290
     0
  0
SCALE
  5
67
102
{ACAD_REACTORS
330
47
102
}
330
47
100
AcDbScale
 70
     0
300
6" = 1'-0"
140
6.0
141
12.0
290
     0
  0
SCALE
  5
68
102
{ACAD_REACTORS
330
47
102
}
330
47
100
AcDbScale
 70
     0
300
1'-0" = 1'-0"
140
12.0
141
12.0
290
     0
  0
ENDSEC
  0
EOF
