  0
SECTION
  2
HEADER
  9
$ACADVER
  1
AC1024
  9
$ACADMAINTVER
 70
     6
  9
$DWGCODEPAGE
  3
ANSI_1252
  9
$INSBASE
 10
0.0
 20
0.0
 30
0.0
  9
$EXTMIN
 10
1.000000000000000E+20
 20
1.000000000000000E+20
 30
1.000000000000000E+20
  9
$EXTMAX
 10
-1.000000000000000E+20
 20
-1.000000000000000E+20
 30
-1.000000000000000E+20
  9
$LIMMIN
 10
0.0
 20
0.0
  9
$LIMMAX
 10
12.0
 20
9.0
  9
$ORTHOMODE
 70
     0
  9
$REGENMODE
 70
     1
  9
$FILLMODE
 70
     1
  9
$QTEXTMODE
 70
     0
  9
$MIRRTEXT
 70
     0
  9
$LTSCALE
 40
1.0
  9
$ATTMODE
 70
     1
  9
$TEXTSIZE
 40
0.2
  9
$TRACEWID
 40
0.05
  9
$TEXTSTYLE
  7
Standard
  9
$CLAYER
  8
0
  9
$CELTYPE
  6
ByLayer
  9
$CECOLOR
 62
   256
  9
$CELTSCALE
 40
1.0
  9
$DISPSILH
 70
     0
  9
$DIMSCALE
 40
1.0
  9
$DIMASZ
 40
0.18
  9
$DIMEXO
 40
0.0625
  9
$DIMDLI
 40
0.38
  9
$DIMRND
 40
0.0
  9
$DIMDLE
 40
0.0
  9
$DIMEXE
 40
0.18
  9
$DIMTP
 40
0.0
  9
$DIMTM
 40
0.0
  9
$DIMTXT
 40
0.18
  9
$DIMCEN
 40
0.09
  9
$DIMTSZ
 40
0.0
  9
$DIMTOL
 70
     0
  9
$DIMLIM
 70
     0
  9
$DIMTIH
 70
     1
  9
$DIMTOH
 70
     1
  9
$DIMSE1
 70
     0
  9
$DIMSE2
 70
     0
  9
$DIMTAD
 70
     0
  9
$DIMZIN
 70
     0
  9
$DIMBLK
  1

  9
$DIMASO
 70
     1
  9
$DIMSHO
 70
     1
  9
$DIMPOST
  1

  9
$DIMAPOST
  1

  9
$DIMALT
 70
     0
  9
$DIMALTD
 70
     2
  9
$DIMALTF
 40
25.4
  9
$DIMLFAC
 40
1.0
  9
$DIMTOFL
 70
     0
  9
$DIMTVP
 40
0.0
  9
$DIMTIX
 70
     0
  9
$DIMSOXD
 70
     0
  9
$DIMSAH
 70
     0
  9
$DIMBLK1
  1

  9
$DIMBLK2
  1

  9
$DIMSTYLE
  2
Standard
  9
$DIMCLRD
 70
     0
  9
$DIMCLRE
 70
     0
  9
$DIMCLRT
 70
     0
  9
$DIMTFAC
 40
1.0
  9
$DIMGAP
 40
0.09
  9
$DIMJUST
 70
     0
  9
$DIMSD1
 70
     0
  9
$DIMSD2
 70
     0
  9
$DIMTOLJ
 70
     1
  9
$DIMTZIN
 70
     0
  9
$DIMALTZ
 70
     0
  9
$DIMALTTZ
 70
     0
  9
$DIMUPT
 70
     0
  9
$DIMDEC
 70
     4
  9
$DIMTDEC
 70
     4
  9
$DIMALTU
 70
     2
  9
$DIMALTTD
 70
     2
  9
$DIMTXSTY
  7
Standard
  9
$DIMAUNIT
 70
     0
  9
$DIMADEC
 70
     0
  9
$DIMALTRND
 40
0.0
  9
$DIMAZIN
 70
     0
  9
$DIMDSEP
 70
    46
  9
$DIMATFIT
 70
     3
  9
$DIMFRAC
 70
     0
  9
$DIMLDRBLK
  1

  9
$DIMLUNIT
 70
     2
  9
$DIMLWD
 70
    -2
  9
$DIMLWE
 70
    -2
  9
$DIMTMOVE
 70
     0
  9
$DIMFXL
 40
1.0
  9
$DIMFXLON
 70
     0
  9
$DIMJOGANG
 40
0.7853981633974483
  9
$DIMTFILL
 70
     0
  9
$DIMTFILLCLR
 70
     0
  9
$DIMARCSYM
 70
     0
  9
$DIMLTYPE
  6

  9
$DIMLTEX1
  6

  9
$DIMLTEX2
  6

  9
$DIMTXTDIRECTION
 70
     0
  9
$LUNITS
 70
     2
  9
$LUPREC
 70
     4
  9
$SKETCHINC
 40
0.1
  9
$FILLETRAD
 40
1.0
  9
$AUNITS
 70
     0
  9
$AUPREC
 70
     0
  9
$MENU
  1
.
  9
$ELEVATION
 40
0.0
  9
$PELEVATION
 40
0.0
  9
$THICKNESS
 40
0.0
  9
$LIMCHECK
 70
     0
  9
$CHAMFERA
 40
0.0
  9
$CHAMFERB
 40
0.0
  9
$CHAMFERC
 40
0.0
  9
$CHAMFERD
 40
0.0
  9
$SKPOLY
 70
     0
  9
$TDCREATE
 40
2452642.771717604
  9
$TDUCREATE
 40
2452643.063384271
  9
$TDUPDATE
 40
2453782.761873553
  9
$TDUUPDATE
 40
2453783.05354022
  9
$TDINDWG
 40
0.0042459954
  9
$TDUSRTIMER
 40
2457492.553637488
  9
$USRTIMER
 70
     1
  9
$ANGBASE
 50
0.0
  9
$ANGDIR
 70
     0
  9
$PDMODE
 70
     0
  9
$PDSIZE
 40
0.0
  9
$PLINEWID
 40
0.0
  9
$SPLFRAME
 70
     0
  9
$SPLINETYPE
 70
     6
  9
$SPLINESEGS
 70
     8
  9
$HANDSEED
  5
D2
  9
$SURFTAB1
 70
     6
  9
$SURFTAB2
 70
     6
  9
$SURFTYPE
 70
     6
  9
$SURFU
 70
     6
  9
$SURFV
 70
     6
  9
$UCSBASE
  2

  9
$UCSNAME
  2

  9
$UCSORG
 10
0.0
 20
0.0
 30
0.0
  9
$UCSXDIR
 10
1.0
 20
0.0
 30
0.0
  9
$UCSYDIR
 10
0.0
 20
1.0
 30
0.0
  9
$UCSORTHOREF
  2

  9
$UCSORTHOVIEW
 70
     0
  9
$UCSORGTOP
 10
0.0
 20
0.0
 30
0.0
  9
$UCSORGBOTTOM
 10
0.0
 20
0.0
 30
0.0
  9
$UCSORGLEFT
 10
0.0
 20
0.0
 30
0.0
  9
$UCSORGRIGHT
 10
0.0
 20
0.0
 30
0.0
  9
$UCSORGFRONT
 10
0.0
 20
0.0
 30
0.0
  9
$UCSORGBACK
 10
0.0
 20
0.0
 30
0.0
  9
$PUCSBASE
  2

  9
$PUCSNAME
  2

  9
$PUCSORG
 10
0.0
 20
0.0
 30
0.0
  9
$PUCSXDIR
 10
1.0
 20
0.0
 30
0.0
  9
$PUCSYDIR
 10
0.0
 20
1.0
 30
0.0
  9
$PUCSORTHOREF
  2

  9
$PUCSORTHOVIEW
 70
     0
  9
$PUCSORGTOP
 10
0.0
 20
0.0
 30
0.0
  9
$PUCSORGBOTTOM
 10
0.0
 20
0.0
 30
0.0
  9
$PUCSORGLEFT
 10
0.0
 20
0.0
 30
0.0
  9
$PUCSORGRIGHT
 10
0.0
 20
0.0
 30
0.0
  9
$PUCSORGFRONT
 10
0.0
 20
0.0
 30
0.0
  9
$PUCSORGBACK
 10
0.0
 20
0.0
 30
0.0
  9
$USERI1
 70
     0
  9
$USERI2
 70
     0
  9
$USERI3
 70
     0
  9
$USERI4
 70
     0
  9
$USERI5
 70
     0
  9
$USERR1
 40
0.0
  9
$USERR2
 40
0.0
  9
$USERR3
 40
0.0
  9
$USERR4
 40
0.0
  9
$USERR5
 40
0.0
  9
$WORLDVIEW
 70
     1
  9
$SHADEDGE
 70
     3
  9
$SHADEDIF
 70
    70
  9
$TILEMODE
 70
     1
  9
$MAXACTVP
 70
    64
  9
$PINSBASE
 10
0.0
 20
0.0
 30
0.0
  9
$PLIMCHECK
 70
     0
  9
$PEXTMIN
 10
0.0
 20
0.0
 30
0.0
  9
$PEXTMAX
 10
0.0
 20
0.0
 30
0.0
  9
$PLIMMIN
 10
0.0
 20
0.0
  9
$PLIMMAX
 10
12.0
 20
9.0
  9
$UNITMODE
 70
     0
  9
$VISRETAIN
 70
     1
  9
$PLINEGEN
 70
     0
  9
$PSLTSCALE
 70
     1
  9
$TREEDEPTH
 70
  3020
  9
$CMLSTYLE
  2
Standard
  9
$CMLJUST
 70
     0
  9
$CMLSCALE
 40
1.0
  9
$PROXYGRAPHICS
 70
     1
  9
$MEASUREMENT
 70
     0
  9
$CELWEIGHT
370
    -1
  9
$ENDCAPS
280
     0
  9
$JOINSTYLE
280
     0
  9
$LWDISPLAY
290
     0
  9
$INSUNITS
 70
     1
  9
$HYPERLINKBASE
  1

  9
$STYLESHEET
  1

  9
$XEDIT
290
     1
  9
$CEPSNTYPE
380
     0
  9
$PSTYLEMODE
290
     1
  9
$FINGERPRINTGUID
  2
{FDEAD576-A652-11D2-9A35-0060089B3A3F}
  9
$VERSIONGUID
  2
{FBC2AE19-5C5C-49EC-81BC-71B1A3362A02}
  9
$EXTNAMES
290
     1
  9
$PSVPSCALE
 40
0.0
  9
$OLESTARTUP
290
     0
  9
$SORTENTS
280
   127
  9
$INDEXCTL
280
     0
  9
$HIDETEXT
280
     1
  9
$XCLIPFRAME
280
     0
  9
$HALOGAP
280
     0
  9
$OBSCOLOR
 70
   257
  9
$OBSLTYPE
280
     0
  9
$INTERSECTIONDISPLAY
280
     0
  9
$INTERSECTIONCOLOR
 70
   257
  9
$DIMASSOC
280
     2
  9
$PROJECTNAME
  1

  9
$CAMERADISPLAY
290
     0
  9
$LENSLENGTH
 40
50.0
  9
$CAMERAHEIGHT
 40
0.0
  9
$STEPSPERSEC
 40
2.0
  9
$STEPSIZE
 40
6.0
  9
$3DDWFPREC
 40
2.0
  9
$PSOLWIDTH
 40
0.25
  9
$PSOLHEIGHT
 40
4.0
  9
$LOFTANG1
 40
1.570796326794897
  9
$LOFTANG2
 40
1.570796326794897
  9
$LOFTMAG1
 40
0.0
  9
$LOFTMAG2
 40
0.0
  9
$LOFTPARAM
 70
     7
  9
$LOFTNORMALS
280
     1
  9
$LATITUDE
 40
37.795
  9
$LONGITUDE
 40
-122.394
  9
$NORTHDIRECTION
 40
0.0
  9
$TIMEZONE
 70
 -8000
  9
$LIGHTGLYPHDISPLAY
280
     1
  9
$TILEMODELIGHTSYNCH
280
     1
  9
$SOLIDHIST
280
     1
  9
$SHOWHIST
280
     1
  9
$DWFFRAME
280
     2
  9
$DGNFRAME
280
     2
  9
$REALWORLDSCALE
290
     1
  9
$INTERFERECOLOR
 62
   256
  9
$CSHADOW
280
     0
  9
$SHADOWPLANELOCATION
 40
0.0
  0
ENDSEC
  0
SECTION
  2
CLASSES
  0
CLASS
  1
ACDBDICTIONARYWDFLT
  2
AcDbDictionaryWithDefault
  3
ObjectDBX Classes
 90
        0
 91
        8
280
     0
281
     0
  0
CLASS
  1
MATERIAL
  2
AcDbMaterial
  3
ObjectDBX Classes
 90
     1153
 91
        8
280
     0
281
     0
  0
CLASS
  1
VISUALSTYLE
  2
AcDbVisualStyle
  3
ObjectDBX Classes
 90
     4095
 91
        8
280
     0
281
     0
  0
CLASS
  1
SCALE
  2
AcDbScale
  3
ObjectDBX Classes
 90
     1153
 91
        8
280
     0
281
     0
  0
CLASS
  1
DICTIONARYVAR
  2
AcDbDictionaryVar
  3
ObjectDBX Classes
 90
        0
 91
        8
280
     0
281
     0
  0
CLASS
  1
TABLESTYLE
  2
AcDbTableStyle
  3
ObjectDBX Classes
 90
     4095
 91
        8
280
     0
281
     0
  0
CLASS
  1
RASTERVARIABLES
  2
AcDbRasterVariables
  3
ISM
 90
        0
 91
        8
280
     0
281
     0
  0
CLASS
  1
CELLSTYLEMAP
  2
AcDbCellStyleMap
  3
ObjectDBX Classes
 90
     1152
 91
        8
280
     0
281
     0
  0
ENDSEC
  0
SECTION
  2
TABLES
  0
TABLE
  2
VPORT
  5
21
330
0
100
AcDbSymbolTable
 70
     1
  0
VPORT
  5
28
330
21
100
AcDbSymbolTableRecord
100
AcDbViewportTableRecord
  2
*Active
 70
     0
 10
0.0
 20
0.0
 11
1.0
 21
1.0
 12
258.3041676164898
 22
80.67648527989769
 13
0.0
 23
0.0
 14
0.5
 24
0.5
 15
0.5
 25
0.5
 16
0.0
 26
0.0
 36
1.0
 17
-27.66959356598107
 27
-19.53870295786159
 37
0.0
 40
18.99169664121694
 41
2.123260437375746
 42
50.0
 43
0.0
 44
0.0
 50
0.0
 51
0.0
 71
    16
 72
  1000
 73
     1
 74
     2
 75
     0
 76
     0
 77
     0
 78
     0
281
     0
 65
     1
110
0.0
120
0.0
130
0.0
111
1.0
121
0.0
131
0.0
112
0.0
122
1.0
132
0.0
 79
     0
146
0.0
 60
     3
 61
     5
292
     1
282
     1
141
0.0
142
0.0
 63
   256
  0
ENDTAB
  0
TABLE
  2
LTYPE
  5
B
330
0
100
AcDbSymbolTable
 70
     1
  0
LTYPE
  5
C
330
B
100
AcDbSymbolTableRecord
100
AcDbLinetypeTableRecord
  2
ByBlock
 70
     0
  3

 72
    65
 73
     0
 40
0.0
  0
LTYPE
  5
D
330
B
100
AcDbSymbolTableRecord
100
AcDbLinetypeTableRecord
  2
ByLayer
 70
     0
  3

 72
    65
 73
     0
 40
0.0
  0
LTYPE
  5
A
330
B
100
AcDbSymbolTableRecord
100
AcDbLinetypeTableRecord
  2
Continuous
 70
     0
  3
Solid line
 72
    65
 73
     0
 40
0.0
  0
ENDTAB
  0
TABLE
  2
LAYER
  5
2
102
{ACAD_XDICTIONARY
360
3
102
}
330
0
100
AcDbSymbolTable
 70
     8
  0
LAYER
  5
1
330
2
100
AcDbSymbolTableRecord
100
AcDbLayerTableRecord
  2
0
 70
     0
 62
     7
  6
Continuous
370
    -3
390
5
347
8
  0
LAYER
  5
8A
330
2
100
AcDbSymbolTableRecord
100
AcDbLayerTableRecord
  2
body_1
 70
     0
 62
     7
  6
Continuous
370
    -3
390
5
347
8
1001
AcAecLayerStandard
1000

1000

  0
LAYER
  5
31
330
2
100
AcDbSymbolTableRecord
100
AcDbLayerTableRecord
  2
body_2
 70
     0
 62
   253
  6
Continuous
370
    -3
390
5
347
8
1001
AcAecLayerStandard
1000

1000

  0
LAYER
  5
35
330
2
100
AcDbSymbolTableRecord
100
AcDbLayerTableRecord
  2
body_3
 70
     0
 62
   252
  6
Continuous
370
    -3
390
5
347
8
1001
AcAecLayerStandard
1000

1000

  0
LAYER
  5
99
330
2
100
AcDbSymbolTableRecord
100
AcDbLayerTableRecord
  2
seat
 70
     0
 62
     1
  6
Continuous
370
    -3
390
5
347
8
1001
AcAecLayerStandard
1000

1000

  0
LAYER
  5
41
330
2
100
AcDbSymbolTableRecord
100
AcDbLayerTableRecord
  2
forks
 70
     0
 62
     3
  6
Continuous
370
    -3
390
5
347
8
1001
AcAecLayerStandard
1000

1000

  0
LAYER
  5
2D
330
2
100
AcDbSymbolTableRecord
100
AcDbLayerTableRecord
  2
hubs
 70
     0
 62
     6
  6
Continuous
370
    -3
390
5
347
8
1001
AcAecLayerStandard
1000

1000

  0
LAYER
  5
A2
330
2
100
AcDbSymbolTableRecord
100
AcDbLayerTableRecord
  2
seat_post
 70
     0
 62
     1
  6
Continuous
370
    -3
390
5
347
8
1001
AcAecLayerStandard
1000

1000

  0
ENDTAB
  0
TABLE
  2
STYLE
  5
F
330
0
100
AcDbSymbolTable
 70
     1
  0
STYLE
  5
E
330
F
100
AcDbSymbolTableRecord
100
AcDbTextStyleTableRecord
  2
Standard
 70
     0
 40
0.0
 41
1.0
 50
0.0
 71
     0
 42
0.2
  3
txt
  4

  0
ENDTAB
  0
TABLE
  2
VIEW
  5
1F
330
0
100
AcDbSymbolTable
 70
     0
  0
ENDTAB
  0
TABLE
  2
UCS
  5
20
330
0
100
AcDbSymbolTable
 70
     0
  0
ENDTAB
  0
TABLE
  2
APPID
  5
22
330
0
100
AcDbSymbolTable
 70
     2
  0
APPID
  5
27
330
22
100
AcDbSymbolTableRecord
100
AcDbRegAppTableRecord
  2
ACAD
 70
     0
  0
APPID
  5
2E
330
22
100
AcDbSymbolTableRecord
100
AcDbRegAppTableRecord
  2
AcAecLayerStandard
 70
     0
  0
ENDTAB
  0
TABLE
  2
DIMSTYLE
  5
12
330
0
100
AcDbSymbolTable
 70
     1
100
AcDbDimStyleTable
  0
DIMSTYLE
105
11
330
12
100
AcDbSymbolTableRecord
100
AcDbDimStyleTableRecord
  2
Standard
 70
     0
340
E
  0
ENDTAB
  0
TABLE
  2
BLOCK_RECORD
  5
15
330
0
100
AcDbSymbolTable
 70
     0
  0
BLOCK_RECORD
  5
16
330
15
100
AcDbSymbolTableRecord
100
AcDbBlockTableRecord
  2
*Model_Space
340
19
 70
     0
280
     1
281
     0
  0
BLOCK_RECORD
  5
1B
330
15
100
AcDbSymbolTableRecord
100
AcDbBlockTableRecord
  2
*Paper_Space
340
1E
 70
     0
280
     1
281
     0
  0
ENDTAB
  0
ENDSEC
  0
SECTION
  2
BLOCKS
  0
BLOCK
  5
17
330
16
100
AcDbEntity
  8
0
100
AcDbBlockBegin
  2
*Model_Space
 70
     0
 10
0.0
 20
0.0
 30
0.0
  3
*Model_Space
  1

  0
ENDBLK
  5
18
330
16
100
AcDbEntity
  8
0
100
AcDbBlockEnd
  0
BLOCK
  5
1C
330
1B
100
AcDbEntity
 67
     1
  8
0
100
AcDbBlockBegin
  2
*Paper_Space
 70
     0
 10
0.0
 20
0.0
 30
0.0
  3
*Paper_Space
  1

  0
ENDBLK
  5
1D
330
1B
100
AcDbEntity
 67
     1
  8
0
100
AcDbBlockEnd
  0
ENDSEC
  0
SECTION
  2
ENTITIES
  0
CIRCLE
  5
2C
330
16
100
AcDbEntity
  8
hubs
100
AcDbCircle
 10
224.8334922861557
 20
59.36600200530391
 30
0.0
 40
1.5
  0
CIRCLE
  5
2F
330
16
100
AcDbEntity
  8
hubs
100
AcDbCircle
 10
228.4306466420293
 20
45.47265644562637
 30
0.0
 40
1.5
  0
LWPOLYLINE
  5
30
330
16
100
AcDbEntity
  8
body_2
100
AcDbPolyline
 90
        2
 70
     1
 43
0.0
 10
230.978838073131
 20
52.02073676425173
 10
230.9803468334904
 20
48.2776874877221
  0
LWPOLYLINE
  5
32
330
16
100
AcDbEntity
  8
body_2
100
AcDbPolyline
 90
        2
 70
     0
 43
0.0
 10
222.7176462446643
 20
52.62030429312951
 10
230.978838073131
 20
52.02073676425173
  0
LWPOLYLINE
  5
33
330
16
100
AcDbEntity
  8
body_2
100
AcDbPolyline
 90
        2
 70
     0
 43
0.0
 10
222.7367776856434
 20
52.6189158020946
 42
1.066849708307261
 10
222.6993125428061
 20
47.8061484824728
  0
LWPOLYLINE
  5
34
330
16
100
AcDbEntity
  8
body_3
100
AcDbPolyline
 90
        2
 70
     0
 43
0.0
 10
216.1272216858144
 20
58.92192213103822
 10
215.6145165369238
 20
51.63087393789046
  0
LWPOLYLINE
  5
36
330
16
100
AcDbEntity
  8
body_3
100
AcDbPolyline
 90
        2
 70
     0
 43
0.0
 10
219.1211080317177
 20
58.90897047147187
 10
219.5514098284123
 20
51.6397124509224
  0
LWPOLYLINE
  5
37
330
16
100
AcDbEntity
  8
body_3
100
AcDbPolyline
 90
        2
 70
     0
 43
0.0
 10
215.6145165369238
 20
51.63087393789046
 42
0.9999999999999999
 10
219.5514098284123
 20
51.6397124509224
  0
LWPOLYLINE
  5
38
330
16
100
AcDbEntity
  8
body_3
100
AcDbPolyline
 90
        2
 70
     0
 43
0.0
 10
219.121153119224
 20
58.90820879043987
 42
0.9384794041927718
 10
216.1272216858144
 20
58.92192213103822
  0
LWPOLYLINE
  5
39
330
16
100
AcDbEntity
  8
body_3
100
AcDbPolyline
 90
        2
 70
     0
 43
0.0
 10
224.9880979159663
 20
44.21692550738038
 42
0.938479404192768
 10
224.9861145561615
 20
47.21088768983227
  0
LWPOLYLINE
  5
3A
330
16
100
AcDbEntity
  8
body_3
100
AcDbPolyline
 90
        2
 70
     0
 43
0.0
 10
217.6924785688694
 20
47.68536045973601
 42
0.9999999999999997
 10
217.7219572101848
 20
43.74856761306673
  0
LWPOLYLINE
  5
3B
330
16
100
AcDbEntity
  8
body_3
100
AcDbPolyline
 90
        2
 70
     0
 43
0.0
 10
224.9888593501465
 20
44.21697458759007
 10
217.7219572101848
 20
43.74856761306676
  0
LWPOLYLINE
  5
3C
330
16
100
AcDbEntity
  8
body_3
100
AcDbPolyline
 90
        2
 70
     0
 43
0.0
 10
224.9861145561615
 20
47.21088768983227
 10
217.6924785688694
 20
47.68536045973604
  0
LWPOLYLINE
  5
3D
330
16
100
AcDbEntity
  8
body_2
100
AcDbPolyline
 90
        2
 70
     0
 43
0.0
 10
228.6466494094452
 20
52.81532816302104
 42
1.066849708307269
 10
228.5749399450182
 20
57.62770706149308
  0
LWPOLYLINE
  5
3E
330
16
100
AcDbEntity
  8
body_2
100
AcDbPolyline
 90
        2
 70
     0
 43
0.0
 10
228.6658074225917
 20
52.81437397563426
 10
220.393141404988
 20
53.22640384056299
  0
LWPOLYLINE
  5
3F
330
16
100
AcDbEntity
  8
body_2
100
AcDbPolyline
 90
        2
 70
     0
 43
0.0
 10
220.393141404988
 20
53.22640384056299
 10
220.3067318047737
 20
56.96845589042515
  0
LWPOLYLINE
  5
54
330
16
100
AcDbEntity
  8
forks
100
AcDbPolyline
 90
        2
 70
     0
 43
0.0
 10
233.0874086309255
 20
59.00036276783834
 42
0.1989123673796598
 10
233.0141853262221
 20
59.17713946313497
  0
LWPOLYLINE
  5
55
330
16
100
AcDbEntity
  8
forks
100
AcDbPolyline
 90
        2
 70
     0
 43
0.0
 10
233.0874086309255
 20
59.00036276783834
 10
233.0874086309255
 20
58.77780011652374
  0
LWPOLYLINE
  5
56
330
16
100
AcDbEntity
  8
forks
100
AcDbPolyline
 90
        2
 70
     0
 43
0.0
 10
232.7641853262221
 20
59.78069285372825
 42
0.4142135623731774
 10
232.7641853262221
 20
59.42713946313493
  0
LWPOLYLINE
  5
57
330
16
100
AcDbEntity
  8
forks
100
AcDbPolyline
 90
        2
 70
     0
 43
0.0
 10
232.9106319356288
 20
59.92713946313498
 42
0.4142135623730125
 10
232.9106319356288
 20
60.2806928537282
  0
LWPOLYLINE
  5
58
330
16
100
AcDbEntity
  8
forks
100
AcDbPolyline
 90
        2
 70
     0
 43
0.0
 10
232.7641853262221
 20
60.78069285372825
 42
0.4142135623731774
 10
232.7641853262221
 20
60.42713946313493
  0
LWPOLYLINE
  5
59
330
16
100
AcDbEntity
  8
forks
100
AcDbPolyline
 90
        2
 70
     0
 43
0.0
 10
232.9106319356288
 20
60.92713946313498
 42
0.4142135623730125
 10
232.9106319356288
 20
61.2806928537282
  0
LWPOLYLINE
  5
5A
330
16
100
AcDbEntity
  8
forks
100
AcDbPolyline
 90
        2
 70
     0
 43
0.0
 10
232.7641853262221
 20
61.78069285372825
 42
0.4142135623731655
 10
232.7641853262221
 20
61.42713946313493
  0
LWPOLYLINE
  5
5B
330
16
100
AcDbEntity
  8
forks
100
AcDbPolyline
 90
        2
 70
     0
 43
0.0
 10
232.9106319356288
 20
61.92713946313493
 42
0.4142135623731775
 10
232.9106319356288
 20
62.28069285372825
  0
LWPOLYLINE
  5
5C
330
16
100
AcDbEntity
  8
forks
100
AcDbPolyline
 90
        2
 70
     0
 43
0.0
 10
232.7641853262221
 20
62.78069285372825
 42
0.4142135623731774
 10
232.7641853262221
 20
62.42713946313493
  0
LWPOLYLINE
  5
5D
330
16
100
AcDbEntity
  8
forks
100
AcDbPolyline
 90
        2
 70
     0
 43
0.0
 10
233.0141853262221
 20
63.03069285372825
 42
0.1989123673796162
 10
233.0874086309255
 20
63.20746954902486
  0
LWPOLYLINE
  5
5E
330
16
100
AcDbEntity
  8
forks
100
AcDbPolyline
 90
        2
 70
     0
 43
0.0
 10
232.7641853262221
 20
59.42713946313495
 10
233.0141853262221
 20
59.17713946313495
  0
LWPOLYLINE
  5
5F
330
16
100
AcDbEntity
  8
forks
100
AcDbPolyline
 90
        2
 70
     0
 43
0.0
 10
232.9106319356288
 20
59.92713946313495
 10
232.7641853262221
 20
59.78069285372823
  0
LWPOLYLINE
  5
60
330
16
100
AcDbEntity
  8
forks
100
AcDbPolyline
 90
        2
 70
     0
 43
0.0
 10
232.7641853262221
 20
60.42713946313495
 10
232.9106319356288
 20
60.28069285372823
  0
LWPOLYLINE
  5
61
330
16
100
AcDbEntity
  8
forks
100
AcDbPolyline
 90
        2
 70
     0
 43
0.0
 10
232.9106319356288
 20
60.92713946313495
 10
232.7641853262221
 20
60.78069285372823
  0
LWPOLYLINE
  5
62
330
16
100
AcDbEntity
  8
forks
100
AcDbPolyline
 90
        2
 70
     0
 43
0.0
 10
232.7641853262221
 20
61.42713946313495
 10
232.9106319356288
 20
61.28069285372823
  0
LWPOLYLINE
  5
63
330
16
100
AcDbEntity
  8
forks
100
AcDbPolyline
 90
        2
 70
     0
 43
0.0
 10
232.9106319356288
 20
61.92713946313495
 10
232.7641853262221
 20
61.78069285372823
  0
LWPOLYLINE
  5
64
330
16
100
AcDbEntity
  8
forks
100
AcDbPolyline
 90
        2
 70
     0
 43
0.0
 10
232.7641853262221
 20
62.42713946313495
 10
232.9106319356288
 20
62.28069285372823
  0
LWPOLYLINE
  5
65
330
16
100
AcDbEntity
  8
forks
100
AcDbPolyline
 90
        2
 70
     0
 43
0.0
 10
233.0141853262221
 20
63.03069285372823
 10
232.7641853262221
 20
62.78069285372823
  0
LWPOLYLINE
  5
66
330
16
100
AcDbEntity
  8
forks
100
AcDbPolyline
 90
        2
 70
     0
 43
0.0
 10
237.7124086309255
 20
53.45708595474031
 10
236.9624086309255
 20
53.45708595474034
  0
LWPOLYLINE
  5
67
330
16
100
AcDbEntity
  8
forks
100
AcDbPolyline
 90
        2
 70
     0
 43
0.0
 10
232.4624086309255
 20
53.45708595474036
 10
233.2124086309255
 20
53.45708595474036
  0
LWPOLYLINE
  5
68
330
16
100
AcDbEntity
  8
forks
100
AcDbPolyline
 90
        2
 70
     0
 43
0.0
 10
231.5874086684094
 20
51.20759819270404
 10
231.5874086684094
 20
55.20708595474034
  0
LWPOLYLINE
  5
69
330
16
100
AcDbEntity
  8
forks
100
AcDbPolyline
 90
        2
 70
     0
 43
0.0
 10
238.5874085934416
 20
51.20759819270398
 10
238.5874085934416
 20
55.20708595474034
  0
LWPOLYLINE
  5
6A
330
16
100
AcDbEntity
  8
forks
100
AcDbPolyline
 90
        2
 70
     0
 43
0.0
 10
238.5874085934415
 20
55.20708595474036
 42
0.2015127527123121
 10
237.5374086230538
 20
57.70658585995803
  0
LWPOLYLINE
  5
6B
330
16
100
AcDbEntity
  8
forks
100
AcDbPolyline
 90
        2
 70
     0
 43
0.0
 10
232.6374086387971
 20
57.70658585995804
 42
0.2015127527123149
 10
231.5874086684094
 20
55.20708595474034
  0
LWPOLYLINE
  5
6C
330
16
100
AcDbEntity
  8
forks
100
AcDbPolyline
 90
        2
 70
     0
 43
0.0
 10
232.6374086387971
 20
57.70658585995805
 42
0.2015127527123154
 10
233.0874086309255
 20
58.77780011652374
  0
LWPOLYLINE
  5
6D
330
16
100
AcDbEntity
  8
forks
100
AcDbPolyline
 90
        2
 70
     0
 43
0.0
 10
236.9624086309255
 20
53.45708595474034
 10
236.9624086309255
 20
55.45708595474038
  0
LWPOLYLINE
  5
6E
330
16
100
AcDbEntity
  8
forks
100
AcDbPolyline
 90
        2
 70
     0
 43
0.0
 10
234.9624086309255
 20
57.20708595474036
 10
235.2124086309254
 20
57.20708595474036
  0
LWPOLYLINE
  5
6F
330
16
100
AcDbEntity
  8
forks
100
AcDbPolyline
 90
        2
 70
     0
 43
0.0
 10
233.2124086309255
 20
53.45708595474034
 10
233.2124086309255
 20
55.45708595474034
  0
LWPOLYLINE
  5
70
330
16
100
AcDbEntity
  8
forks
100
AcDbPolyline
 90
        2
 70
     0
 43
0.0
 10
236.9624086309255
 20
55.45708595474039
 42
0.4142135623731046
 10
235.2124086309254
 20
57.20708595474039
  0
LWPOLYLINE
  5
71
330
16
100
AcDbEntity
  8
forks
100
AcDbPolyline
 90
        2
 70
     0
 43
0.0
 10
234.9624086309255
 20
57.20708595474036
 42
0.4142135623731045
 10
233.2124086309254
 20
55.45708595474036
  0
LWPOLYLINE
  5
72
330
16
100
AcDbEntity
  8
forks
100
AcDbPolyline
 90
        2
 70
     0
 43
0.0
 10
237.7124086309255
 20
50.45759819270401
 10
237.8374085934415
 20
50.45759819270404
  0
LWPOLYLINE
  5
73
330
16
100
AcDbEntity
  8
forks
100
AcDbPolyline
 90
        2
 70
     0
 43
0.0
 10
237.7124086309255
 20
53.45708595474031
 10
237.7124086309255
 20
50.45759819270401
  0
LWPOLYLINE
  5
74
330
16
100
AcDbEntity
  8
forks
100
AcDbPolyline
 90
        2
 70
     0
 43
0.0
 10
232.3374086684094
 20
50.45759819270401
 10
232.4624086309255
 20
50.45759819270401
  0
LWPOLYLINE
  5
75
330
16
100
AcDbEntity
  8
forks
100
AcDbPolyline
 90
        2
 70
     0
 43
0.0
 10
237.8374085934416
 20
50.45759819270401
 42
0.414213562373095
 10
238.5874085934416
 20
51.20759819270401
  0
LWPOLYLINE
  5
76
330
16
100
AcDbEntity
  8
forks
100
AcDbPolyline
 90
        2
 70
     0
 43
0.0
 10
231.5874086684094
 20
51.20759819270404
 42
0.4142135623731061
 10
232.3374086684094
 20
50.45759819270401
  0
LWPOLYLINE
  5
77
330
16
100
AcDbEntity
  8
forks
100
AcDbPolyline
 90
        2
 70
     0
 43
0.0
 10
232.4624086309255
 20
53.45708595474036
 10
232.4624086309255
 20
50.45759819270404
  0
LWPOLYLINE
  5
78
330
16
100
AcDbEntity
  8
forks
100
AcDbPolyline
 90
        2
 70
     0
 43
0.0
 10
234.5654057367172
 20
57.94725383736736
 10
234.5654057367171
 20
64.19504008638503
  0
LWPOLYLINE
  5
79
330
16
100
AcDbEntity
  8
forks
100
AcDbPolyline
 90
        2
 70
     0
 43
0.0
 10
235.5874086309255
 20
57.94725383736738
 10
235.5874086309255
 20
64.19504008638503
  0
LWPOLYLINE
  5
7A
330
16
100
AcDbEntity
  8
forks
100
AcDbPolyline
 90
        2
 70
     0
 43
0.0
 10
234.5654057367172
 20
57.94725383736736
 10
235.5874086309255
 20
57.94725383736738
  0
LWPOLYLINE
  5
7C
330
16
100
AcDbEntity
  8
forks
100
AcDbPolyline
 90
        2
 70
     0
 43
0.0
 10
233.0874086309255
 20
63.43003220033944
 10
233.0874086309255
 20
63.20746954902486
  0
LWPOLYLINE
  5
7D
330
16
100
AcDbEntity
  8
forks
100
AcDbPolyline
 90
        2
 70
     0
 43
0.0
 10
234.5874054033783
 20
64.19504008638503
 10
235.5874086309255
 20
64.19504008638503
  0
LWPOLYLINE
  5
7E
330
16
100
AcDbEntity
  8
forks
100
AcDbPolyline
 90
        2
 70
     0
 43
0.0
 10
231.5874086684094
 20
66.14783483407425
 10
231.5874086684094
 20
66.94561380967218
  0
LWPOLYLINE
  5
7F
330
16
100
AcDbEntity
  8
forks
100
AcDbPolyline
 90
        2
 70
     0
 43
0.0
 10
238.5874085934415
 20
66.14783483407425
 10
238.5874085934416
 20
66.94561380967218
  0
LWPOLYLINE
  5
80
330
16
100
AcDbEntity
  8
forks
100
AcDbPolyline
 90
        2
 70
     0
 43
0.0
 10
238.1253745963225
 20
65.06495599650128
 10
237.5494426280446
 20
64.51291103791237
  0
LWPOLYLINE
  5
81
330
16
100
AcDbEntity
  8
forks
100
AcDbPolyline
 90
        2
 70
     0
 43
0.0
 10
238.5874085934416
 20
66.94561380967218
 10
238.5874085934415
 20
66.14783483407425
  0
LWPOLYLINE
  5
83
330
16
100
AcDbEntity
  8
forks
100
AcDbPolyline
 90
        2
 70
     0
 43
0.0
 10
232.0494426655285
 20
65.06495599650125
 10
232.6253746338064
 20
64.5129110379124
  0
LWPOLYLINE
  5
84
330
16
100
AcDbEntity
  8
forks
100
AcDbPolyline
 90
        2
 70
     0
 43
0.0
 10
231.5874086684094
 20
66.94561380967218
 10
231.5874086684094
 20
66.14783483407425
  0
LWPOLYLINE
  5
85
330
16
100
AcDbEntity
  8
forks
100
AcDbPolyline
 90
        2
 70
     0
 43
0.0
 10
238.1253745963225
 20
65.06495599650127
 42
0.2044210832550163
 10
238.5874085934416
 20
66.14783483407425
  0
LWPOLYLINE
  5
86
330
16
100
AcDbEntity
  8
forks
100
AcDbPolyline
 90
        2
 70
     0
 43
0.0
 10
233.0874086309255
 20
63.43003220033944
 42
0.2044210832550113
 10
232.6253746338064
 20
64.51291103791239
  0
LWPOLYLINE
  5
87
330
16
100
AcDbEntity
  8
forks
100
AcDbPolyline
 90
        2
 70
     0
 43
0.0
 10
231.5874086684094
 20
66.14783483407425
 42
0.2044210832550088
 10
232.0494426655285
 20
65.06495599650128
  0
LWPOLYLINE
  5
88
330
16
100
AcDbEntity
  8
forks
100
AcDbPolyline
 90
        2
 70
     0
 43
0.0
 10
238.5874085934416
 20
66.94561380967218
 10
236.5874070171519
 20
66.94561380967218
  0
LWPOLYLINE
  5
89
330
16
100
AcDbEntity
  8
body_1
100
AcDbPolyline
 90
        2
 70
     0
 43
0.0
 10
223.2065359106734
 20
67.01833943847143
 10
228.6987031882487
 20
66.81003050684521
  0
LWPOLYLINE
  5
8B
330
16
100
AcDbEntity
  8
body_1
100
AcDbPolyline
 90
        2
 70
     0
 43
0.0
 10
227.5416358620882
 20
60.86665664785448
 42
0.2552841432060791
 10
221.8121574612013
 20
60.358555395111
  0
LWPOLYLINE
  5
8C
330
16
100
AcDbEntity
  8
body_1
100
AcDbPolyline
 90
        2
 70
     0
 43
0.0
 10
219.4031272253013
 20
66.21469529853573
 10
221.2569245980326
 20
66.77017265210316
  0
LWPOLYLINE
  5
8D
330
16
100
AcDbEntity
  8
body_1
100
AcDbPolyline
 90
        2
 70
     0
 43
0.0
 10
223.2065359106734
 20
67.01833943847144
 42
0.0824458976461316
 10
221.2569245980327
 20
66.7701726521032
  0
LWPOLYLINE
  5
8E
330
16
100
AcDbEntity
  8
body_1
100
AcDbPolyline
 90
        2
 70
     0
 43
0.0
 10
227.5416358620882
 20
60.8666566478545
 42
1.132051879424441
 10
228.8997129264786
 20
66.79079601626887
  0
LWPOLYLINE
  5
8F
330
16
100
AcDbEntity
  8
body_1
100
AcDbPolyline
 90
        2
 70
     0
 43
0.0
 10
228.6987031882487
 20
66.81003050684521
 10
228.8997129264786
 20
66.79079601626887
  0
LWPOLYLINE
  5
90
330
16
100
AcDbEntity
  8
body_1
100
AcDbPolyline
 90
        2
 70
     0
 43
0.0
 10
223.3145734205574
 20
65.8931430856208
 42
1.032081252029001
 10
223.3095742699528
 20
64.39389895869525
  0
LWPOLYLINE
  5
91
330
16
100
AcDbEntity
  8
body_1
100
AcDbPolyline
 90
        2
 70
     0
 43
0.0
 10
226.2600172013398
 20
64.28937170202117
 42
1.000253158634219
 10
226.3127459016147
 20
65.78844459551331
  0
LWPOLYLINE
  5
92
330
16
100
AcDbEntity
  8
body_1
100
AcDbPolyline
 90
        2
 70
     0
 43
0.0
 10
223.3145734205574
 20
65.89314308562078
 10
226.3127459016147
 20
65.78844459551331
  0
LWPOLYLINE
  5
93
330
16
100
AcDbEntity
  8
body_1
100
AcDbPolyline
 90
        2
 70
     0
 43
0.0
 10
223.309574269953
 20
64.39389895869519
 10
226.2600172013398
 20
64.28937170202116
  0
LWPOLYLINE
  5
94
330
16
100
AcDbEntity
  8
body_1
100
AcDbPolyline
 90
        2
 70
     0
 43
0.0
 10
219.1223991120557
 20
60.36734181029836
 42
0.3047450394951508
 10
221.8121574612013
 20
60.358555395111
  0
LWPOLYLINE
  5
95
330
16
100
AcDbEntity
  8
body_1
100
AcDbPolyline
 90
        2
 70
     0
 43
0.0
 10
218.1180596724705
 20
66.26118321452924
 10
215.9532878204209
 20
62.51168837998433
  0
LWPOLYLINE
  5
96
330
16
100
AcDbEntity
  8
body_1
100
AcDbPolyline
 90
        2
 70
     0
 43
0.0
 10
215.9532878204209
 20
62.51168837998433
 10
219.1065124249688
 20
60.3780913737638
  0
LWPOLYLINE
  5
97
330
16
100
AcDbEntity
  8
body_1
100
AcDbPolyline
 90
        2
 70
     0
 43
0.0
 10
218.1180596724705
 20
66.26118321452923
 42
0.1651210466135727
 10
219.4031272253013
 20
66.21469529853576
  0
LWPOLYLINE
  5
98
330
16
100
AcDbEntity
  8
seat
100
AcDbPolyline
 90
        2
 70
     0
 43
0.0
 10
233.5240513336169
 20
49.20971811807758
 10
233.5270582195513
 20
49.28720831426794
  0
LWPOLYLINE
  5
9A
330
16
100
AcDbEntity
  8
seat
100
AcDbPolyline
 90
        2
 70
     0
 43
0.0
 10
236.5240513336169
 20
49.20971811807758
 10
236.5210444476826
 20
49.28720831426794
  0
LWPOLYLINE
  5
9B
330
16
100
AcDbEntity
  8
seat
100
AcDbPolyline
 90
        2
 70
     0
 43
0.0
 10
233.5240513336169
 20
49.20971811807758
 42
0.414213562373095
 10
234.5240513336169
 20
48.20971811807758
  0
LWPOLYLINE
  5
9C
330
16
100
AcDbEntity
  8
seat
100
AcDbPolyline
 90
        2
 70
     0
 43
0.0
 10
235.5240513336169
 20
48.20971811807758
 42
0.414213562373095
 10
236.5240513336169
 20
49.20971811807758
  0
LWPOLYLINE
  5
9D
330
16
100
AcDbEntity
  8
seat
100
AcDbPolyline
 90
        2
 70
     0
 43
0.0
 10
235.5240513336169
 20
48.20971811807758
 10
234.5240513336169
 20
48.20971811807758
  0
LWPOLYLINE
  5
9E
330
16
100
AcDbEntity
  8
seat
100
AcDbPolyline
 90
        2
 70
     0
 43
0.0
 10
236.0210444476826
 20
55.72023573632293
 42
0.925292051464359
 10
234.0270582195512
 20
55.72023573632295
  0
LWPOLYLINE
  5
9F
330
16
100
AcDbEntity
  8
seat
100
AcDbPolyline
 90
        2
 70
     0
 43
0.0
 10
234.0270582195513
 20
55.72023573632294
 10
233.5270582195513
 20
49.28720831426794
  0
LWPOLYLINE
  5
A0
330
16
100
AcDbEntity
  8
seat
100
AcDbPolyline
 90
        2
 70
     0
 43
0.0
 10
236.0210444476826
 20
55.72023573632294
 10
236.5210444476826
 20
49.28720831426794
  0
LWPOLYLINE
  5
A1
330
16
100
AcDbEntity
  8
seat_post
100
AcDbPolyline
 90
        2
 70
     0
 43
0.0
 10
237.2403016183516
 20
44.60288319342745
 42
0.3636382316618293
 10
238.2231216999204
 20
45.43020334320859
  0
LWPOLYLINE
  5
A3
330
16
100
AcDbEntity
  8
seat_post
100
AcDbPolyline
 90
        2
 70
     0
 43
0.0
 10
238.4934159361194
 20
46.97200210309495
 42
0.4666646575042314
 10
237.9998475640772
 20
47.55833969900475
  0
LWPOLYLINE
  5
A4
330
16
100
AcDbEntity
  8
seat_post
100
AcDbPolyline
 90
        2
 70
     0
 43
0.0
 10
230.7431643096728
 20
47.54267733622724
 10
230.2251317466154
 20
44.58774209774703
  0
LWPOLYLINE
  5
A5
330
16
100
AcDbEntity
  8
seat_post
100
AcDbPolyline
 90
        2
 70
     0
 43
0.0
 10
230.2251317466154
 20
44.58774209774703
 10
237.2403016183516
 20
44.60288319342747
  0
LWPOLYLINE
  5
A6
330
16
100
AcDbEntity
  8
seat_post
100
AcDbPolyline
 90
        2
 70
     0
 43
0.0
 10
230.7431643096728
 20
47.54267733622724
 10
237.9998475640772
 20
47.55833969900475
  0
LWPOLYLINE
  5
A7
330
16
100
AcDbEntity
  8
seat_post
100
AcDbPolyline
 90
        2
 70
     0
 43
0.0
 10
238.4934159361195
 20
46.97200210309494
 10
238.2231216999204
 20
45.4302033432086
  0
LWPOLYLINE
  5
A8
330
16
100
AcDbEntity
  8
body_2
100
AcDbPolyline
 90
        2
 70
     0
 43
0.0
 10
220.3067318047737
 20
56.96845589042515
 10
228.5749399450182
 20
57.62770706149308
  0
LWPOLYLINE
  5
A9
330
16
100
AcDbEntity
  8
body_2
100
AcDbPolyline
 90
        2
 70
     0
 43
0.0
 10
222.6993125428061
 20
47.8061484824728
 10
230.9803468334904
 20
48.2776874877221
  0
LWPOLYLINE
  5
AA
330
16
100
AcDbEntity
  8
forks
100
AcDbPolyline
 90
        2
 70
     0
 43
0.0
 10
235.5874070171519
 20
65.19504008638503
 10
234.5874070171519
 20
65.19504008638503
  0
LWPOLYLINE
  5
AB
330
16
100
AcDbEntity
  8
forks
100
AcDbPolyline
 90
        2
 70
     0
 43
0.0
 10
236.5874070171519
 20
66.19504008638503
 10
236.5874070171519
 20
66.94561380967218
  0
LWPOLYLINE
  5
AC
330
16
100
AcDbEntity
  8
forks
100
AcDbPolyline
 90
        2
 70
     0
 43
0.0
 10
233.5874070171519
 20
66.19504008638503
 10
233.5874070171519
 20
66.94561380967218
  0
LWPOLYLINE
  5
AD
330
16
100
AcDbEntity
  8
forks
100
AcDbPolyline
 90
        2
 70
     0
 43
0.0
 10
233.5874070171519
 20
66.19504008638503
 42
0.414213562373095
 10
234.5874070171519
 20
65.19504008638503
  0
LWPOLYLINE
  5
AE
330
16
100
AcDbEntity
  8
forks
100
AcDbPolyline
 90
        2
 70
     0
 43
0.0
 10
235.5874070171519
 20
65.19504008638503
 42
0.414213562373095
 10
236.5874070171519
 20
66.19504008638503
  0
LWPOLYLINE
  5
AF
330
16
100
AcDbEntity
  8
forks
100
AcDbPolyline
 90
        2
 70
     0
 43
0.0
 10
233.5874070171519
 20
66.94561380967218
 10
231.5874086684094
 20
66.94561380967218
  0
LINE
  5
B9
330
16
100
AcDbEntity
  8
forks
100
AcDbLine
 10
237.0874086309255
 20
58.77780011652365
 30
0.0
 11
237.0874054033784
 21
59.0003627678384
 31
0.0
  0
LINE
  5
BA
330
16
100
AcDbEntity
  8
forks
100
AcDbLine
 10
237.0874054033783
 20
63.20746954902492
 30
0.0
 11
237.0874086309255
 21
63.43003220033947
 31
0.0
  0
ARC
  5
BB
330
16
100
AcDbEntity
  8
forks
100
AcDbCircle
 10
238.5874086309255
 20
63.43003220033948
 30
0.0
 40
1.499999999999989
100
AcDbArc
 50
133.7868366170374
 51
180.0000000000006
  0
LINE
  5
BC
330
16
100
AcDbEntity
  8
forks
100
AcDbLine
 10
237.4106287080818
 20
59.42713946313501
 30
0.0
 11
237.1606287080818
 21
59.17713946313501
 31
0.0
  0
ARC
  5
BD
330
16
100
AcDbEntity
  8
forks
100
AcDbCircle
 10
237.3374054033784
 20
59.0003627678383
 30
0.0
 40
0.2500000000000208
100
AcDbArc
 50
134.9999999999932
 51
179.9999999999775
  0
LINE
  5
BE
330
16
100
AcDbEntity
  8
forks
100
AcDbLine
 10
237.264182098675
 20
59.92713946313501
 30
0.0
 11
237.4106287080818
 21
59.78069285372828
 31
0.0
  0
LINE
  5
BF
330
16
100
AcDbEntity
  8
forks
100
AcDbLine
 10
237.4106287080818
 20
60.42713946313501
 30
0.0
 11
237.264182098675
 21
60.28069285372828
 31
0.0
  0
ARC
  5
C0
330
16
100
AcDbEntity
  8
forks
100
AcDbCircle
 10
237.2338520127851
 20
59.60391615843164
 30
0.0
 40
0.2500000000000072
100
AcDbArc
 50
315.0000000000081
 51
44.99999999999194
  0
LINE
  5
C1
330
16
100
AcDbEntity
  8
forks
100
AcDbLine
 10
237.264182098675
 20
60.92713946313501
 30
0.0
 11
237.4106287080818
 21
60.78069285372828
 31
0.0
  0
ARC
  5
C2
330
16
100
AcDbEntity
  8
forks
100
AcDbCircle
 10
237.4409587939716
 20
60.10391615843164
 30
0.0
 40
0.250000000000007
100
AcDbArc
 50
134.9999999999919
 51
225.000000000008
  0
LINE
  5
C3
330
16
100
AcDbEntity
  8
forks
100
AcDbLine
 10
237.4106287080816
 20
61.42713946313501
 30
0.0
 11
237.264182098675
 21
61.28069285372828
 31
0.0
  0
ARC
  5
C4
330
16
100
AcDbEntity
  8
forks
100
AcDbCircle
 10
237.2338520127851
 20
60.60391615843164
 30
0.0
 40
0.2500000000000072
100
AcDbArc
 50
315.0000000000081
 51
44.99999999999194
  0
LINE
  5
C5
330
16
100
AcDbEntity
  8
forks
100
AcDbLine
 10
237.264182098675
 20
61.92713946313501
 30
0.0
 11
237.4106287080816
 21
61.78069285372828
 31
0.0
  0
LINE
  5
C6
330
16
100
AcDbEntity
  8
forks
100
AcDbLine
 10
237.4106287080816
 20
62.42713946313501
 30
0.0
 11
237.264182098675
 21
62.28069285372828
 31
0.0
  0
ARC
  5
C7
330
16
100
AcDbEntity
  8
forks
100
AcDbCircle
 10
237.4409587939717
 20
61.10391615843167
 30
0.0
 40
0.2499999999999971
100
AcDbArc
 50
135.0000000000081
 51
224.999999999992
  0
ARC
  5
C8
330
16
100
AcDbEntity
  8
forks
100
AcDbCircle
 10
237.233852012785
 20
61.60391615843164
 30
0.0
 40
0.250000000000002
100
AcDbArc
 50
314.9999999999931
 51
45.00000000000693
  0
LINE
  5
C9
330
16
100
AcDbEntity
  8
forks
100
AcDbLine
 10
237.1606287080816
 20
63.03069285372828
 30
0.0
 11
237.4106287080816
 21
62.78069285372828
 31
0.0
  0
ARC
  5
CA
330
16
100
AcDbEntity
  8
forks
100
AcDbCircle
 10
237.4409587939716
 20
62.10391615843164
 30
0.0
 40
0.250000000000007
100
AcDbArc
 50
134.9999999999919
 51
225.000000000008
  0
ARC
  5
CB
330
16
100
AcDbEntity
  8
forks
100
AcDbCircle
 10
237.2338520127849
 20
62.60391615843164
 30
0.0
 40
0.2500000000000072
100
AcDbArc
 50
315.0000000000081
 51
44.99999999999194
  0
ARC
  5
CC
330
16
100
AcDbEntity
  8
forks
100
AcDbCircle
 10
237.3374054033783
 20
63.20746954902485
 30
0.0
 40
0.2499999999999726
100
AcDbArc
 50
179.9999999999837
 51
224.9999999999745
  0
ARC
  5
CD
330
16
100
AcDbEntity
  8
forks
100
AcDbCircle
 10
238.5874086309255
 20
58.77780011652363
 30
0.0
 40
1.499999999999999
100
AcDbArc
 50
179.9999999999991
 51
225.5729955781633
  0
ENDSEC
  0
SECTION
  2
OBJECTS
  0
DICTIONARY
  5
7
330
0
100
AcDbDictionary
281
     1
  3
ACAD_COLOR
350
25
  3
ACAD_GROUP
350
23
  3
ACAD_IMAGE_VARS
350
B7
  3
ACAD_LAYOUT
350
1A
  3
ACAD_MATERIAL
350
9
  3
ACAD_MLEADERSTYLE
350
B3
  3
ACAD_MLINESTYLE
350
14
  3
ACAD_PLOTSETTINGS
350
24
  3
ACAD_PLOTSTYLENAME
350
6
  3
ACAD_SCALELIST
350
2A
  3
ACAD_TABLESTYLE
350
B2
  3
ACDB_RECOMPOSE_DATA
350
D0
  3
AcDbVariableDictionary
350
B0
  3
APPDATA
350
B6
  0
DICTIONARY
  5
3
330
2
100
AcDbDictionary
280
     1
281
     1
  3
ACAD_LAYERSTATES
360
4
  0
DICTIONARY
  5
25
102
{ACAD_REACTORS
330
7
102
}
330
7
100
AcDbDictionary
281
     1
  0
DICTIONARY
  5
23
102
{ACAD_REACTORS
330
7
102
}
330
7
100
AcDbDictionary
281
     1
  0
RASTERVARIABLES
  5
B7
102
{ACAD_REACTORS
330
7
102
}
330
7
100
AcDbRasterVariables
 90
        0
 70
     1
 71
     1
 72
     5
  0
DICTIONARY
  5
1A
102
{ACAD_REACTORS
330
7
102
}
330
7
100
AcDbDictionary
281
     1
  3
Model
350
19
  3
Sheet1
350
1E
  0
DICTIONARY
  5
9
102
{ACAD_REACTORS
330
7
102
}
330
7
100
AcDbDictionary
281
     1
  3
ByLayer
350
10
  3
Global
350
8
  0
DICTIONARY
  5
B3
102
{ACAD_REACTORS
330
7
102
}
330
7
100
AcDbDictionary
281
     1
  0
DICTIONARY
  5
14
102
{ACAD_REACTORS
330
7
102
}
330
7
100
AcDbDictionary
281
     1
  3
Standard
350
13
  0
DICTIONARY
  5
24
102
{ACAD_REACTORS
330
7
102
}
330
7
100
AcDbDictionary
281
     1
  0
ACDBDICTIONARYWDFLT
  5
6
102
{ACAD_REACTORS
330
7
102
}
330
7
100
AcDbDictionary
281
     1
  3
Normal
350
5
100
AcDbDictionaryWithDefault
340
5
  0
DICTIONARY
  5
2A
102
{ACAD_REACTORS
330
7
102
}
330
7
100
AcDbDictionary
281
     1
  3
*A1
350
2B
  0
DICTIONARY
  5
B2
102
{ACAD_REACTORS
330
7
102
}
330
7
100
AcDbDictionary
281
     1
  3
Standard
350
B5
  0
XRECORD
  5
D0
102
{ACAD_REACTORS
330
7
102
}
330
7
100
AcDbXrecord
280
     1
 90
        1
330
B5
  0
DICTIONARY
  5
B0
102
{ACAD_REACTORS
330
7
102
}
330
7
100
AcDbDictionary
281
     1
  3
CANNOSCALE
350
B1
  3
CTABLESTYLE
350
D1
  3
XCLIPFRAME
350
B4
  0
DICTIONARY
  5
B6
102
{ACAD_REACTORS
330
7
102
}
330
7
100
AcDbDictionary
281
     1
  0
DICTIONARY
  5
4
102
{ACAD_REACTORS
330
3
102
}
330
3
100
AcDbDictionary
281
     1
  0
LAYOUT
  5
19
102
{ACAD_REACTORS
330
1A
330
1A
102
}
330
1A
100
AcDbPlotSettings
  1

  2
none_device
  4
ANSI_A_(8.50_x_11.00_Inches)
  6

 40
6.35
 41
19.05
 42
6.35
 43
19.05
 44
215.9
 45
279.4
 46
11.11250000000003
 47
0.0000000000000142
 48
0.0
 49
0.0
140
0.0
141
0.0
142
1.0
143
1.263157894736842
 70
 11444
 72
     0
 73
     1
 74
     1
  7
monochrome.ctb
 75
     0
 76
     0
 77
     2
 78
   300
147
0.7916666666666665
148
-702.8076765758875
149
-496.2830551296954
100
AcDbLayout
  1
Model
 70
     1
 71
     0
 10
0.0
 20
0.0
 11
12.0
 21
9.0
 12
0.0
 22
0.0
 32
0.0
 14
0.0
 24
0.0
 34
0.0
 15
0.0
 25
0.0
 35
0.0
146
0.0
 13
0.0
 23
0.0
 33
0.0
 16
1.0
 26
0.0
 36
0.0
 17
0.0
 27
1.0
 37
0.0
 76
     0
330
16
331
28
  0
LAYOUT
  5
1E
102
{ACAD_REACTORS
330
1A
330
1A
102
}
330
1A
100
AcDbPlotSettings
  1

  2
None
  4

  6

 40
0.0
 41
0.0
 42
0.0
 43
0.0
 44
0.0
 45
0.0
 46
0.0
 47
0.0
 48
0.0
 49
0.0
140
0.0
141
0.0
142
1.0
143
1.0
 70
   688
 72
     0
 73
     0
 74
     5
  7

 75
    16
 76
     0
 77
     2
 78
   300
147
1.0
148
0.0
149
0.0
100
AcDbLayout
  1
Sheet1
 70
     1
 71
     1
 10
0.0
 20
0.0
 11
12.0
 21
9.0
 12
0.0
 22
0.0
 32
0.0
 14
0.0
 24
0.0
 34
0.0
 15
0.0
 25
0.0
 35
0.0
146
0.0
 13
0.0
 23
0.0
 33
0.0
 16
1.0
 26
0.0
 36
0.0
 17
0.0
 27
1.0
 37
0.0
 76
     0
330
1B
  0
MATERIAL
  5
10
102
{ACAD_REACTORS
330
9
102
}
330
9
100
AcDbMaterial
  1
ByLayer
 72
     1
 94
      127
  0
MATERIAL
  5
8
102
{ACAD_REACTORS
330
9
102
}
330
9
100
AcDbMaterial
  1
Global
 72
     1
 94
      127
  0
MLINESTYLE
  5
13
102
{ACAD_REACTORS
330
14
102
}
330
14
100
AcDbMlineStyle
  2
Standard
 70
     0
  3

 62
   256
 51
90.0
 52
90.0
 71
     2
 49
0.5
 62
   256
  6
BYLAYER
 49
-0.5
 62
   256
  6
BYLAYER
  0
ACDBPLACEHOLDER
  5
5
102
{ACAD_REACTORS
330
6
102
}
330
6
  0
SCALE
  5
2B
102
{ACAD_REACTORS
330
2A
102
}
330
2A
100
AcDbScale
 70
     0
300
1:1
140
1.0
141
1.0
290
     1
  0
TABLESTYLE
  5
B5
102
{ACAD_REACTORS
330
B2
102
}
102
{ACAD_XDICTIONARY
360
CE
102
}
330
B2
100
AcDbTableStyle
  3
Standard
 70
     0
 71
     0
 40
0.06
 41
0.06
280
     0
281
     0
  7
Standard
140
0.18
170
     2
 62
     0
 63
   257
283
     0
 90
        4
 91
        0
  1

274
    -2
284
     1
 64
     0
275
    -2
285
     1
 65
     0
276
    -2
286
     1
 66
     0
277
    -2
287
     1
 67
     0
278
    -2
288
     1
 68
     0
279
    -2
289
     1
 69
     0
  7
Standard
140
0.25
170
     5
 62
     0
 63
   257
283
     0
 90
        4
 91
        0
  1

274
    -2
284
     1
 64
     0
275
    -2
285
     1
 65
     0
276
    -2
286
     1
 66
     0
277
    -2
287
     1
 67
     0
278
    -2
288
     1
 68
     0
279
    -2
289
     1
 69
     0
  7
Standard
140
0.18
170
     5
 62
     0
 63
   257
283
     0
 90
        4
 91
        0
  1

274
    -2
284
     1
 64
     0
275
    -2
285
     1
 65
     0
276
    -2
286
     1
 66
     0
277
    -2
287
     1
 67
     0
278
    -2
288
     1
 68
     0
279
    -2
289
     1
 69
     0
  0
DICTIONARYVAR
  5
B1
102
{ACAD_REACTORS
330
B0
102
}
330
B0
100
DictionaryVariables
280
     0
  1
1:1
  0
DICTIONARYVAR
  5
D1
102
{ACAD_REACTORS
330
B0
102
}
330
B0
100
DictionaryVariables
280
     0
  1
Standard
  0
DICTIONARYVAR
  5
B4
102
{ACAD_REACTORS
330
B0
102
}
330
B0
100
DictionaryVariables
280
     0
  1
0
  0
DICTIONARY
  5
CE
330
B5
100
AcDbDictionary
280
     1
281
     1
  3
ACAD_ROUNDTRIP_2008_TABLESTYLE_CELLSTYLEMAP
360
CF
  0
CELLSTYLEMAP
  5
CF
102
{ACAD_REACTORS
330
CE
102
}
330
CE
100
AcDbCellStyleMap
 90
        3
300
CELLSTYLE
  1
TABLEFORMAT_BEGIN
 90
        5
170
     1
 91
        0
 92
        0
 62
   257
 93
        1
300
CONTENTFORMAT
  1
CONTENTFORMAT_BEGIN
 90
        0
 91
        0
 92
        4
 93
        0
300

 40
0.0
140
1.0
 94
        5
 62
     0
340
E
144
0.25
309
CONTENTFORMAT_END
171
     1
301
MARGIN
  1
CELLMARGIN_BEGIN
 40
0.06
 40
0.06
 40
0.06
 40
0.06
 40
0.06
 40
0.06
309
CELLMARGIN_END
 94
        6
 95
        1
302
GRIDFORMAT
  1
GRIDFORMAT_BEGIN
 90
        0
 91
        1
 62
     0
 92
       -2
340
C
 93
        0
 40
0.045
309
GRIDFORMAT_END
 95
        2
302
GRIDFORMAT
  1
GRIDFORMAT_BEGIN
 90
        0
 91
        1
 62
     0
 92
       -2
340
C
 93
        0
 40
0.045
309
GRIDFORMAT_END
 95
        4
302
GRIDFORMAT
  1
GRIDFORMAT_BEGIN
 90
        0
 91
        1
 62
     0
 92
       -2
340
C
 93
        0
 40
0.045
309
GRIDFORMAT_END
 95
        8
302
GRIDFORMAT
  1
GRIDFORMAT_BEGIN
 90
        0
 91
        1
 62
     0
 92
       -2
340
C
 93
        0
 40
0.045
309
GRIDFORMAT_END
 95
       16
302
GRIDFORMAT
  1
GRIDFORMAT_BEGIN
 90
        0
 91
        1
 62
     0
 92
       -2
340
C
 93
        0
 40
0.045
309
GRIDFORMAT_END
 95
       32
302
GRIDFORMAT
  1
GRIDFORMAT_BEGIN
 90
        0
 91
        1
 62
     0
 92
       -2
340
C
 93
        0
 40
0.045
309
GRIDFORMAT_END
309
TABLEFORMAT_END
  1
CELLSTYLE_BEGIN
 90
        1
 91
        1
300
_TITLE
309
CELLSTYLE_END
300
CELLSTYLE
  1
TABLEFORMAT_BEGIN
 90
        5
170
     1
 91
        0
 92
        0
 62
   257
 93
        1
300
CONTENTFORMAT
  1
CONTENTFORMAT_BEGIN
 90
        0
 91
        0
 92
        4
 93
        0
300

 40
0.0
140
1.0
 94
        5
 62
     0
340
E
144
0.18
309
CONTENTFORMAT_END
171
     1
301
MARGIN
  1
CELLMARGIN_BEGIN
 40
0.06
 40
0.06
 40
0.06
 40
0.06
 40
0.06
 40
0.06
309
CELLMARGIN_END
 94
        6
 95
        1
302
GRIDFORMAT
  1
GRIDFORMAT_BEGIN
 90
        0
 91
        1
 62
     0
 92
       -2
340
C
 93
        0
 40
0.045
309
GRIDFORMAT_END
 95
        2
302
GRIDFORMAT
  1
GRIDFORMAT_BEGIN
 90
        0
 91
        1
 62
     0
 92
       -2
340
C
 93
        0
 40
0.045
309
GRIDFORMAT_END
 95
        4
302
GRIDFORMAT
  1
GRIDFORMAT_BEGIN
 90
        0
 91
        1
 62
     0
 92
       -2
340
C
 93
        0
 40
0.045
309
GRIDFORMAT_END
 95
        8
302
GRIDFORMAT
  1
GRIDFORMAT_BEGIN
 90
        0
 91
        1
 62
     0
 92
       -2
340
C
 93
        0
 40
0.045
309
GRIDFORMAT_END
 95
       16
302
GRIDFORMAT
  1
GRIDFORMAT_BEGIN
 90
        0
 91
        1
 62
     0
 92
       -2
340
C
 93
        0
 40
0.045
309
GRIDFORMAT_END
 95
       32
302
GRIDFORMAT
  1
GRIDFORMAT_BEGIN
 90
        0
 91
        1
 62
     0
 92
       -2
340
C
 93
        0
 40
0.045
309
GRIDFORMAT_END
309
TABLEFORMAT_END
  1
CELLSTYLE_BEGIN
 90
        2
 91
        1
300
_HEADER
309
CELLSTYLE_END
300
CELLSTYLE
  1
TABLEFORMAT_BEGIN
 90
        5
170
     1
 91
        0
 92
        0
 62
   257
 93
        1
300
CONTENTFORMAT
  1
CONTENTFORMAT_BEGIN
 90
        0
 91
        0
 92
        4
 93
        0
300

 40
0.0
140
1.0
 94
        2
 62
     0
340
E
144
0.18
309
CONTENTFORMAT_END
171
     1
301
MARGIN
  1
CELLMARGIN_BEGIN
 40
0.06
 40
0.06
 40
0.06
 40
0.06
 40
0.06
 40
0.06
309
CELLMARGIN_END
 94
        6
 95
        1
302
GRIDFORMAT
  1
GRIDFORMAT_BEGIN
 90
        0
 91
        1
 62
     0
 92
       -2
340
C
 93
        0
 40
0.045
309
GRIDFORMAT_END
 95
        2
302
GRIDFORMAT
  1
GRIDFORMAT_BEGIN
 90
        0
 91
        1
 62
     0
 92
       -2
340
C
 93
        0
 40
0.045
309
GRIDFORMAT_END
 95
        4
302
GRIDFORMAT
  1
GRIDFORMAT_BEGIN
 90
        0
 91
        1
 62
     0
 92
       -2
340
C
 93
        0
 40
0.045
309
GRIDFORMAT_END
 95
        8
302
GRIDFORMAT
  1
GRIDFORMAT_BEGIN
 90
        0
 91
        1
 62
     0
 92
       -2
340
C
 93
        0
 40
0.045
309
GRIDFORMAT_END
 95
       16
302
GRIDFORMAT
  1
GRIDFORMAT_BEGIN
 90
        0
 91
        1
 62
     0
 92
       -2
340
C
 93
        0
 40
0.045
309
GRIDFORMAT_END
 95
       32
302
GRIDFORMAT
  1
GRIDFORMAT_BEGIN
 90
        0
 91
        1
 62
     0
 92
       -2
340
C
 93
        0
 40
0.045
309
GRIDFORMAT_END
309
TABLEFORMAT_END
  1
CELLSTYLE_BEGIN
 90
        3
 91
        2
300
_DATA
309
CELLSTYLE_END
  0
ENDSEC
  0
EOF
