0
SECTION
2
HEADER
9
$EXTMIN
10
0
20
0
9
$EXTMAX
10
750
20
975
0
ENDSEC
0
SECTION
2
TABLES
0
TABLE
2
VPORT
70
1
0
VPORT
2
*ACTIVE
70
0
10
0
20
0
11
1
21
1
12
0
22
0
13
0
23
0
14
1
24
1
15
0
25
0
16
0
26
0
36
1
17
0
27
0
37
0
40
300
41
2.12
42
50
43
0
44
0
50
0
51
0
71
0
72
100
73
1
74
1
75
0
76
0
77
0
78
0
0
ENDTAB
0
ENDSEC
0
SECTION
2
ENTITIES
0
POLYLINE
8
1
66
1
70
0
0
VERTEX
8
1
10
38.10
20
38.10
0
VERTEX
8
1
10
59.97
20
38.10
0
VERTEX
8
1
10
59.97
20
31.75
0
VERTEX
8
1
10
88.19
20
31.75
0
VERTEX
8
1
10
88.19
20
38.10
0
VERTEX
8
1
10
116.42
20
38.10
0
VERTEX
8
1
10
116.42
20
31.75
0
VERTEX
8
1
10
144.64
20
31.75
0
VERTEX
8
1
10
144.64
20
38.10
0
VERTEX
8
1
10
172.86
20
38.10
0
VERTEX
8
1
10
172.86
20
31.75
0
VERTEX
8
1
10
201.08
20
31.75
0
VERTEX
8
1
10
201.08
20
38.10
0
VERTEX
8
1
10
229.31
20
38.10
0
VERTEX
8
1
10
229.31
20
31.75
0
VERTEX
8
1
10
257.53
20
31.75
0
VERTEX
8
1
10
257.53
20
38.10
0
VERTEX
8
1
10
279.40
20
38.10
0
VERTEX
8
1
10
279.40
20
64.91
0
VERTEX
8
1
10
285.75
20
64.91
0
VERTEX
8
1
10
285.75
20
91.72
0
VERTEX
8
1
10
279.40
20
91.72
0
VERTEX
8
1
10
279.40
20
118.53
0
VERTEX
8
1
10
285.75
20
118.53
0
VERTEX
8
1
10
285.75
20
145.34
0
VERTEX
8
1
10
279.40
20
145.34
0
VERTEX
8
1
10
279.40
20
172.16
0
VERTEX
8
1
10
285.75
20
172.16
0
VERTEX
8
1
10
285.75
20
198.97
0
VERTEX
8
1
10
279.40
20
198.97
0
VERTEX
8
1
10
279.40
20
225.78
0
VERTEX
8
1
10
285.75
20
225.78
0
VERTEX
8
1
10
285.75
20
252.59
0
VERTEX
8
1
10
279.40
20
252.59
0
VERTEX
8
1
10
279.40
20
279.40
0
VERTEX
8
1
10
257.53
20
279.40
0
VERTEX
8
1
10
257.53
20
285.75
0
VERTEX
8
1
10
229.31
20
285.75
0
VERTEX
8
1
10
229.31
20
279.40
0
VERTEX
8
1
10
201.08
20
279.40
0
VERTEX
8
1
10
201.08
20
285.75
0
VERTEX
8
1
10
172.86
20
285.75
0
VERTEX
8
1
10
172.86
20
279.40
0
VERTEX
8
1
10
144.64
20
279.40
0
VERTEX
8
1
10
144.64
20
285.75
0
VERTEX
8
1
10
116.42
20
285.75
0
VERTEX
8
1
10
116.42
20
279.40
0
VERTEX
8
1
10
88.19
20
279.40
0
VERTEX
8
1
10
88.19
20
285.75
0
VERTEX
8
1
10
59.97
20
285.75
0
VERTEX
8
1
10
59.97
20
279.40
0
VERTEX
8
1
10
38.10
20
279.40
0
VERTEX
8
1
10
38.10
20
252.59
0
VERTEX
8
1
10
31.75
20
252.59
0
VERTEX
8
1
10
31.75
20
225.78
0
VERTEX
8
1
10
38.10
20
225.78
0
VERTEX
8
1
10
38.10
20
198.97
0
VERTEX
8
1
10
31.75
20
198.97
0
VERTEX
8
1
10
31.75
20
172.16
0
VERTEX
8
1
10
38.10
20
172.16
0
VERTEX
8
1
10
38.10
20
145.34
0
VERTEX
8
1
10
31.75
20
145.34
0
VERTEX
8
1
10
31.75
20
118.53
0
VERTEX
8
1
10
38.10
20
118.53
0
VERTEX
8
1
10
38.10
20
91.72
0
VERTEX
8
1
10
31.75
20
91.72
0
VERTEX
8
1
10
31.75
20
64.91
0
VERTEX
8
1
10
38.10
20
64.91
0
VERTEX
8
1
10
38.10
20
38.10
0
SEQEND
0
POLYLINE
8
1
66
1
70
0
0
VERTEX
8
1
10
88.19
20
67.13
0
VERTEX
8
1
10
116.42
20
67.13
0
VERTEX
8
1
10
116.42
20
73.48
0
VERTEX
8
1
10
88.19
20
73.48
0
VERTEX
8
1
10
88.19
20
67.13
0
SEQEND
0
POLYLINE
8
1
66
1
70
0
0
VERTEX
8
1
10
144.64
20
67.13
0
VERTEX
8
1
10
172.86
20
67.13
0
VERTEX
8
1
10
172.86
20
73.48
0
VERTEX
8
1
10
144.64
20
73.48
0
VERTEX
8
1
10
144.64
20
67.13
0
SEQEND
0
POLYLINE
8
1
66
1
70
0
0
VERTEX
8
1
10
201.08
20
67.13
0
VERTEX
8
1
10
229.31
20
67.13
0
VERTEX
8
1
10
229.31
20
73.48
0
VERTEX
8
1
10
201.08
20
73.48
0
VERTEX
8
1
10
201.08
20
67.13
0
SEQEND
0
POLYLINE
8
1
66
1
70
0
0
VERTEX
8
1
10
88.19
20
102.51
0
VERTEX
8
1
10
116.42
20
102.51
0
VERTEX
8
1
10
116.42
20
108.86
0
VERTEX
8
1
10
88.19
20
108.86
0
VERTEX
8
1
10
88.19
20
102.51
0
SEQEND
0
POLYLINE
8
1
66
1
70
0
0
VERTEX
8
1
10
144.64
20
102.51
0
VERTEX
8
1
10
172.86
20
102.51
0
VERTEX
8
1
10
172.86
20
108.86
0
VERTEX
8
1
10
144.64
20
108.86
0
VERTEX
8
1
10
144.64
20
102.51
0
SEQEND
0
POLYLINE
8
1
66
1
70
0
0
VERTEX
8
1
10
201.08
20
102.51
0
VERTEX
8
1
10
229.31
20
102.51
0
VERTEX
8
1
10
229.31
20
108.86
0
VERTEX
8
1
10
201.08
20
108.86
0
VERTEX
8
1
10
201.08
20
102.51
0
SEQEND
0
POLYLINE
8
1
66
1
70
0
0
VERTEX
8
1
10
88.19
20
137.89
0
VERTEX
8
1
10
116.42
20
137.89
0
VERTEX
8
1
10
116.42
20
144.24
0
VERTEX
8
1
10
88.19
20
144.24
0
VERTEX
8
1
10
88.19
20
137.89
0
SEQEND
0
POLYLINE
8
1
66
1
70
0
0
VERTEX
8
1
10
144.64
20
137.89
0
VERTEX
8
1
10
172.86
20
137.89
0
VERTEX
8
1
10
172.86
20
144.24
0
VERTEX
8
1
10
144.64
20
144.24
0
VERTEX
8
1
10
144.64
20
137.89
0
SEQEND
0
POLYLINE
8
1
66
1
70
0
0
VERTEX
8
1
10
201.08
20
137.89
0
VERTEX
8
1
10
229.31
20
137.89
0
VERTEX
8
1
10
229.31
20
144.24
0
VERTEX
8
1
10
201.08
20
144.24
0
VERTEX
8
1
10
201.08
20
137.89
0
SEQEND
0
POLYLINE
8
1
66
1
70
0
0
VERTEX
8
1
10
88.19
20
173.26
0
VERTEX
8
1
10
116.42
20
173.26
0
VERTEX
8
1
10
116.42
20
179.61
0
VERTEX
8
1
10
88.19
20
179.61
0
VERTEX
8
1
10
88.19
20
173.26
0
SEQEND
0
POLYLINE
8
1
66
1
70
0
0
VERTEX
8
1
10
144.64
20
173.26
0
VERTEX
8
1
10
172.86
20
173.26
0
VERTEX
8
1
10
172.86
20
179.61
0
VERTEX
8
1
10
144.64
20
179.61
0
VERTEX
8
1
10
144.64
20
173.26
0
SEQEND
0
POLYLINE
8
1
66
1
70
0
0
VERTEX
8
1
10
201.08
20
173.26
0
VERTEX
8
1
10
229.31
20
173.26
0
VERTEX
8
1
10
229.31
20
179.61
0
VERTEX
8
1
10
201.08
20
179.61
0
VERTEX
8
1
10
201.08
20
173.26
0
SEQEND
0
POLYLINE
8
1
66
1
70
0
0
VERTEX
8
1
10
88.19
20
208.64
0
VERTEX
8
1
10
116.42
20
208.64
0
VERTEX
8
1
10
116.42
20
214.99
0
VERTEX
8
1
10
88.19
20
214.99
0
VERTEX
8
1
10
88.19
20
208.64
0
SEQEND
0
POLYLINE
8
1
66
1
70
0
0
VERTEX
8
1
10
144.64
20
208.64
0
VERTEX
8
1
10
172.86
20
208.64
0
VERTEX
8
1
10
172.86
20
214.99
0
VERTEX
8
1
10
144.64
20
214.99
0
VERTEX
8
1
10
144.64
20
208.64
0
SEQEND
0
POLYLINE
8
1
66
1
70
0
0
VERTEX
8
1
10
201.08
20
208.64
0
VERTEX
8
1
10
229.31
20
208.64
0
VERTEX
8
1
10
229.31
20
214.99
0
VERTEX
8
1
10
201.08
20
214.99
0
VERTEX
8
1
10
201.08
20
208.64
0
SEQEND
0
POLYLINE
8
1
66
1
70
0
0
VERTEX
8
1
10
88.19
20
244.02
0
VERTEX
8
1
10
116.42
20
244.02
0
VERTEX
8
1
10
116.42
20
250.37
0
VERTEX
8
1
10
88.19
20
250.37
0
VERTEX
8
1
10
88.19
20
244.02
0
SEQEND
0
POLYLINE
8
1
66
1
70
0
0
VERTEX
8
1
10
144.64
20
244.02
0
VERTEX
8
1
10
172.86
20
244.02
0
VERTEX
8
1
10
172.86
20
250.37
0
VERTEX
8
1
10
144.64
20
250.37
0
VERTEX
8
1
10
144.64
20
244.02
0
SEQEND
0
POLYLINE
8
1
66
1
70
0
0
VERTEX
8
1
10
201.08
20
244.02
0
VERTEX
8
1
10
229.31
20
244.02
0
VERTEX
8
1
10
229.31
20
250.37
0
VERTEX
8
1
10
201.08
20
250.37
0
VERTEX
8
1
10
201.08
20
244.02
0
SEQEND
0
POLYLINE
8
1
66
1
70
0
0
VERTEX
8
1
10
38.10
20
0.00
0
VERTEX
8
1
10
279.40
20
0.00
0
VERTEX
8
1
10
285.75
20
0.00
0
VERTEX
8
1
10
285.75
20
25.40
0
VERTEX
8
1
10
257.53
20
25.40
0
VERTEX
8
1
10
257.53
20
19.05
0
VERTEX
8
1
10
229.31
20
19.05
0
VERTEX
8
1
10
229.31
20
25.40
0
VERTEX
8
1
10
201.08
20
25.40
0
VERTEX
8
1
10
201.08
20
19.05
0
VERTEX
8
1
10
172.86
20
19.05
0
VERTEX
8
1
10
172.86
20
25.40
0
VERTEX
8
1
10
144.64
20
25.40
0
VERTEX
8
1
10
144.64
20
19.05
0
VERTEX
8
1
10
116.42
20
19.05
0
VERTEX
8
1
10
116.42
20
25.40
0
VERTEX
8
1
10
88.19
20
25.40
0
VERTEX
8
1
10
88.19
20
19.05
0
VERTEX
8
1
10
59.97
20
19.05
0
VERTEX
8
1
10
59.97
20
25.40
0
VERTEX
8
1
10
31.75
20
25.40
0
VERTEX
8
1
10
31.75
20
0.00
0
VERTEX
8
1
10
38.10
20
0.00
0
SEQEND
0
POLYLINE
8
1
66
1
70
0
0
VERTEX
8
1
10
38.10
20
317.50
0
VERTEX
8
1
10
279.40
20
317.50
0
VERTEX
8
1
10
285.75
20
317.50
0
VERTEX
8
1
10
285.75
20
292.10
0
VERTEX
8
1
10
257.53
20
292.10
0
VERTEX
8
1
10
257.53
20
298.45
0
VERTEX
8
1
10
229.31
20
298.45
0
VERTEX
8
1
10
229.31
20
292.10
0
VERTEX
8
1
10
201.08
20
292.10
0
VERTEX
8
1
10
201.08
20
298.45
0
VERTEX
8
1
10
172.86
20
298.45
0
VERTEX
8
1
10
172.86
20
292.10
0
VERTEX
8
1
10
144.64
20
292.10
0
VERTEX
8
1
10
144.64
20
298.45
0
VERTEX
8
1
10
116.42
20
298.45
0
VERTEX
8
1
10
116.42
20
292.10
0
VERTEX
8
1
10
88.19
20
292.10
0
VERTEX
8
1
10
88.19
20
298.45
0
VERTEX
8
1
10
59.97
20
298.45
0
VERTEX
8
1
10
59.97
20
292.10
0
VERTEX
8
1
10
31.75
20
292.10
0
VERTEX
8
1
10
31.75
20
317.50
0
VERTEX
8
1
10
38.10
20
317.50
0
SEQEND
0
POLYLINE
8
1
66
1
70
0
0
VERTEX
8
1
10
0.00
20
38.10
0
VERTEX
8
1
10
0.00
20
279.40
0
VERTEX
8
1
10
25.40
20
279.40
0
VERTEX
8
1
10
25.40
20
252.59
0
VERTEX
8
1
10
19.05
20
252.59
0
VERTEX
8
1
10
19.05
20
225.78
0
VERTEX
8
1
10
25.40
20
225.78
0
VERTEX
8
1
10
25.40
20
198.97
0
VERTEX
8
1
10
19.05
20
198.97
0
VERTEX
8
1
10
19.05
20
172.16
0
VERTEX
8
1
10
25.40
20
172.16
0
VERTEX
8
1
10
25.40
20
145.34
0
VERTEX
8
1
10
19.05
20
145.34
0
VERTEX
8
1
10
19.05
20
118.53
0
VERTEX
8
1
10
25.40
20
118.53
0
VERTEX
8
1
10
25.40
20
91.72
0
VERTEX
8
1
10
19.05
20
91.72
0
VERTEX
8
1
10
19.05
20
64.91
0
VERTEX
8
1
10
25.40
20
64.91
0
VERTEX
8
1
10
25.40
20
38.10
0
VERTEX
8
1
10
0.00
20
38.10
0
SEQEND
0
POLYLINE
8
1
66
1
70
0
0
VERTEX
8
1
10
317.50
20
38.10
0
VERTEX
8
1
10
317.50
20
279.40
0
VERTEX
8
1
10
292.10
20
279.40
0
VERTEX
8
1
10
292.10
20
252.59
0
VERTEX
8
1
10
298.45
20
252.59
0
VERTEX
8
1
10
298.45
20
225.78
0
VERTEX
8
1
10
292.10
20
225.78
0
VERTEX
8
1
10
292.10
20
198.97
0
VERTEX
8
1
10
298.45
20
198.97
0
VERTEX
8
1
10
298.45
20
172.16
0
VERTEX
8
1
10
292.10
20
172.16
0
VERTEX
8
1
10
292.10
20
145.34
0
VERTEX
8
1
10
298.45
20
145.34
0
VERTEX
8
1
10
298.45
20
118.53
0
VERTEX
8
1
10
292.10
20
118.53
0
VERTEX
8
1
10
292.10
20
91.72
0
VERTEX
8
1
10
298.45
20
91.72
0
VERTEX
8
1
10
298.45
20
64.91
0
VERTEX
8
1
10
292.10
20
64.91
0
VERTEX
8
1
10
292.10
20
38.10
0
VERTEX
8
1
10
317.50
20
38.10
0
SEQEND
0
POLYLINE
8
1
66
1
70
0
0
VERTEX
8
1
10
330.20
20
6.35
0
VERTEX
8
1
10
330.20
20
0.00
0
VERTEX
8
1
10
571.50
20
0.00
0
VERTEX
8
1
10
571.50
20
6.35
0
VERTEX
8
1
10
571.50
20
19.05
0
VERTEX
8
1
10
549.63
20
19.05
0
VERTEX
8
1
10
521.41
20
19.05
0
VERTEX
8
1
10
521.41
20
25.40
0
VERTEX
8
1
10
493.18
20
25.40
0
VERTEX
8
1
10
493.18
20
19.05
0
VERTEX
8
1
10
464.96
20
19.05
0
VERTEX
8
1
10
464.96
20
25.40
0
VERTEX
8
1
10
436.74
20
25.40
0
VERTEX
8
1
10
436.74
20
19.05
0
VERTEX
8
1
10
408.52
20
19.05
0
VERTEX
8
1
10
408.52
20
25.40
0
VERTEX
8
1
10
380.29
20
25.40
0
VERTEX
8
1
10
380.29
20
19.05
0
VERTEX
8
1
10
352.07
20
19.05
0
VERTEX
8
1
10
330.20
20
19.05
0
VERTEX
8
1
10
330.20
20
6.35
0
SEQEND
0
POLYLINE
8
1
66
1
70
0
0
VERTEX
8
1
10
330.20
20
38.10
0
VERTEX
8
1
10
330.20
20
31.75
0
VERTEX
8
1
10
571.50
20
31.75
0
VERTEX
8
1
10
571.50
20
38.10
0
VERTEX
8
1
10
571.50
20
50.80
0
VERTEX
8
1
10
549.63
20
50.80
0
VERTEX
8
1
10
521.41
20
50.80
0
VERTEX
8
1
10
521.41
20
57.15
0
VERTEX
8
1
10
493.18
20
57.15
0
VERTEX
8
1
10
493.18
20
50.80
0
VERTEX
8
1
10
464.96
20
50.80
0
VERTEX
8
1
10
464.96
20
57.15
0
VERTEX
8
1
10
436.74
20
57.15
0
VERTEX
8
1
10
436.74
20
50.80
0
VERTEX
8
1
10
408.52
20
50.80
0
VERTEX
8
1
10
408.52
20
57.15
0
VERTEX
8
1
10
380.29
20
57.15
0
VERTEX
8
1
10
380.29
20
50.80
0
VERTEX
8
1
10
352.07
20
50.80
0
VERTEX
8
1
10
330.20
20
50.80
0
VERTEX
8
1
10
330.20
20
38.10
0
SEQEND
0
POLYLINE
8
1
66
1
70
0
0
VERTEX
8
1
10
330.20
20
69.85
0
VERTEX
8
1
10
330.20
20
63.50
0
VERTEX
8
1
10
571.50
20
63.50
0
VERTEX
8
1
10
571.50
20
69.85
0
VERTEX
8
1
10
571.50
20
82.55
0
VERTEX
8
1
10
549.63
20
82.55
0
VERTEX
8
1
10
521.41
20
82.55
0
VERTEX
8
1
10
521.41
20
88.90
0
VERTEX
8
1
10
493.18
20
88.90
0
VERTEX
8
1
10
493.18
20
82.55
0
VERTEX
8
1
10
464.96
20
82.55
0
VERTEX
8
1
10
464.96
20
88.90
0
VERTEX
8
1
10
436.74
20
88.90
0
VERTEX
8
1
10
436.74
20
82.55
0
VERTEX
8
1
10
408.52
20
82.55
0
VERTEX
8
1
10
408.52
20
88.90
0
VERTEX
8
1
10
380.29
20
88.90
0
VERTEX
8
1
10
380.29
20
82.55
0
VERTEX
8
1
10
352.07
20
82.55
0
VERTEX
8
1
10
330.20
20
82.55
0
VERTEX
8
1
10
330.20
20
69.85
0
SEQEND
0
POLYLINE
8
1
66
1
70
0
0
VERTEX
8
1
10
330.20
20
101.60
0
VERTEX
8
1
10
330.20
20
95.25
0
VERTEX
8
1
10
571.50
20
95.25
0
VERTEX
8
1
10
571.50
20
101.60
0
VERTEX
8
1
10
571.50
20
114.30
0
VERTEX
8
1
10
549.63
20
114.30
0
VERTEX
8
1
10
521.41
20
114.30
0
VERTEX
8
1
10
521.41
20
120.65
0
VERTEX
8
1
10
493.18
20
120.65
0
VERTEX
8
1
10
493.18
20
114.30
0
VERTEX
8
1
10
464.96
20
114.30
0
VERTEX
8
1
10
464.96
20
120.65
0
VERTEX
8
1
10
436.74
20
120.65
0
VERTEX
8
1
10
436.74
20
114.30
0
VERTEX
8
1
10
408.52
20
114.30
0
VERTEX
8
1
10
408.52
20
120.65
0
VERTEX
8
1
10
380.29
20
120.65
0
VERTEX
8
1
10
380.29
20
114.30
0
VERTEX
8
1
10
352.07
20
114.30
0
VERTEX
8
1
10
330.20
20
114.30
0
VERTEX
8
1
10
330.20
20
101.60
0
SEQEND
0
POLYLINE
8
1
66
1
70
0
0
VERTEX
8
1
10
330.20
20
133.35
0
VERTEX
8
1
10
330.20
20
127.00
0
VERTEX
8
1
10
571.50
20
127.00
0
VERTEX
8
1
10
571.50
20
133.35
0
VERTEX
8
1
10
571.50
20
146.05
0
VERTEX
8
1
10
549.63
20
146.05
0
VERTEX
8
1
10
521.41
20
146.05
0
VERTEX
8
1
10
521.41
20
152.40
0
VERTEX
8
1
10
493.18
20
152.40
0
VERTEX
8
1
10
493.18
20
146.05
0
VERTEX
8
1
10
464.96
20
146.05
0
VERTEX
8
1
10
464.96
20
152.40
0
VERTEX
8
1
10
436.74
20
152.40
0
VERTEX
8
1
10
436.74
20
146.05
0
VERTEX
8
1
10
408.52
20
146.05
0
VERTEX
8
1
10
408.52
20
152.40
0
VERTEX
8
1
10
380.29
20
152.40
0
VERTEX
8
1
10
380.29
20
146.05
0
VERTEX
8
1
10
352.07
20
146.05
0
VERTEX
8
1
10
330.20
20
146.05
0
VERTEX
8
1
10
330.20
20
133.35
0
SEQEND
0
POLYLINE
8
1
66
1
70
0
0
VERTEX
8
1
10
330.20
20
165.10
0
VERTEX
8
1
10
330.20
20
158.75
0
VERTEX
8
1
10
571.50
20
158.75
0
VERTEX
8
1
10
571.50
20
165.10
0
VERTEX
8
1
10
571.50
20
177.80
0
VERTEX
8
1
10
549.63
20
177.80
0
VERTEX
8
1
10
521.41
20
177.80
0
VERTEX
8
1
10
521.41
20
184.15
0
VERTEX
8
1
10
493.18
20
184.15
0
VERTEX
8
1
10
493.18
20
177.80
0
VERTEX
8
1
10
464.96
20
177.80
0
VERTEX
8
1
10
464.96
20
184.15
0
VERTEX
8
1
10
436.74
20
184.15
0
VERTEX
8
1
10
436.74
20
177.80
0
VERTEX
8
1
10
408.52
20
177.80
0
VERTEX
8
1
10
408.52
20
184.15
0
VERTEX
8
1
10
380.29
20
184.15
0
VERTEX
8
1
10
380.29
20
177.80
0
VERTEX
8
1
10
352.07
20
177.80
0
VERTEX
8
1
10
330.20
20
177.80
0
VERTEX
8
1
10
330.20
20
165.10
0
SEQEND
0
ENDSEC
0
EOF
